  0
SECTION
  2
HEADER
  9
$ACADVER
  1
AC1027
  9
$ACADMAINTVER
 70
     8
  9
$DWGCODEPAGE
  3
ANSI_1252
  9
$REQUIREDVERSIONS
160
                 0
  9
$LASTSAVEDBY
  1
maika.huard
  9
$INSBASE
 10
0.0
 20
0.0
 30
0.0
  9
$EXTMIN
 10
0.0
 20
0.0
 30
0.0
  9
$EXTMAX
 10
279.4
 20
215.9
 30
0.0
  9
$LIMMIN
 10
0.0
 20
0.0
  9
$LIMMAX
 10
279.4
 20
215.9
  9
$ORTHOMODE
 70
     0
  9
$REGENMODE
 70
     1
  9
$FILLMODE
 70
     1
  9
$QTEXTMODE
 70
     0
  9
$MIRRTEXT
 70
     1
  9
$LTSCALE
 40
1.0
  9
$ATTMODE
 70
     1
  9
$TEXTSIZE
 40
3.175
  9
$TRACEWID
 40
1.0
  9
$TEXTSTYLE
  7
Standard
  9
$CLAYER
  8
0
  9
$CELTYPE
  6
ByLayer
  9
$CECOLOR
 62
   256
  9
$CELTSCALE
 40
1.0
  9
$DISPSILH
 70
     0
  9
$DIMSCALE
 40
1.0
  9
$DIMASZ
 40
3.302
  9
$DIMEXO
 40
1.27
  9
$DIMDLI
 40
3.75
  9
$DIMRND
 40
0.0
  9
$DIMDLE
 40
0.0
  9
$DIMEXE
 40
1.0
  9
$DIMTP
 40
0.0
  9
$DIMTM
 40
0.0
  9
$DIMTXT
 40
3.175
  9
$DIMCEN
 40
2.5
  9
$DIMTSZ
 40
0.0
  9
$DIMTOL
 70
     0
  9
$DIMLIM
 70
     0
  9
$DIMTIH
 70
     1
  9
$DIMTOH
 70
     1
  9
$DIMSE1
 70
     0
  9
$DIMSE2
 70
     0
  9
$DIMTAD
 70
     0
  9
$DIMZIN
 70
     0
  9
$DIMBLK
  1

  9
$DIMASO
 70
     1
  9
$DIMSHO
 70
     1
  9
$DIMPOST
  1

  9
$DIMAPOST
  1

  9
$DIMALT
 70
     0
  9
$DIMALTD
 70
     3
  9
$DIMALTF
 40
0.03937
  9
$DIMLFAC
 40
24.0
  9
$DIMTOFL
 70
     1
  9
$DIMTVP
 40
0.0
  9
$DIMTIX
 70
     0
  9
$DIMSOXD
 70
     0
  9
$DIMSAH
 70
     0
  9
$DIMBLK1
  1

  9
$DIMBLK2
  1

  9
$DIMSTYLE
  2
ISO-25
  9
$DIMCLRD
 70
     0
  9
$DIMCLRE
 70
     0
  9
$DIMCLRT
 70
     0
  9
$DIMTFAC
 40
1.0
  9
$DIMGAP
 40
1.524
  9
$DIMJUST
 70
     0
  9
$DIMSD1
 70
     0
  9
$DIMSD2
 70
     0
  9
$DIMTOLJ
 70
     0
  9
$DIMTZIN
 70
     0
  9
$DIMALTZ
 70
     0
  9
$DIMALTTZ
 70
     0
  9
$DIMUPT
 70
     0
  9
$DIMDEC
 70
     0
  9
$DIMTDEC
 70
     0
  9
$DIMALTU
 70
     2
  9
$DIMALTTD
 70
     3
  9
$DIMTXSTY
  7
Standard
  9
$DIMAUNIT
 70
     0
  9
$DIMADEC
 70
     1
  9
$DIMALTRND
 40
0.0
  9
$DIMAZIN
 70
     0
  9
$DIMDSEP
 70
    44
  9
$DIMATFIT
 70
     3
  9
$DIMFRAC
 70
     0
  9
$DIMLDRBLK
  1

  9
$DIMLUNIT
 70
     2
  9
$DIMLWD
 70
    -2
  9
$DIMLWE
 70
    -2
  9
$DIMTMOVE
 70
     0
  9
$DIMFXL
 40
1.0
  9
$DIMFXLON
 70
     0
  9
$DIMJOGANG
 40
0.785398
  9
$DIMTFILL
 70
     0
  9
$DIMTFILLCLR
 70
     0
  9
$DIMARCSYM
 70
     0
  9
$DIMLTYPE
  6

  9
$DIMLTEX1
  6

  9
$DIMLTEX2
  6

  9
$DIMTXTDIRECTION
 70
     0
  9
$LUNITS
 70
     2
  9
$LUPREC
 70
     0
  9
$SKETCHINC
 40
1.0
  9
$FILLETRAD
 40
0.0
  9
$AUNITS
 70
     0
  9
$AUPREC
 70
     1
  9
$MENU
  1
.
  9
$ELEVATION
 40
0.0
  9
$PELEVATION
 40
0.0
  9
$THICKNESS
 40
0.0
  9
$LIMCHECK
 70
     0
  9
$CHAMFERA
 40
0.0
  9
$CHAMFERB
 40
0.0
  9
$CHAMFERC
 40
0.0
  9
$CHAMFERD
 40
0.0
  9
$SKPOLY
 70
     0
  9
$TDCREATE
 40
2460516.427119398
  9
$TDUCREATE
 40
2460516.593786065
  9
$TDUPDATE
 40
2460521.377557477
  9
$TDUUPDATE
 40
2460521.544224143
  9
$TDINDWG
 40
0.0000000116
  9
$TDUSRTIMER
 40
0.0000000116
  9
$USRTIMER
 70
     1
  9
$ANGBASE
 50
0.0
  9
$ANGDIR
 70
     0
  9
$PDMODE
 70
     0
  9
$PDSIZE
 40
-1.0
  9
$PLINEWID
 40
0.0
  9
$SPLFRAME
 70
     0
  9
$SPLINETYPE
 70
     6
  9
$SPLINESEGS
 70
     8
  9
$HANDSEED
  5
1C1
  9
$SURFTAB1
 70
     6
  9
$SURFTAB2
 70
     6
  9
$SURFTYPE
 70
     6
  9
$SURFU
 70
     6
  9
$SURFV
 70
     6
  9
$UCSBASE
  2

  9
$UCSNAME
  2

  9
$UCSORG
 10
0.0
 20
0.0
 30
0.0
  9
$UCSXDIR
 10
1.0
 20
0.0
 30
0.0
  9
$UCSYDIR
 10
0.0
 20
1.0
 30
0.0
  9
$UCSORTHOREF
  2

  9
$UCSORTHOVIEW
 70
     0
  9
$UCSORGTOP
 10
0.0
 20
0.0
 30
0.0
  9
$UCSORGBOTTOM
 10
0.0
 20
0.0
 30
0.0
  9
$UCSORGLEFT
 10
0.0
 20
0.0
 30
0.0
  9
$UCSORGRIGHT
 10
0.0
 20
0.0
 30
0.0
  9
$UCSORGFRONT
 10
0.0
 20
0.0
 30
0.0
  9
$UCSORGBACK
 10
0.0
 20
0.0
 30
0.0
  9
$PUCSBASE
  2

  9
$PUCSNAME
  2

  9
$PUCSORG
 10
0.0
 20
0.0
 30
0.0
  9
$PUCSXDIR
 10
1.0
 20
0.0
 30
0.0
  9
$PUCSYDIR
 10
0.0
 20
1.0
 30
0.0
  9
$PUCSORTHOREF
  2

  9
$PUCSORTHOVIEW
 70
     0
  9
$PUCSORGTOP
 10
0.0
 20
0.0
 30
0.0
  9
$PUCSORGBOTTOM
 10
0.0
 20
0.0
 30
0.0
  9
$PUCSORGLEFT
 10
0.0
 20
0.0
 30
0.0
  9
$PUCSORGRIGHT
 10
0.0
 20
0.0
 30
0.0
  9
$PUCSORGFRONT
 10
0.0
 20
0.0
 30
0.0
  9
$PUCSORGBACK
 10
0.0
 20
0.0
 30
0.0
  9
$USERI1
 70
     0
  9
$USERI2
 70
     0
  9
$USERI3
 70
     0
  9
$USERI4
 70
     0
  9
$USERI5
 70
     0
  9
$USERR1
 40
0.0
  9
$USERR2
 40
0.0
  9
$USERR3
 40
0.0
  9
$USERR4
 40
0.0
  9
$USERR5
 40
0.0
  9
$WORLDVIEW
 70
     1
  9
$SHADEDGE
 70
     3
  9
$SHADEDIF
 70
    70
  9
$TILEMODE
 70
     1
  9
$MAXACTVP
 70
    64
  9
$PINSBASE
 10
0.0
 20
0.0
 30
0.0
  9
$PLIMCHECK
 70
     0
  9
$PEXTMIN
 10
1.000000E+20
 20
1.000000E+20
 30
1.000000E+20
  9
$PEXTMAX
 10
-1.000000E+20
 20
-1.000000E+20
 30
-1.000000E+20
  9
$PLIMMIN
 10
0.0
 20
0.0
  9
$PLIMMAX
 10
420.0
 20
297.0
  9
$UNITMODE
 70
     0
  9
$VISRETAIN
 70
     1
  9
$PLINEGEN
 70
     0
  9
$PSLTSCALE
 70
     0
  9
$TREEDEPTH
 70
  3020
  9
$CMLSTYLE
  2
Standard
  9
$CMLJUST
 70
     0
  9
$CMLSCALE
 40
20.0
  9
$PROXYGRAPHICS
 70
     1
  9
$MEASUREMENT
 70
     1
  9
$CELWEIGHT
370
    -1
  9
$ENDCAPS
280
     0
  9
$JOINSTYLE
280
     0
  9
$LWDISPLAY
290
     1
  9
$INSUNITS
 70
     4
  9
$HYPERLINKBASE
  1

  9
$STYLESHEET
  1

  9
$XEDIT
290
     1
  9
$CEPSNTYPE
380
     0
  9
$PSTYLEMODE
290
     1
  9
$FINGERPRINTGUID
  2
{6760ff11-cf57-4e16-a5f1-8a66cd6c58be}
  9
$VERSIONGUID
  2
{FAEB1C32-E019-11D5-929B-00C0DF256EC4}
  9
$EXTNAMES
290
     1
  9
$PSVPSCALE
 40
0.0
  9
$OLESTARTUP
290
     0
  9
$SORTENTS
280
   127
  9
$INDEXCTL
280
     0
  9
$HIDETEXT
280
     1
  9
$XCLIPFRAME
280
     2
  9
$HALOGAP
280
     0
  9
$OBSCOLOR
 70
   257
  9
$OBSLTYPE
280
     0
  9
$INTERSECTIONDISPLAY
280
     0
  9
$INTERSECTIONCOLOR
 70
   257
  9
$DIMASSOC
280
     2
  9
$PROJECTNAME
  1

  9
$CAMERADISPLAY
290
     0
  9
$LENSLENGTH
 40
50.0
  9
$CAMERAHEIGHT
 40
0.0
  9
$STEPSPERSEC
 40
2.0
  9
$STEPSIZE
 40
6.0
  9
$3DDWFPREC
 40
2.0
  9
$PSOLWIDTH
 40
0.25
  9
$PSOLHEIGHT
 40
4.0
  9
$LOFTANG1
 40
1.570796
  9
$LOFTANG2
 40
1.570796
  9
$LOFTMAG1
 40
0.0
  9
$LOFTMAG2
 40
0.0
  9
$LOFTPARAM
 70
     7
  9
$LOFTNORMALS
280
     1
  9
$LATITUDE
 40
37.795
  9
$LONGITUDE
 40
-122.394
  9
$NORTHDIRECTION
 40
0.0
  9
$TIMEZONE
 70
 -8000
  9
$LIGHTGLYPHDISPLAY
280
     1
  9
$TILEMODELIGHTSYNCH
280
     1
  9
$SOLIDHIST
280
     1
  9
$SHOWHIST
280
     1
  9
$DWFFRAME
280
     2
  9
$DGNFRAME
280
     2
  9
$REALWORLDSCALE
290
     1
  9
$INTERFERECOLOR
 62
   256
  9
$CSHADOW
280
     0
  9
$SHADOWPLANELOCATION
 40
0.0
  0
ENDSEC
  0
SECTION
  2
CLASSES
  0
CLASS
  1
ACDBDICTIONARYWDFLT
  2
AcDbDictionaryWithDefault
  3
ObjectDBX Classes
 90
        0
 91
        6
280
     0
281
     0
  0
CLASS
  1
VISUALSTYLE
  2
AcDbVisualStyle
  3
ObjectDBX Classes
 90
     4095
 91
        5
280
     0
281
     0
  0
CLASS
  1
MATERIAL
  2
AcDbMaterial
  3
ObjectDBX Classes
 90
     1153
 91
        5
280
     0
281
     0
  0
CLASS
  1
SCALE
  2
AcDbScale
  3
ObjectDBX Classes
 90
     1153
 91
        5
280
     0
281
     0
  0
CLASS
  1
TABLESTYLE
  2
AcDbTableStyle
  3
ObjectDBX Classes
 90
     4095
 91
        5
280
     0
281
     0
  0
CLASS
  1
MLEADERSTYLE
  2
AcDbMLeaderStyle
  3
ACDB_MLEADERSTYLE_CLASS
 90
     4095
 91
        4
280
     0
281
     0
  0
CLASS
  1
SUN
  2
AcDbSun
  3
SCENEOE
 90
     1153
 91
        5
280
     0
281
     0
  0
CLASS
  1
ACDBPLACEHOLDER
  2
AcDbPlaceHolder
  3
ObjectDBX Classes
 90
        0
 91
        1
280
     0
281
     0
  0
CLASS
  1
LAYOUT
  2
AcDbLayout
  3
ObjectDBX Classes
 90
        0
 91
        1
280
     0
281
     0
  0
CLASS
  1
CSACDOCUMENTOPTIONS
  2
CDocDataContainer
  3
"DERU003_CSAPP"
 90
     4095
 91
        4
280
     0
281
     0
  0
CLASS
  1
CELLSTYLEMAP
  2
AcDbCellStyleMap
  3
ObjectDBX Classes
 90
     1152
 91
        4
280
     0
281
     0
  0
CLASS
  1
DICTIONARYVAR
  2
AcDbDictionaryVar
  3
ObjectDBX Classes
 90
        0
 91
        4
280
     0
281
     0
  0
ENDSEC
  0
SECTION
  2
TABLES
  0
TABLE
  2
VPORT
  5
8
330
0
100
AcDbSymbolTable
 70
     1
  0
VPORT
  5
29
330
8
100
AcDbSymbolTableRecord
100
AcDbViewportTableRecord
  2
*Active
 70
     0
 10
0.0
 20
0.0
 11
1.0
 21
1.0
 12
130.52151
 22
115.484581
 13
0.0
 23
0.0
 14
10.0
 24
10.0
 15
10.0
 25
10.0
 16
0.0
 26
0.0
 36
1.0
 17
0.0
 27
0.0
 37
0.0
 40
323.85
 41
2.019036
 42
50.0
 43
0.0
 44
0.0
 50
0.0
 51
0.0
 71
    16
 72
  2000
 73
     1
 74
     3
 75
     0
 76
     0
 77
     0
 78
     0
281
     0
 65
     1
110
0.0
120
0.0
130
0.0
111
1.0
121
0.0
131
0.0
112
0.0
122
1.0
132
0.0
 79
     0
146
0.0
 60
     3
 61
     5
292
     1
282
     1
141
0.0
142
0.0
 63
   256
361
1AF
  0
ENDTAB
  0
TABLE
  2
LTYPE
  5
5
330
0
100
AcDbSymbolTable
 70
     6
  0
LTYPE
  5
14
330
5
100
AcDbSymbolTableRecord
100
AcDbLinetypeTableRecord
  2
ByBlock
 70
     0
  3

 72
    65
 73
     0
 40
0.0
  0
LTYPE
  5
15
330
5
100
AcDbSymbolTableRecord
100
AcDbLinetypeTableRecord
  2
ByLayer
 70
     0
  3

 72
    65
 73
     0
 40
0.0
  0
LTYPE
  5
16
330
5
100
AcDbSymbolTableRecord
100
AcDbLinetypeTableRecord
  2
Continuous
 70
     0
  3
Solid line
 72
    65
 73
     0
 40
0.0
  0
LTYPE
  5
5E
330
5
100
AcDbSymbolTableRecord
100
AcDbLinetypeTableRecord
  2
HIDDEN
 70
     0
  3
Hidden __ __ __ __ __ __ __ __ __ __ __ __ __ __
 72
    65
 73
     2
 40
1.905
 49
1.27
 74
     0
 49
-0.635
 74
     0
  0
LTYPE
  5
5F
330
5
100
AcDbSymbolTableRecord
100
AcDbLinetypeTableRecord
  2
PHANTOM
 70
     0
  3
Phantom ______  __  __  ______  __  __  ______
 72
    65
 73
     6
 40
12.7
 49
6.35
 74
     0
 49
-1.27
 74
     0
 49
1.27
 74
     0
 49
-1.27
 74
     0
 49
1.27
 74
     0
 49
-1.27
 74
     0
  0
LTYPE
  5
60
330
5
100
AcDbSymbolTableRecord
100
AcDbLinetypeTableRecord
  2
CENTER
 70
     0
  3
Center ____ _ ____ _ ____ _ ____ _ ____ _ ____
 72
    65
 73
     4
 40
10.16
 49
6.35
 74
     0
 49
-1.27
 74
     0
 49
1.27
 74
     0
 49
-1.27
 74
     0
  0
LTYPE
  5
61
330
5
100
AcDbSymbolTableRecord
100
AcDbLinetypeTableRecord
  2
CENTERX2
 70
     0
  3
Center (2x) ________  __  ________  __  _____
 72
    65
 73
     4
 40
20.32
 49
12.7
 74
     0
 49
-2.54
 74
     0
 49
2.54
 74
     0
 49
-2.54
 74
     0
  0
LTYPE
  5
62
330
5
100
AcDbSymbolTableRecord
100
AcDbLinetypeTableRecord
  2
DOT2
 70
     0
  3
Dot (.5x) ........................................
 72
    65
 73
     2
 40
0.635
 49
0.0
 74
     0
 49
-0.635
 74
     0
  0
ENDTAB
  0
TABLE
  2
LAYER
  5
2
330
0
100
AcDbSymbolTable
 70
     2
  0
LAYER
  5
10
330
2
100
AcDbSymbolTableRecord
100
AcDbLayerTableRecord
  2
0
 70
     0
 62
     7
  6
Continuous
370
    -3
390
F
347
1A9
348
0
  0
LAYER
  5
63
330
2
100
AcDbSymbolTableRecord
100
AcDbLayerTableRecord
  2
FORMAT
 70
     0
 62
     7
  6
Continuous
370
    -3
390
F
347
1A9
348
0
  0
ENDTAB
  0
TABLE
  2
STYLE
  5
3
330
0
100
AcDbSymbolTable
 70
     4
  0
STYLE
  5
11
330
3
100
AcDbSymbolTableRecord
100
AcDbTextStyleTableRecord
  2
Standard
 70
     0
 40
0.0
 41
1.0
 50
0.0
 71
     0
 42
3.175
  3
txt
  4

  0
STYLE
  5
87
330
3
100
AcDbSymbolTableRecord
100
AcDbTextStyleTableRecord
  2
SLDTEXTSTYLE0
 70
     0
 40
0.0
 41
0.605
 50
0.0
 71
     0
 42
3.175
  3
TXT
  4

  0
STYLE
  5
99
330
3
100
AcDbSymbolTableRecord
100
AcDbTextStyleTableRecord
  2
SLDTEXTSTYLE1
 70
     0
 40
0.0
 41
0.75
 50
0.0
 71
     0
 42
3.175
  3
TXT
  4

  0
STYLE
  5
A7
330
3
100
AcDbSymbolTableRecord
100
AcDbTextStyleTableRecord
  2
SLDTEXTSTYLE2
 70
     0
 40
0.0
 41
0.696429
 50
0.0
 71
     0
 42
3.175
  3
TXT
  4

  0
ENDTAB
  0
TABLE
  2
VIEW
  5
6
330
0
100
AcDbSymbolTable
 70
     0
  0
ENDTAB
  0
TABLE
  2
UCS
  5
7
330
0
100
AcDbSymbolTable
 70
     0
  0
ENDTAB
  0
TABLE
  2
APPID
  5
9
330
0
100
AcDbSymbolTable
 70
     6
  0
APPID
  5
12
330
9
100
AcDbSymbolTableRecord
100
AcDbRegAppTableRecord
  2
ACAD
 70
     0
  0
APPID
  5
1AA
330
9
100
AcDbSymbolTableRecord
100
AcDbRegAppTableRecord
  2
MCS_DIM1
 70
     0
  0
APPID
  5
1AB
330
9
100
AcDbSymbolTableRecord
100
AcDbRegAppTableRecord
  2
McsXdata5
 70
     0
  0
APPID
  5
1AE
330
9
100
AcDbSymbolTableRecord
100
AcDbRegAppTableRecord
  2
MCS_DOCUMENT_ID
 70
     0
  0
APPID
  5
1B6
330
9
100
AcDbSymbolTableRecord
100
AcDbRegAppTableRecord
  2
MCS_PARAMS_DATA
 70
     0
  0
APPID
  5
1B8
330
9
100
AcDbSymbolTableRecord
100
AcDbRegAppTableRecord
  2
MC_VERSION_DATA
 70
     0
  0
ENDTAB
  0
TABLE
  2
DIMSTYLE
  5
A
330
0
100
AcDbSymbolTable
 70
     4
100
AcDbDimStyleTable
  0
DIMSTYLE
105
27
330
A
100
AcDbSymbolTableRecord
100
AcDbDimStyleTableRecord
  2
ISO-25
 70
     0
 41
2.5
 42
0.625
 43
3.75
 44
1.25
 73
     0
 74
     0
 77
     1
 78
     8
140
2.5
141
2.5
143
0.03937
147
0.625
171
     3
172
     1
178
     0
271
     2
272
     2
274
     3
278
    44
283
     0
284
     8
340
11
  0
DIMSTYLE
105
E3
330
A
100
AcDbSymbolTableRecord
100
AcDbDimStyleTableRecord
  2
SLDDIMSTYLE0
 70
     0
 41
3.302
 44
0.0
 45
0.0
 78
    12
 79
     3
140
2.311487
143
0.03937
144
8.0
147
0.577872
148
0.0
170
     1
171
     3
172
     1
173
     1
178
     0
271
     0
272
     0
274
     3
276
     2
284
    12
289
     0
340
87
  0
DIMSTYLE
105
F1
330
A
100
AcDbSymbolTableRecord
100
AcDbDimStyleTableRecord
  2
SLDDIMSTYLE1
 70
     0
 41
3.302
 44
0.0
 45
0.0
 78
    12
 79
     3
140
2.311487
143
0.03937
144
8.0
147
0.577872
148
0.0
170
     1
171
     3
173
     1
178
     0
271
     0
272
     0
274
     3
276
     2
284
    12
340
87
  0
DIMSTYLE
105
116
330
A
100
AcDbSymbolTableRecord
100
AcDbDimStyleTableRecord
  2
SLDDIMSTYLE2
 70
     0
 41
3.302
 44
0.0
 45
0.0
146
3.302
147
0.0
173
     1
178
     0
271
     0
272
     0
276
     2
340
11
  0
ENDTAB
  0
TABLE
  2
BLOCK_RECORD
  5
1
330
0
100
AcDbSymbolTable
 70
     5
  0
BLOCK_RECORD
  5
1F
330
1
100
AcDbSymbolTableRecord
100
AcDbBlockTableRecord
  2
*Model_Space
340
22
 70
     0
280
     1
281
     0
  0
BLOCK_RECORD
  5
1B
330
1
100
AcDbSymbolTableRecord
100
AcDbBlockTableRecord
  2
*Paper_Space
340
1E
 70
     0
280
     1
281
     0
  0
BLOCK_RECORD
  5
23
330
1
100
AcDbSymbolTableRecord
100
AcDbBlockTableRecord
  2
*Paper_Space0
340
26
 70
     0
280
     1
281
     0
  0
BLOCK_RECORD
  5
B9
330
1
100
AcDbSymbolTableRecord
100
AcDbBlockTableRecord
  2
SW_BROKEN_VIEW_0
340
0
102
{BLKREFS
331
0
102
}
 70
     0
280
     1
281
     0
  0
BLOCK_RECORD
  5
E4
330
1
100
AcDbSymbolTableRecord
100
AcDbBlockTableRecord
  2
_D
340
0
 70
     0
280
     1
281
     0
  0
BLOCK_RECORD
  5
F2
330
1
100
AcDbSymbolTableRecord
100
AcDbBlockTableRecord
  2
_D_1
340
0
 70
     0
280
     1
281
     0
  0
BLOCK_RECORD
  5
104
330
1
100
AcDbSymbolTableRecord
100
AcDbBlockTableRecord
  2
_D_2
340
0
 70
     0
280
     1
281
     0
  0
ENDTAB
  0
ENDSEC
  0
SECTION
  2
BLOCKS
  0
BLOCK
  5
20
330
1F
100
AcDbEntity
  8
0
100
AcDbBlockBegin
  2
*Model_Space
 70
     0
 10
0.0
 20
0.0
 30
0.0
  3
*Model_Space
  1
*Model_Space
  0
ENDBLK
  5
21
330
1F
100
AcDbEntity
  8
0
100
AcDbBlockEnd
  0
BLOCK
  5
1C
330
1B
100
AcDbEntity
 67
     1
  8
0
100
AcDbBlockBegin
  2
*Paper_Space
 70
     0
 10
0.0
 20
0.0
 30
0.0
  3
*Paper_Space
  1
*Paper_Space
  0
ENDBLK
  5
1D
330
1B
100
AcDbEntity
 67
     1
  8
0
100
AcDbBlockEnd
  0
BLOCK
  5
24
330
23
100
AcDbEntity
  8
0
100
AcDbBlockBegin
  2
*Paper_Space0
 70
     0
 10
0.0
 20
0.0
 30
0.0
  3
*Paper_Space0
  1
*Paper_Space0
  0
ENDBLK
  5
25
330
23
100
AcDbEntity
  8
0
100
AcDbBlockEnd
  0
BLOCK
  5
BA
330
B9
100
AcDbEntity
  8
0
100
AcDbBlockBegin
  2
SW_BROKEN_VIEW_0
 70
     0
 10
0.0
 20
0.0
 30
0.0
  3
SW_BROKEN_VIEW_0
  1
SW_BROKEN_VIEW_0
  0
LINE
  5
BC
330
B9
100
AcDbEntity
  8
0
  6
Continuous
 62
     0
100
AcDbLine
 10
0.0
 20
0.0
 30
0.0
 11
133.576423
 21
0.0
 31
0.0
  0
ENDBLK
  5
BB
330
B9
100
AcDbEntity
  8
0
100
AcDbBlockEnd
  0
BLOCK
  5
E5
330
E4
100
AcDbEntity
  8
0
100
AcDbBlockBegin
  2
_D
 70
     0
 10
0.0
 20
0.0
 30
0.0
  3
_D
  1
_D
  0
SOLID
  5
E7
330
E4
100
AcDbEntity
  8
0
  6
Continuous
 62
     7
370
    18
100
AcDbTrace
 10
42.284415
 20
164.98192
 30
0.0
 11
41.776415
 21
161.67992
 31
0.0
 12
42.792415
 22
161.67992
 32
0.0
 13
42.792415
 23
161.67992
 33
0.0
  0
SOLID
  5
E8
330
E4
100
AcDbEntity
  8
0
  6
Continuous
 62
     7
370
    18
100
AcDbTrace
 10
42.284415
 20
188.05985
 30
0.0
 11
42.792415
 21
191.36185
 31
0.0
 12
41.776415
 22
191.36185
 32
0.0
 13
41.776415
 23
191.36185
 33
0.0
  0
LINE
  5
E9
330
E4
100
AcDbEntity
  8
0
  6
Continuous
 62
     7
370
     0
100
AcDbLine
 10
57.510915
 20
188.05985
 30
0.0
 11
41.284415
 21
188.05985
 31
0.0
  0
LINE
  5
EA
330
E4
100
AcDbEntity
  8
0
  6
Continuous
 62
     7
370
     0
100
AcDbLine
 10
42.284415
 20
164.98192
 30
0.0
 11
42.284415
 21
158.63192
 31
0.0
  0
LINE
  5
EB
330
E4
100
AcDbEntity
  8
0
  6
Continuous
 62
     7
370
     0
100
AcDbLine
 10
42.284415
 20
188.05985
 30
0.0
 11
42.284415
 21
194.40985
 31
0.0
  0
MTEXT
  5
EC
330
E4
100
AcDbEntity
  8
0
  6
Continuous
 62
     7
370
    18
100
AcDbMText
 10
39.021221
 20
185.046344
 30
0.0
 40
2.38125
 41
0.0
 46
0.0
 71
     1
 72
     1
  1
min.
  7
SLDTEXTSTYLE0
 73
     1
 44
1.0
  0
MTEXT
  5
ED
330
E4
100
AcDbEntity
  8
0
  6
Continuous
 62
     7
370
    18
100
AcDbMText
 10
36.375388
 20
181.496518
 30
0.0
 40
2.38125
 41
0.0
 46
0.0
 71
     1
 72
     1
  1
152 mm
  7
SLDTEXTSTYLE0
 73
     1
 44
1.0
  0
MTEXT
  5
EE
330
E4
100
AcDbEntity
  8
0
  6
Continuous
 62
     7
370
    18
100
AcDbMText
 10
39.590075
 20
177.946691
 30
0.0
 40
2.38125
 41
0.0
 46
0.0
 71
     1
 72
     1
  1
(6'')
  7
SLDTEXTSTYLE0
 73
     1
 44
1.0
  0
MTEXT
  5
EF
330
E4
100
AcDbEntity
  8
0
  6
Continuous
 62
     7
370
    18
100
AcDbMText
 10
33.817749
 20
174.396865
 30
0.0
 40
2.38125
 41
0.0
 46
0.0
 71
     1
 72
     1
  1
voir note#2
  7
SLDTEXTSTYLE0
 73
     1
 44
1.0
  0
ENDBLK
  5
E6
330
E4
100
AcDbEntity
  8
0
100
AcDbBlockEnd
  0
BLOCK
  5
F3
330
F2
100
AcDbEntity
  8
0
100
AcDbBlockBegin
  2
_D_1
 70
     0
 10
0.0
 20
0.0
 30
0.0
  3
_D_1
  1
_D_1
  0
SOLID
  5
F5
330
F2
100
AcDbEntity
  8
FORMAT
100
AcDbTrace
 10
42.284415
 20
45.928095
 30
0.0
 11
42.792415
 21
49.230095
 31
0.0
 12
41.776415
 22
49.230095
 32
0.0
 13
41.776415
 23
49.230095
 33
0.0
  0
SOLID
  5
F6
330
F2
100
AcDbEntity
  8
FORMAT
100
AcDbTrace
 10
42.284415
 20
164.98192
 30
0.0
 11
41.776415
 21
161.67992
 31
0.0
 12
42.792415
 22
161.67992
 32
0.0
 13
42.792415
 23
161.67992
 33
0.0
  0
LINE
  5
F7
330
F2
100
AcDbEntity
  8
FORMAT
100
AcDbLine
 10
67.600372
 20
45.928095
 30
0.0
 11
41.284415
 21
45.928095
 31
0.0
  0
LINE
  5
F8
330
F2
100
AcDbEntity
  8
FORMAT
100
AcDbLine
 10
42.284415
 20
45.928095
 30
0.0
 11
42.284415
 21
78.306083
 31
0.0
  0
LINE
  5
F9
330
F2
100
AcDbEntity
  8
FORMAT
100
AcDbLine
 10
42.284415
 20
164.98192
 30
0.0
 11
42.284415
 21
122.733636
 31
0.0
  0
LINE
  5
FA
330
F2
100
AcDbEntity
  8
FORMAT
100
AcDbLine
 10
42.284415
 20
78.306083
 30
0.0
 11
43.871915
 21
79.099833
 31
0.0
  0
LINE
  5
FB
330
F2
100
AcDbEntity
  8
FORMAT
100
AcDbLine
 10
43.871915
 20
79.099833
 30
0.0
 11
40.696915
 21
80.687333
 31
0.0
  0
LINE
  5
FC
330
F2
100
AcDbEntity
  8
FORMAT
100
AcDbLine
 10
40.696915
 20
80.687333
 30
0.0
 11
42.284415
 21
81.481083
 31
0.0
  0
LINE
  5
FD
330
F2
100
AcDbEntity
  8
FORMAT
100
AcDbLine
 10
42.284415
 20
81.481083
 30
0.0
 11
42.284415
 21
104.984505
 31
0.0
  0
MTEXT
  5
FE
330
F2
100
AcDbEntity
  8
FORMAT
100
AcDbMText
 10
31.171913
 20
122.253402
 30
0.0
 40
2.38125
 41
0.0
 46
0.0
 71
     1
 72
     1
  1
Sous le niveau
  7
SLDTEXTSTYLE0
 73
     1
 44
1.0
  0
MTEXT
  5
FF
330
F2
100
AcDbEntity
  8
FORMAT
100
AcDbMText
 10
29.824743
 20
118.703576
 30
0.0
 40
2.38125
 41
0.0
 46
0.0
 71
     1
 72
     1
  1
du gel et jusqu'à
  7
SLDTEXTSTYLE0
 73
     1
 44
1.0
  0
MTEXT
  5
100
330
F2
100
AcDbEntity
  8
FORMAT
100
AcDbMText
 10
29.736551
 20
115.15375
 30
0.0
 40
2.38125
 41
0.0
 46
0.0
 71
     1
 72
     1
  1
l'obtention de la
  7
SLDTEXTSTYLE0
 73
     1
 44
1.0
  0
MTEXT
  5
101
330
F2
100
AcDbEntity
  8
FORMAT
100
AcDbMText
 10
29.143443
 20
111.603923
 30
0.0
 40
2.38125
 41
0.0
 46
0.0
 71
     1
 72
     1
  1
capacité portante
  7
SLDTEXTSTYLE0
 73
     1
 44
1.0
  0
MTEXT
  5
102
330
F2
100
AcDbEntity
  8
FORMAT
100
AcDbMText
 10
36.198998
 20
108.054097
 30
0.0
 40
2.38125
 41
0.0
 46
0.0
 71
     1
 72
     1
  1
requise.
  7
SLDTEXTSTYLE0
 73
     1
 44
1.0
  0
ENDBLK
  5
F4
330
F2
100
AcDbEntity
  8
0
100
AcDbBlockEnd
  0
BLOCK
  5
105
330
104
100
AcDbEntity
  8
0
100
AcDbBlockBegin
  2
_D_2
 70
     0
 10
0.0
 20
0.0
 30
0.0
  3
_D_2
  1
_D_2
  0
SOLID
  5
107
330
104
100
AcDbEntity
  8
FORMAT
100
AcDbTrace
 10
80.733883
 20
39.838573
 30
0.0
 11
77.431883
 21
40.346573
 31
0.0
 12
77.431883
 22
39.330573
 32
0.0
 13
77.431883
 23
39.330573
 33
0.0
  0
SOLID
  5
108
330
104
100
AcDbEntity
  8
FORMAT
100
AcDbTrace
 10
49.225411
 20
39.838573
 30
0.0
 11
52.527411
 21
39.330573
 31
0.0
 12
52.527411
 22
40.346573
 32
0.0
 13
52.527411
 23
40.346573
 33
0.0
  0
LINE
  5
109
330
104
100
AcDbEntity
  8
FORMAT
100
AcDbLine
 10
80.733883
 20
60.201669
 30
0.0
 11
80.733883
 21
38.838573
 31
0.0
  0
LINE
  5
10A
330
104
100
AcDbEntity
  8
FORMAT
100
AcDbLine
 10
49.225411
 20
55.384393
 30
0.0
 11
49.225411
 21
38.838573
 31
0.0
  0
LINE
  5
10B
330
104
100
AcDbEntity
  8
FORMAT
100
AcDbLine
 10
80.733883
 20
39.838573
 30
0.0
 11
89.404716
 21
39.838573
 31
0.0
  0
LINE
  5
10C
330
104
100
AcDbEntity
  8
FORMAT
100
AcDbLine
 10
49.225411
 20
39.838573
 30
0.0
 11
80.733883
 21
39.838573
 31
0.0
  0
MTEXT
  5
10D
330
104
100
AcDbEntity
  8
FORMAT
100
AcDbMText
 10
89.934086
 20
46.457992
 30
0.0
 40
2.38125
 41
0.0
 46
0.0
 71
     1
 72
     1
  1
152 à 305 mm
  7
SLDTEXTSTYLE0
 73
     1
 44
1.0
  0
MTEXT
  5
10E
330
104
100
AcDbEntity
  8
FORMAT
100
AcDbMText
 10
89.934086
 20
42.908166
 30
0.0
 40
2.38125
 41
0.0
 46
0.0
 71
     1
 72
     1
  1
(6'' à 12'')
  7
SLDTEXTSTYLE0
 73
     1
 44
1.0
  0
MTEXT
  5
10F
330
104
100
AcDbEntity
  8
FORMAT
100
AcDbMText
 10
89.934086
 20
39.35834
 30
0.0
 40
2.38125
 41
0.0
 46
0.0
 71
     1
 72
     1
  1
Selon le type de sol et la
  7
SLDTEXTSTYLE0
 73
     1
 44
1.0
  0
MTEXT
  5
110
330
104
100
AcDbEntity
  8
FORMAT
100
AcDbMText
 10
89.934086
 20
35.808513
 30
0.0
 40
2.38125
 41
0.0
 46
0.0
 71
     1
 72
     1
  1
capacité portante requise.
  7
SLDTEXTSTYLE0
 73
     1
 44
1.0
  0
ENDBLK
  5
106
330
104
100
AcDbEntity
  8
0
100
AcDbBlockEnd
  0
ENDSEC
  0
SECTION
  2
ENTITIES
  0
LINE
  5
138
330
1F
100
AcDbEntity
  8
0
  6
Continuous
 62
     7
370
    25
100
AcDbLine
 10
177.803793
 20
180.534356
 30
0.0
 11
177.803793
 21
44.167958
 31
0.0
  0
LINE
  5
139
330
1F
100
AcDbEntity
  8
0
  6
Continuous
 62
     7
370
    25
100
AcDbLine
 10
184.788793
 20
44.167958
 30
0.0
 11
184.788793
 21
180.534356
 31
0.0
  0
LINE
  5
13A
330
1F
100
AcDbEntity
  8
0
  6
Continuous
 62
     7
370
    25
100
AcDbLine
 10
193.996293
 20
26.596374
 30
0.0
 11
193.996293
 21
27.374129
 31
0.0
  0
LINE
  5
13B
330
1F
100
AcDbEntity
  8
0
  6
Continuous
 62
     7
370
    25
100
AcDbLine
 10
168.596293
 20
30.713291
 30
0.0
 11
168.596293
 21
29.935536
 31
0.0
  0
LINE
  5
13C
330
1F
100
AcDbEntity
  8
0
  6
Continuous
 62
     7
370
    25
100
AcDbLine
 10
184.312543
 20
22.965709
 30
0.0
 11
184.312543
 21
24.019843
 31
0.0
  0
LINE
  5
13D
330
1F
100
AcDbEntity
  8
0
  6
Continuous
 62
     7
370
    25
100
AcDbLine
 10
184.312543
 20
27.96916
 30
0.0
 11
184.312543
 21
43.151572
 31
0.0
  0
LINE
  5
13E
330
1F
100
AcDbEntity
  8
0
  6
Continuous
 62
     7
370
    25
100
AcDbLine
 10
184.312543
 20
180.534356
 30
0.0
 11
184.312543
 21
190.592481
 31
0.0
  0
LINE
  5
13F
330
1F
100
AcDbEntity
  8
0
  6
Continuous
 62
     7
370
    25
100
AcDbLine
 10
178.280043
 20
190.572329
 30
0.0
 11
178.280043
 21
180.534356
 31
0.0
  0
LINE
  5
140
330
1F
100
AcDbEntity
  8
0
  6
Continuous
 62
     7
370
    25
100
AcDbLine
 10
178.280043
 20
43.151572
 30
0.0
 11
178.280043
 21
30.565212
 31
0.0
  0
LINE
  5
141
330
1F
100
AcDbEntity
  8
0
  6
Continuous
 62
     7
370
    25
100
AcDbLine
 10
178.280043
 20
24.233718
 30
0.0
 11
178.280043
 21
19.482655
 31
0.0
  0
LINE
  5
142
330
1F
100
AcDbEntity
  8
0
  6
Continuous
 62
     7
370
    25
100
AcDbLine
 10
188.200018
 20
192.988514
 30
0.0
 11
188.200018
 21
193.507018
 31
0.0
  0
LINE
  5
143
330
1F
100
AcDbEntity
  8
0
  6
Continuous
 62
     7
370
    25
100
AcDbLine
 10
174.357659
 20
193.507018
 30
0.0
 11
174.357659
 21
192.988514
 31
0.0
  0
LINE
  5
144
330
1F
100
AcDbEntity
  8
0
  6
Continuous
 62
     7
370
    25
100
AcDbLine
 10
181.196375
 20
191.586638
 30
0.0
 11
181.352857
 21
191.585826
 31
0.0
  0
ARC
  5
145
330
1F
100
AcDbEntity
  8
0
  6
Continuous
 62
     7
370
    25
100
AcDbCircle
 10
181.29634
 20
190.235336
 30
0.0
 40
4.136204591152534
100
AcDbArc
 50
83.632198
 51
96.855925
  0
ARC
  5
146
330
1F
100
AcDbEntity
  8
0
  6
Continuous
 62
     7
370
    25
100
AcDbCircle
 10
181.296423
 20
195.30066
 30
0.0
 40
3.502665907769329
100
AcDbArc
 50
261.926815
 51
277.478587
  0
ARC
  5
147
330
1F
100
AcDbEntity
  8
0
  6
Continuous
 62
     7
370
    25
100
AcDbCircle
 10
181.296367
 20
190.667178
 30
0.0
 40
3.491804067533745
100
AcDbArc
 50
82.451192
 51
98.129498
  0
LWPOLYLINE
  5
148
330
1F
100
AcDbEntity
  8
0
  6
Continuous
 62
     7
370
    25
100
AcDbPolyline
 90
       23
 70
   128
 43
0.0
 10
183.429103
 20
179.303111
 10
183.186003
 20
179.177207
 10
182.920748
 20
179.067215
 10
182.636448
 20
178.974424
 10
182.336435
 20
178.899922
 10
182.024228
 20
178.844581
 10
181.703486
 20
178.809052
 10
181.377971
 20
178.793751
 10
181.051498
 20
178.798856
 10
180.727894
 20
178.824309
 10
180.410955
 20
178.86981
 10
180.104396
 20
178.934827
 10
179.81181
 20
179.018597
 10
179.536629
 20
179.120137
 10
179.282078
 20
179.238258
 10
179.051142
 20
179.371575
 10
178.846528
 20
179.518524
 10
178.670635
 20
179.677383
 10
178.525526
 20
179.846289
 10
178.412902
 20
180.023262
 10
178.334083
 20
180.206227
 10
178.289993
 20
180.393039
 10
178.280043
 20
180.534356
  0
LWPOLYLINE
  5
149
330
1F
100
AcDbEntity
  8
0
  6
Continuous
 62
     7
370
    25
100
AcDbPolyline
 90
        9
 70
   128
 43
0.0
 10
184.312543
 20
180.534356
 10
184.311437
 20
180.487204
 10
184.284931
 20
180.299288
 10
184.223386
 20
180.114128
 10
184.127523
 20
179.933895
 10
183.998467
 20
179.760701
 10
183.837731
 20
179.596578
 10
183.647198
 20
179.443449
 10
183.429103
 20
179.303111
  0
LWPOLYLINE
  5
14A
330
1F
100
AcDbEntity
  8
0
  6
Continuous
 62
     7
370
    25
100
AcDbPolyline
 90
       30
 70
   128
 43
0.0
 10
183.765863
 20
179.108704
 10
183.50335
 20
178.971787
 10
183.21819
 20
178.850905
 10
182.913308
 20
178.747297
 10
182.591834
 20
178.662027
 10
182.257066
 20
178.59597
 10
181.912439
 20
178.549803
 10
181.561489
 20
178.524
 10
181.207818
 20
178.518826
 10
180.855055
 20
178.534334
 10
180.50682
 20
178.570365
 10
180.166685
 20
178.62655
 10
179.838142
 20
178.702311
 10
179.524562
 20
178.796871
 10
179.229162
 20
178.90926
 10
178.954974
 20
179.038325
 10
178.70481
 20
179.182741
 10
178.481239
 20
179.341027
 10
178.286554
 20
179.511558
 10
178.122753
 20
179.692584
 10
177.991517
 20
179.882248
 10
177.894192
 20
180.078603
 10
177.831777
 20
180.279635
 10
177.804913
 20
180.483281
 10
177.813876
 20
180.687451
 10
177.858572
 20
180.89005
 10
177.938545
 20
181.088999
 10
178.052972
 20
181.282256
 10
178.20068
 20
181.46784
 10
178.280043
 20
181.550742
  0
LWPOLYLINE
  5
14B
330
1F
100
AcDbEntity
  8
0
  6
Continuous
 62
     7
370
    25
100
AcDbPolyline
 90
       14
 70
   128
 43
0.0
 10
184.312543
 20
181.550742
 10
184.469832
 20
181.376128
 10
184.601069
 20
181.186465
 10
184.698393
 20
180.990109
 10
184.760808
 20
180.789077
 10
184.787672
 20
180.585431
 10
184.778709
 20
180.381262
 10
184.734013
 20
180.178663
 10
184.654041
 20
179.979714
 10
184.539613
 20
179.786456
 10
184.391905
 20
179.600873
 10
184.212432
 20
179.424869
 10
184.003035
 20
179.260249
 10
183.765863
 20
179.108704
  0
LWPOLYLINE
  5
14C
330
1F
100
AcDbEntity
  8
0
  6
Continuous
 62
     7
370
    25
100
AcDbPolyline
 90
       25
 70
   128
 43
0.0
 10
183.765863
 20
42.742305
 10
183.50335
 20
42.605389
 10
183.21819
 20
42.484507
 10
182.913308
 20
42.380899
 10
182.591834
 20
42.295629
 10
182.257066
 20
42.229571
 10
181.912439
 20
42.183404
 10
181.561489
 20
42.157601
 10
181.207818
 20
42.152428
 10
180.855055
 20
42.167936
 10
180.50682
 20
42.203967
 10
180.166685
 20
42.260151
 10
179.838142
 20
42.335912
 10
179.524562
 20
42.430473
 10
179.229162
 20
42.542862
 10
178.954974
 20
42.671927
 10
178.70481
 20
42.816343
 10
178.481239
 20
42.974629
 10
178.286554
 20
43.14516
 10
178.122753
 20
43.326186
 10
177.991517
 20
43.51585
 10
177.894192
 20
43.712205
 10
177.831777
 20
43.913237
 10
177.804913
 20
44.116883
 10
177.803793
 20
44.167958
  0
LWPOLYLINE
  5
14D
330
1F
100
AcDbEntity
  8
0
  6
Continuous
 62
     7
370
    25
100
AcDbPolyline
 90
        9
 70
   128
 43
0.0
 10
184.788793
 20
44.167958
 10
184.778709
 20
44.014863
 10
184.734013
 20
43.812264
 10
184.654041
 20
43.613315
 10
184.539613
 20
43.420058
 10
184.391905
 20
43.234475
 10
184.212432
 20
43.05847
 10
184.003035
 20
42.893851
 10
183.765863
 20
42.742305
  0
LINE
  5
14E
330
1F
100
AcDbEntity
  8
0
  6
Continuous
 62
     7
370
    25
100
AcDbLine
 10
182.355059
 20
31.073895
 30
0.0
 11
185.639948
 21
25.863781
 31
0.0
  0
SPLINE
  5
14F
330
1F
100
AcDbEntity
  8
0
  6
Continuous
 62
     7
370
    25
100
AcDbSpline
210
0.0
220
0.0
230
1.0
 70
     8
 71
     3
 72
    45
 73
    41
 74
     0
 42
0.000000001
 43
0.00000001
 40
0.0
 40
0.0
 40
0.0
 40
0.0
 40
0.0269465921238233
 40
0.0540590585908252
 40
0.0812309560245523
 40
0.1083544082381091
 40
0.1353227077380514
 40
0.1617669776771275
 40
0.1883805692068898
 40
0.2150657779618859
 40
0.2417204351345999
 40
0.2687231683293314
 40
0.2956262351152039
 40
0.3227035018581355
 40
0.3498697783947955
 40
0.3770173244703132
 40
0.4035583397525364
 40
0.4299714640386588
 40
0.4565440330007267
 40
0.4832185207437528
 40
0.510377053439448
 40
0.5374280330087198
 40
0.5643206736258684
 40
0.5913547105201001
 40
0.6185071727612261
 40
0.6451864243148295
 40
0.6717742759194085
 40
0.6981939584976544
 40
0.7247166069545302
 40
0.7518561786539353
 40
0.779025493219121
 40
0.8061167369364389
 40
0.8330320675231211
 40
0.8600149231361199
 40
0.8866605544240456
 40
0.9133473522238316
 40
0.9399731106429318
 40
0.9664370433839213
 40
0.9933836355077426
 40
1.0
 40
1.0
 40
1.0
 40
1.0
 10
185.6399484242315
 20
25.86378118270352
 30
0.0
 10
185.2882397107793
 20
25.76495879749319
 30
0.0
 10
184.5826572809104
 20
25.56670570902762
 30
0.0
 10
183.488224875502
 20
25.33627974132821
 30
0.0
 10
182.3768052892302
 20
25.15750151550378
 30
0.0
 10
181.2582980765366
 20
25.03706434575161
 30
0.0
 10
180.1501131720763
 20
24.97508537381631
 30
0.0
 10
179.0575348800423
 20
24.96912692237914
 30
0.0
 10
177.985695069013
 20
25.01520217433779
 30
0.0
 10
176.9358812049649
 20
25.1142333556124
 30
0.0
 10
175.913833227395
 20
25.26588529405699
 30
0.0
 10
174.9297943718859
 20
25.46961083673698
 30
0.0
 10
173.989410735291
 20
25.72451809086947
 30
0.0
 10
173.1036480638772
 20
26.02423500396643
 30
0.0
 10
172.2789007731079
 20
26.36802888158661
 30
0.0
 10
171.5292642549913
 20
26.74964901186115
 30
0.0
 10
170.8605191485504
 20
27.16412605158046
 30
0.0
 10
170.2738430212392
 20
27.60835622266013
 30
0.0
 10
169.7681898778213
 20
28.07856720998218
 30
0.0
 10
169.3446860634044
 20
28.57591777616467
 30
0.0
 10
169.0102153876702
 20
29.09547040249459
 30
0.0
 10
168.7698833707635
 20
29.63172554446195
 30
0.0
 10
168.6262134602894
 20
30.17886323431172
 30
0.0
 10
168.5799082775895
 20
30.72968344435895
 30
0.0
 10
168.6317840906594
 20
31.27811044984378
 30
0.0
 10
168.7798472095772
 20
31.8183883129835
 30
0.0
 10
169.0200607876288
 20
32.34455551582383
 30
0.0
 10
169.3509633606681
 20
32.85750562475218
 30
0.0
 10
169.7732734499042
 20
33.3538763755421
 30
0.0
 10
170.2874853123852
 20
33.83017260111815
 30
0.0
 10
170.8909469861065
 20
34.28109244980154
 30
0.0
 10
171.5734182871639
 20
34.69842033624301
 30
0.0
 10
172.329314649919
 20
35.08035826949596
 30
0.0
 10
173.1495342003618
 20
35.4195097153796
 30
0.0
 10
174.0289928296419
 20
35.71377329079179
 30
0.0
 10
174.95918920533
 20
35.961014495669
 30
0.0
 10
175.9342582116347
 20
36.16153798385699
 30
0.0
 10
176.9544980158462
 20
36.31007559724789
 30
0.0
 10
177.7393189284124
 20
36.3951720250289
 30
0.0
 10
178.1910011560924
 20
36.41182919654268
 30
0.0
 10
178.2800426039955
 20
36.41511287382432
 30
0.0
  0
SPLINE
  5
150
330
1F
100
AcDbEntity
  8
0
  6
Continuous
 62
     7
370
    25
100
AcDbSpline
210
0.0
220
0.0
230
1.0
 70
     8
 71
     3
 72
    31
 73
    27
 74
     0
 42
0.000000001
 43
0.00000001
 40
0.0
 40
0.0
 40
0.0
 40
0.0
 40
0.0115509395217603
 40
0.0544687711510371
 40
0.0973374666586361
 40
0.1407659729679527
 40
0.1840341857531008
 40
0.2275825643970037
 40
0.2712740975268118
 40
0.3149355064486724
 40
0.3576214316595538
 40
0.4001016697316181
 40
0.4428383427380776
 40
0.4857389317596298
 40
0.5294180104669993
 40
0.5729241114392718
 40
0.6161755558132026
 40
0.6596544078746123
 40
0.7033237234675346
 40
0.7462319741274924
 40
0.7889932262138522
 40
0.8314840119896915
 40
0.8741403978282165
 40
0.9160945313662416
 40
0.9580990908913248
 40
1.0
 40
1.0
 40
1.0
 40
1.0
 10
184.3125426039955
 20
35.90474403709045
 30
0.0
 10
184.4091553391995
 20
35.88445383030707
 30
0.0
 10
184.864735333726
 20
35.78877480542695
 30
0.0
 10
185.6556576464185
 20
35.56376114860493
 30
0.0
 10
186.6790363224548
 20
35.22905643275509
 30
0.0
 10
187.6627145611711
 20
34.83956154102078
 30
0.0
 10
188.6031950235995
 20
34.40153421430815
 30
0.0
 10
189.488931601867
 20
33.91409564729231
 30
0.0
 10
190.3136859219789
 20
33.38124179697652
 30
0.0
 10
191.0633205644801
 20
32.81195204684331
 30
0.0
 10
191.7320661620018
 20
32.21321457452856
 30
0.0
 10
192.3187421590393
 20
31.58914152764353
 30
0.0
 10
192.8243953380471
 20
30.93507286387784
 30
0.0
 10
193.2478991408995
 20
30.25101313084562
 30
0.0
 10
193.5823698271378
 20
29.54362664589792
 30
0.0
 10
193.8227018138598
 20
28.82026538868626
 30
0.0
 10
193.9663718340414
 20
28.09004267430017
 30
0.0
 10
194.0126766057607
 20
27.35249871023944
 30
0.0
 10
193.9608023256149
 20
26.61633065847894
 30
0.0
 10
193.8127335835249
 20
25.88926925607408
 30
0.0
 10
193.5725407996528
 20
25.17891660647685
 30
0.0
 10
193.2415610399084
 20
24.48598930790778
 30
0.0
 10
192.8250940983125
 20
23.81459785797349
 30
0.0
 10
192.3249021769876
 20
23.16816979175676
 30
0.0
 10
191.75347484731
 20
22.54918604920558
 30
0.0
 10
191.309854724009
 20
22.16299616334136
 30
0.0
 10
191.088318669591
 20
21.97013975517423
 30
0.0
  0
SPLINE
  5
151
330
1F
100
AcDbEntity
  8
0
  6
Continuous
 62
     7
370
    25
100
AcDbSpline
210
0.0
220
0.0
230
1.0
 70
     8
 71
     3
 72
    12
 73
     8
 74
     0
 42
0.000000001
 43
0.00000001
 40
0.0
 40
0.0
 40
0.0
 40
0.0
 40
0.1374351054810133
 40
0.3522997446134762
 40
0.567860716147565
 40
0.7838236775211652
 40
1.0
 40
1.0
 40
1.0
 40
1.0
 10
185.6399484242315
 20
25.09908765389043
 30
0.0
 10
185.8957229470057
 20
24.95401226340348
 30
0.0
 10
186.5513727443162
 20
24.58212749030007
 30
0.0
 10
187.585120468132
 20
23.98825452995731
 30
0.0
 10
188.7568556947986
 20
23.31447914218574
 30
0.0
 10
189.9240480181225
 20
22.64172466583124
 30
0.0
 10
190.7001007906528
 20
22.19407441192822
 30
0.0
 10
191.0883187580625
 20
21.97013877529096
 30
0.0
  0
SPLINE
  5
152
330
1F
100
AcDbEntity
  8
0
  6
Continuous
 62
     7
370
    25
100
AcDbSpline
210
0.0
220
0.0
230
1.0
 70
     8
 71
     3
 72
    18
 73
    14
 74
     0
 42
0.000000001
 43
0.00000001
 40
0.0
 40
0.0
 40
0.0
 40
0.0
 40
0.0917534237948048
 40
0.183836355284744
 40
0.2752877788722936
 40
0.3675127225951863
 40
0.4589036077664923
 40
0.5510811608405443
 40
0.6426535228878781
 40
0.7345949199767084
 40
0.8265363170655389
 40
0.9181086791128729
 40
1.0
 40
1.0
 40
1.0
 40
1.0
 10
182.355058710178
 20
31.07389533201695
 30
0.0
 10
182.1607697514792
 20
30.97087414003584
 30
0.0
 10
181.7714940976449
 20
30.76446178322557
 30
0.0
 10
181.1607602256948
 20
30.53829778987462
 30
0.0
 10
180.5546376988001
 20
30.38150059764057
 30
0.0
 10
179.9807516341332
 20
30.28639591731971
 30
0.0
 10
179.4530986973123
 20
30.26125943878193
 30
0.0
 10
178.9999440458965
 20
30.2843595270189
 30
0.0
 10
178.6326166490155
 20
30.36027522158062
 30
0.0
 10
178.3681300435092
 20
30.46849363864983
 30
0.0
 10
178.2188486419376
 20
30.60008687485709
 30
0.0
 10
178.1784752427532
 20
30.74138583706936
 30
0.0
 10
178.2474703604652
 20
30.82633049165197
 30
0.0
 10
178.2800426039955
 20
30.86643243027332
 30
0.0
  0
LINE
  5
153
330
1F
100
AcDbEntity
  8
0
  6
Continuous
 62
     7
370
    25
100
AcDbLine
 10
185.639948
 20
25.863781
 30
0.0
 11
185.639948
 21
25.086026
 31
0.0
  0
SPLINE
  5
154
330
1F
100
AcDbEntity
  8
0
  6
Continuous
 62
     7
370
    25
100
AcDbSpline
210
0.0
220
0.0
230
1.0
 70
     8
 71
     3
 72
    29
 73
    25
 74
     0
 42
0.000000001
 43
0.00000001
 40
0.0
 40
0.0
 40
0.0
 40
0.0
 40
0.0456259241157483
 40
0.0915327063882475
 40
0.1375401170728839
 40
0.1834655003928316
 40
0.2291281794010355
 40
0.2739035724448911
 40
0.3189656605191351
 40
0.3641490107577702
 40
0.409280631109063
 40
0.4550016131909268
 40
0.5005538402782223
 40
0.546401022437581
 40
0.5923989158288296
 40
0.638365094835016
 40
0.6833042969299269
 40
0.7280269542069859
 40
0.7730195829391335
 40
0.8181847803784708
 40
0.8641695619113217
 40
0.9099722346727906
 40
0.9555068081888727
 40
0.9999999999999999
 40
0.9999999999999999
 40
0.9999999999999999
 40
0.9999999999999999
 10
185.6399484242315
 20
25.08602605938236
 30
0.0
 10
185.2882397107793
 20
24.98720367417202
 30
0.0
 10
184.5826572809104
 20
24.78895058570644
 30
0.0
 10
183.488224875502
 20
24.55852461800704
 30
0.0
 10
182.3768052892299
 20
24.37974639218261
 30
0.0
 10
181.2582980765375
 20
24.25930922243044
 30
0.0
 10
180.1501131720731
 20
24.19733025049517
 30
0.0
 10
179.0575348800544
 20
24.19137179905788
 30
0.0
 10
177.9856950689678
 20
24.23744705101696
 30
0.0
 10
176.9358812051338
 20
24.33647823228996
 30
0.0
 10
175.9138332267618
 20
24.48813017074057
 30
0.0
 10
174.9297943742796
 20
24.69185571339787
 30
0.0
 10
173.9894107263737
 20
24.9467629676151
 30
0.0
 10
173.1036480974466
 20
25.24647988039384
 30
0.0
 10
172.2789006474295
 20
25.59027375920679
 30
0.0
 10
171.5292647191865
 20
25.97189388506312
 30
0.0
 10
170.8605174625915
 20
26.38637094088732
 30
0.0
 10
170.2738493002553
 20
26.83060105230842
 30
0.0
 10
169.7681662433115
 20
27.30081226368618
 30
0.0
 10
169.3447753084052
 20
27.79816198438832
 30
0.0
 10
169.0098762034093
 20
28.31771781970204
 30
0.0
 10
168.7711397638394
 20
28.85396101061405
 30
0.0
 10
168.6229417360428
 20
29.39603170545218
 30
0.0
 10
168.6059990238821
 20
29.75711487131173
 30
0.0
 10
168.5976256588516
 20
29.93556806850002
 30
0.0
  0
SPLINE
  5
155
330
1F
100
AcDbEntity
  8
0
  6
Continuous
 62
     7
370
    25
100
AcDbSpline
210
0.0
220
0.0
230
1.0
 70
     8
 71
     3
 72
    17
 73
    13
 74
     0
 42
0.000000001
 43
0.00000001
 40
0.0
 40
0.0
 40
0.0
 40
0.0
 40
0.0031575463573073
 40
0.1164986966482983
 40
0.2278645474921345
 40
0.3388488721499858
 40
0.4491312173439246
 40
0.5598433677990227
 40
0.6701011914461502
 40
0.7804880421788488
 40
0.8905888377871988
 40
1.0
 40
1.0
 40
1.0
 40
1.0
 10
193.9949595491395
 20
26.59634219283037
 30
0.0
 10
193.9954023547505
 20
26.5894705305672
 30
0.0
 10
194.0117398113441
 20
26.33593832331628
 30
0.0
 10
193.9536906461329
 20
25.83839100364678
 30
0.0
 10
193.8146233140385
 20
25.11156035268596
 30
0.0
 10
193.5720195838575
 20
24.40115915738027
 30
0.0
 10
193.2417722420531
 20
23.70819788928884
 30
0.0
 10
192.82304311967
 20
23.0342058740456
 30
0.0
 10
192.3195545882919
 20
22.38183761635883
 30
0.0
 10
191.7344236408527
 20
21.75822083154522
 30
0.0
 10
191.0788579614324
 20
21.16459843656454
 30
0.0
 10
190.5831965101874
 20
20.80015190425537
 30
0.0
 10
190.3361443860886
 20
20.61850112285756
 30
0.0
  0
LINE
  5
156
330
1F
100
AcDbEntity
  8
0
  6
Continuous
 62
     7
370
    25
100
AcDbLine
 10
191.088319
 20
21.970139
 30
0.0
 11
190.336144
 21
20.618501
 31
0.0
  0
SPLINE
  5
157
330
1F
100
AcDbEntity
  8
0
  6
Continuous
 62
     7
370
    25
100
AcDbSpline
210
0.0
220
0.0
230
1.0
 70
     8
 71
     3
 72
    17
 73
    13
 74
     0
 42
0.000000001
 43
0.00000001
 40
0.0
 40
0.0
 40
0.0
 40
0.0
 40
0.0978262294929214
 40
0.1901984828697481
 40
0.277117415988598
 40
0.3585838164161439
 40
0.4345986411953881
 40
0.5051630691836656
 40
0.5978819442647614
 40
0.7681966318640229
 40
0.9168407220959329
 40
1.0
 40
1.0
 40
1.0
 40
1.0
 10
186.8795856733799
 20
22.53790722479796
 30
0.0
 10
186.7734200956387
 20
22.60213425835868
 30
0.0
 10
186.5670078489026
 20
22.72700756080318
 30
0.0
 10
186.2662904504843
 20
22.91000398023468
 30
0.0
 10
185.9833475409936
 20
23.08305294183995
 30
0.0
 10
185.7181804942499
 20
23.2462210376197
 30
0.0
 10
185.4707882340921
 20
23.39948096432566
 30
0.0
 10
185.211232546354
 20
23.56156882901101
 30
0.0
 10
184.8494752054992
 20
23.78974989734753
 30
0.0
 10
184.4032901480153
 20
24.07641544949803
 30
0.0
 10
183.9677156311165
 20
24.36217383498267
 30
0.0
 10
183.7172917117572
 20
24.53533132487477
 30
0.0
 10
183.6274523255943
 20
24.5974514396035
 30
0.0
  0
SPLINE
  5
158
330
1F
100
AcDbEntity
  8
0
  6
Continuous
 62
     7
370
    25
100
AcDbSpline
210
0.0
220
0.0
230
1.0
 70
     8
 71
     3
 72
     9
 73
     5
 74
     0
 42
0.000000001
 43
0.00000001
 40
0.0
 40
0.0
 40
0.0
 40
0.0
 40
0.4999996799948579
 40
0.9999999999999999
 40
0.9999999999999999
 40
0.9999999999999999
 40
0.9999999999999999
 10
190.3361443860886
 20
20.61850112285756
 30
0.0
 10
189.7633377251702
 20
20.94125897532338
 30
0.0
 10
188.6177236701287
 20
21.58677509339199
 30
0.0
 10
187.4589738980179
 20
22.22087869164392
 30
0.0
 10
186.8795986411565
 20
22.5379306936863
 30
0.0
  0
LINE
  5
159
330
1F
100
AcDbEntity
  8
0
  6
Continuous
 62
     7
370
    25
100
AcDbLine
 10
183.48523
 20
24.49744
 30
0.0
 11
183.48523
 21
24.567149
 31
0.0
  0
LINE
  5
15A
330
1F
100
AcDbEntity
  8
0
  6
Continuous
 62
     7
370
    25
100
AcDbLine
 10
186.879105
 20
22.538198
 30
0.0
 11
183.48523
 21
24.49744
 31
0.0
  0
ELLIPSE
  5
15B
330
1F
100
AcDbEntity
  8
0
  6
Continuous
 62
     7
370
    25
100
AcDbEllipse
 10
181.296293
 20
21.224182
 30
0.0
 11
3.016250006456545
 21
1.741527100937166
 31
0.0
210
0.0
220
0.0
230
1.0
 40
0.00007
 41
0.0
 42
6.283185307179586
  0
ARC
  5
15C
330
1F
100
AcDbEntity
  8
0
  6
Continuous
 62
     7
370
    25
100
AcDbCircle
 10
181.29634
 20
189.522847
 30
0.0
 40
5.196863770342707
100
AcDbArc
 50
85.073209
 51
95.328411
  0
SPLINE
  5
15D
330
1F
100
AcDbEntity
  8
0
  6
Continuous
 62
     7
370
    25
100
AcDbSpline
210
0.0
220
0.0
230
1.0
 70
    11
 71
     3
 72
    89
 73
    85
 74
     0
 42
0.000000001
 43
0.00000001
 40
0.0
 40
0.0
 40
0.0
 40
0.0
 40
0.0312499999999829
 40
0.0312499999999829
 40
0.0468749999999744
 40
0.0468749999999744
 40
0.0624999999999658
 40
0.0624999999999658
 40
0.0937499999999794
 40
0.0937499999999794
 40
0.1249999999999929
 40
0.1249999999999929
 40
0.1562500000000064
 40
0.1562500000000064
 40
0.1875000000000199
 40
0.1875000000000199
 40
0.2031250000000331
 40
0.2031250000000331
 40
0.2187500000000463
 40
0.2187500000000463
 40
0.2500000000000791
 40
0.2500000000000791
 40
0.2812500000001119
 40
0.2812500000001119
 40
0.3125000000001448
 40
0.3125000000001448
 40
0.3281250000001675
 40
0.3281250000001675
 40
0.3437500000001903
 40
0.3437500000001903
 40
0.3750000000002174
 40
0.3750000000002174
 40
0.4062500000002444
 40
0.4062500000002444
 40
0.4218750000002442
 40
0.4218750000002442
 40
0.4375000000002439
 40
0.4375000000002439
 40
0.4687500000002434
 40
0.4687500000002434
 40
0.4843750000002431
 40
0.4843750000002431
 40
0.5000000000002429
 40
0.5000000000002429
 40
0.5312500000002424
 40
0.5312500000002424
 40
0.5625000000002418
 40
0.5625000000002418
 40
0.5781250000002416
 40
0.5781250000002416
 40
0.5937500000002413
 40
0.5937500000002413
 40
0.6250000000002132
 40
0.6250000000002132
 40
0.6562500000001851
 40
0.6562500000001851
 40
0.687500000000157
 40
0.687500000000157
 40
0.7031250000001431
 40
0.7031250000001431
 40
0.7187500000001291
 40
0.7343750000001151
 40
0.7343750000001151
 40
0.7500000000001011
 40
0.7500000000001011
 40
0.781250000000073
 40
0.781250000000073
 40
0.812500000000045
 40
0.812500000000045
 40
0.843750000000017
 40
0.843750000000017
 40
0.859375000000003
 40
0.859375000000003
 40
0.874999999999989
 40
0.874999999999989
 40
0.9062499999999845
 40
0.9062499999999845
 40
0.9374999999999799
 40
0.9374999999999799
 40
0.9531249999999931
 40
0.9531249999999931
 40
0.9687500000000062
 40
0.9687500000000062
 40
1.0
 40
1.0
 40
1.0
 40
1.0
 10
179.6602947311195
 20
188.404557073066
 30
0.0
 10
179.6602947311195
 20
188.3701989559552
 30
0.0
 10
179.6567301436903
 20
188.3377575660283
 30
0.0
 10
179.6463249031757
 20
188.2918746036881
 30
0.0
 10
179.6420081032647
 20
188.2770475159927
 30
0.0
 10
179.6316633933806
 20
188.2483603817255
 30
0.0
 10
179.6256141708197
 20
188.2344865871823
 30
0.0
 10
179.6053364154328
 20
188.195264242029
 30
0.0
 10
179.5888968133268
 20
188.1719602285949
 30
0.0
 10
179.5505255909219
 20
188.1311369018616
 30
0.0
 10
179.5284592498256
 20
188.1136524752642
 30
0.0
 10
179.4809471780924
 20
188.0862278703698
 30
0.0
 10
179.4553108890809
 20
188.0760336509824
 30
0.0
 10
179.4004747796409
 20
188.0631022430262
 30
0.0
 10
179.3718418450089
 20
188.0605492910346
 30
0.0
 10
179.3280668072986
 20
188.0626126534989
 30
0.0
 10
179.3132965445449
 20
188.0642797108418
 30
0.0
 10
179.2834171807468
 20
188.0696278789769
 30
0.0
 10
179.2682193005486
 20
188.0733402334786
 30
0.0
 10
179.2229282134678
 20
188.0873972130153
 30
0.0
 10
179.1931292641321
 20
188.1005783441709
 30
0.0
 10
179.1343716501293
 20
188.1344492548162
 30
0.0
 10
179.1051478263232
 20
188.155428976693
 30
0.0
 10
179.0498710311507
 20
188.2033523145146
 30
0.0
 10
179.0235801149478
 20
188.2303565484526
 30
0.0
 10
178.986031907062
 20
188.2753909324534
 30
0.0
 10
178.9738029155927
 20
188.2912152593535
 30
0.0
 10
178.9504679881101
 20
188.3236982582764
 30
0.0
 10
178.9392952954317
 20
188.3404302006911
 30
0.0
 10
178.9071700025338
 20
188.3920407370798
 30
0.0
 10
178.8875061222718
 20
188.4285227434943
 30
0.0
 10
178.8520721846157
 20
188.5043799273954
 30
0.0
 10
178.8366542699695
 20
188.542931425271
 30
0.0
 10
178.816603756454
 20
188.6015501589089
 30
0.0
 10
178.8104373658744
 20
188.6212228718227
 30
0.0
 10
178.7991275627495
 20
188.660824434642
 30
0.0
 10
178.7940064218175
 20
188.6806996266294
 30
0.0
 10
178.7804631485071
 20
188.7393663363946
 30
0.0
 10
178.7737135185632
 20
188.777635263358
 30
0.0
 10
178.766870865022
 20
188.8336880584696
 30
0.0
 10
178.765136773815
 20
188.8522487728991
 30
0.0
 10
178.7628411999723
 20
188.8883268844154
 30
0.0
 10
178.7622738871466
 20
188.9058140802806
 30
0.0
 10
178.76225967225
 20
188.9566602767102
 30
0.0
 10
178.7644793343871
 20
188.9884167648768
 30
0.0
 10
178.7736027404163
 20
189.0475482060925
 30
0.0
 10
178.7804008641742
 20
189.0741108963892
 30
0.0
 10
178.7938671626036
 20
189.1093200575196
 30
0.0
 10
178.7989095342053
 20
189.1203044101932
 30
0.0
 10
178.8101584464317
 20
189.1407651152932
 30
0.0
 10
178.8163935400397
 20
189.1502634882914
 30
0.0
 10
178.8365323876921
 20
189.1759241181537
 30
0.0
 10
178.8519456014355
 20
189.189494689462
 30
0.0
 10
178.8870704511561
 20
189.2098641414062
 30
0.0
 10
178.9069473142752
 20
189.2166085135792
 30
0.0
 10
178.9497961939606
 20
189.2228117396392
 30
0.0
 10
178.9729248077339
 20
189.2224157212683
 30
0.0
 10
179.0104860420178
 20
189.2165450120948
 30
0.0
 10
179.0234904487811
 20
189.2136891019552
 30
0.0
 10
179.049907453515
 20
189.2063393360699
 30
0.0
 10
179.0768749901259
 20
189.1973349442159
 30
0.0
 10
179.1049700874926
 20
189.1850886370314
 30
0.0
 10
179.1336507597392
 20
189.1712033069631
 30
0.0
 10
179.1483634143723
 20
189.1633941738384
 30
0.0
 10
179.1928209419431
 20
189.137756402119
 30
0.0
 10
179.2226429499358
 20
189.1179145423538
 30
0.0
 10
179.2825799130121
 20
189.0728533835884
 30
0.0
 10
179.3129993996937
 20
189.0473183764261
 30
0.0
 10
179.3716217732294
 20
188.9925863419547
 30
0.0
 10
179.4000113695031
 20
188.9633051170047
 30
0.0
 10
179.4410080255919
 20
188.9163540370681
 30
0.0
 10
179.4544571472826
 20
188.9001230452447
 30
0.0
 10
179.4802320577272
 20
188.8672608651945
 30
0.0
 10
179.4926179197157
 20
188.8505675926786
 30
0.0
 10
179.5282421701436
 20
188.7996719311562
 30
0.0
 10
179.5500109168847
 20
188.7645755757326
 30
0.0
 10
179.5887680260957
 20
188.6922259051598
 30
0.0
 10
179.6052166361632
 20
188.655997464144
 30
0.0
 10
179.6254171877325
 20
188.601423188072
 30
0.0
 10
179.6314006038763
 20
188.5831934842083
 30
0.0
 10
179.6417950984518
 20
188.546634758437
 30
0.0
 10
179.6462023420748
 20
188.5282772605982
 30
0.0
 10
179.6567292837101
 20
188.4741391243518
 30
0.0
 10
179.6602947311195
 20
188.4389151901768
 30
0.0
 10
179.6602947311195
 20
188.404557073066
 30
0.0
  0
SPLINE
  5
15E
330
1F
100
AcDbEntity
  8
0
  6
Continuous
 62
     7
370
    25
100
AcDbSpline
210
0.0
220
0.0
230
1.0
 70
    11
 71
     3
 72
    89
 73
    85
 74
     0
 42
0.000000001
 43
0.00000001
 40
0.0
 40
0.0
 40
0.0
 40
0.0
 40
0.0312500000000089
 40
0.0312500000000089
 40
0.0468750000000134
 40
0.0468750000000134
 40
0.0625000000000178
 40
0.0625000000000178
 40
0.0937500000000267
 40
0.0937500000000267
 40
0.1250000000000356
 40
0.1250000000000356
 40
0.1562500000000444
 40
0.1562500000000444
 40
0.1875000000000533
 40
0.1875000000000533
 40
0.2031250000000578
 40
0.2031250000000578
 40
0.2187500000000622
 40
0.2187500000000622
 40
0.2500000000000646
 40
0.2500000000000646
 40
0.281250000000067
 40
0.281250000000067
 40
0.3125000000000694
 40
0.3125000000000694
 40
0.3281250000000643
 40
0.3281250000000643
 40
0.3437500000000592
 40
0.3437500000000592
 40
0.3750000000000675
 40
0.3750000000000675
 40
0.4062500000000757
 40
0.4062500000000757
 40
0.4218750000000937
 40
0.4218750000000937
 40
0.4375000000001116
 40
0.4375000000001116
 40
0.4687500000001169
 40
0.4687500000001169
 40
0.4843750000001195
 40
0.4843750000001195
 40
0.5000000000001221
 40
0.5000000000001221
 40
0.5312500000000939
 40
0.5312500000000939
 40
0.5625000000000657
 40
0.5625000000000657
 40
0.5781250000000517
 40
0.5781250000000517
 40
0.5937500000000376
 40
0.5937500000000376
 40
0.6250000000000369
 40
0.6250000000000369
 40
0.6562500000000361
 40
0.6562500000000361
 40
0.6875000000000353
 40
0.6875000000000353
 40
0.7031250000000351
 40
0.7031250000000351
 40
0.7187500000000347
 40
0.7343750000000344
 40
0.7343750000000344
 40
0.7500000000000341
 40
0.7500000000000341
 40
0.7812500000000334
 40
0.7812500000000334
 40
0.8125000000000328
 40
0.8125000000000328
 40
0.8437500000000322
 40
0.8437500000000322
 40
0.8593750000000319
 40
0.8593750000000319
 40
0.8750000000000315
 40
0.8750000000000315
 40
0.9062500000000309
 40
0.9062500000000309
 40
0.9375000000000302
 40
0.9375000000000302
 40
0.9531250000000147
 40
0.9531250000000147
 40
0.968749999999999
 40
0.968749999999999
 40
1.0
 40
1.0
 40
1.0
 40
1.0
 10
179.6602947311195
 20
182.7010195020439
 30
0.0
 10
179.6602947311195
 20
182.6666613849331
 30
0.0
 10
179.6567301436903
 20
182.6342199950063
 30
0.0
 10
179.6463249031757
 20
182.5883370326662
 30
0.0
 10
179.6420081032647
 20
182.5735099449707
 30
0.0
 10
179.6316633933806
 20
182.5448228107036
 30
0.0
 10
179.6256141708197
 20
182.5309490161604
 30
0.0
 10
179.6053364154328
 20
182.4917266710071
 30
0.0
 10
179.5888968133268
 20
182.4684226575729
 30
0.0
 10
179.5505255909219
 20
182.4275993308396
 30
0.0
 10
179.5284592498256
 20
182.4101149042422
 30
0.0
 10
179.4809471780924
 20
182.3826902993478
 30
0.0
 10
179.4553108890809
 20
182.3724960799604
 30
0.0
 10
179.4004747796409
 20
182.3595646720042
 30
0.0
 10
179.3718418450089
 20
182.3570117200125
 30
0.0
 10
179.3280668072986
 20
182.359075082477
 30
0.0
 10
179.3132965445449
 20
182.3607421398198
 30
0.0
 10
179.2834171807468
 20
182.3660903079549
 30
0.0
 10
179.2682193005487
 20
182.3698026624566
 30
0.0
 10
179.2229282134678
 20
182.3838596419934
 30
0.0
 10
179.1931292641321
 20
182.3970407731491
 30
0.0
 10
179.1343716501293
 20
182.4309116837943
 30
0.0
 10
179.1051478263232
 20
182.4518914056709
 30
0.0
 10
179.0498710311507
 20
182.4998147434927
 30
0.0
 10
179.0235801149478
 20
182.5268189774305
 30
0.0
 10
178.986031907062
 20
182.5718533614314
 30
0.0
 10
178.9738029155927
 20
182.5876776883315
 30
0.0
 10
178.9504679881101
 20
182.6201606872545
 30
0.0
 10
178.9392952954317
 20
182.6368926296692
 30
0.0
 10
178.9071700025338
 20
182.688503166058
 30
0.0
 10
178.8875061222718
 20
182.7249851724725
 30
0.0
 10
178.8520721846157
 20
182.8008423563734
 30
0.0
 10
178.8366542699695
 20
182.8393938542488
 30
0.0
 10
178.816603756454
 20
182.898012587887
 30
0.0
 10
178.8104373658744
 20
182.9176853008007
 30
0.0
 10
178.7991275627495
 20
182.95728686362
 30
0.0
 10
178.7940064218175
 20
182.9771620556075
 30
0.0
 10
178.7804631485071
 20
183.0358287653727
 30
0.0
 10
178.7737135185632
 20
183.074097692336
 30
0.0
 10
178.766870865022
 20
183.1301504874477
 30
0.0
 10
178.765136773815
 20
183.1487112018772
 30
0.0
 10
178.7628411999723
 20
183.1847893133935
 30
0.0
 10
178.7622738871466
 20
183.2022765092585
 30
0.0
 10
178.76225967225
 20
183.2531227056883
 30
0.0
 10
178.7644793343871
 20
183.2848791938548
 30
0.0
 10
178.7736027404163
 20
183.3440106350706
 30
0.0
 10
178.7804008641742
 20
183.3705733253672
 30
0.0
 10
178.7938671626036
 20
183.4057824864976
 30
0.0
 10
178.7989095342053
 20
183.4167668391711
 30
0.0
 10
178.8101584464317
 20
183.4372275442711
 30
0.0
 10
178.8163935400397
 20
183.4467259172696
 30
0.0
 10
178.8365323876921
 20
183.4723865471317
 30
0.0
 10
178.8519456014355
 20
183.4859571184399
 30
0.0
 10
178.8870704511561
 20
183.5063265703842
 30
0.0
 10
178.9069473142752
 20
183.5130709425572
 30
0.0
 10
178.9497961939606
 20
183.5192741686171
 30
0.0
 10
178.9729248077339
 20
183.5188781502461
 30
0.0
 10
179.0104860420178
 20
183.5130074410729
 30
0.0
 10
179.0234904487811
 20
183.5101515309333
 30
0.0
 10
179.0499074841251
 20
183.5028017800746
 30
0.0
 10
179.0768749901259
 20
183.4937973731939
 30
0.0
 10
179.1049700874926
 20
183.4815510660095
 30
0.0
 10
179.1336507597392
 20
183.4676657359411
 30
0.0
 10
179.1483634143723
 20
183.4598566028164
 30
0.0
 10
179.1928209419431
 20
183.434218831097
 30
0.0
 10
179.2226429499358
 20
183.4143769713318
 30
0.0
 10
179.2825799130121
 20
183.3693158125664
 30
0.0
 10
179.3129993996937
 20
183.3437808054042
 30
0.0
 10
179.3716217732294
 20
183.2890487709327
 30
0.0
 10
179.4000113695031
 20
183.2597675459828
 30
0.0
 10
179.4410080255919
 20
183.2128164660461
 30
0.0
 10
179.4544571472826
 20
183.1965854742227
 30
0.0
 10
179.4802320577272
 20
183.1637232941725
 30
0.0
 10
179.4926179197157
 20
183.1470300216566
 30
0.0
 10
179.5282421701436
 20
183.0961343601342
 30
0.0
 10
179.5500109168847
 20
183.0610380047105
 30
0.0
 10
179.5887680260957
 20
182.9886883341378
 30
0.0
 10
179.6052166361632
 20
182.9524598931222
 30
0.0
 10
179.6254171877325
 20
182.8978856170501
 30
0.0
 10
179.6314006038763
 20
182.8796559131863
 30
0.0
 10
179.6417950984518
 20
182.843097187415
 30
0.0
 10
179.6462023420748
 20
182.8247396895762
 30
0.0
 10
179.6567292837101
 20
182.7706015533299
 30
0.0
 10
179.6602947311195
 20
182.7353776191547
 30
0.0
 10
179.6602947311195
 20
182.7010195020439
 30
0.0
  0
ARC
  5
15F
330
1F
100
AcDbEntity
  8
0
  6
Continuous
 62
     7
370
    25
100
AcDbCircle
 10
181.29636
 20
189.979618
 30
0.0
 40
4.514296024828684
100
AcDbArc
 50
84.167724
 51
96.279556
  0
ELLIPSE
  5
160
330
1F
100
AcDbEntity
  8
0
  6
Continuous
 62
     7
370
    25
100
AcDbEllipse
 10
181.296293
 20
21.224182
 30
0.0
 11
2.625089993631009
 21
1.515678526820164
 31
0.0
210
0.0
220
0.0
230
1.0
 40
0.00007
 41
0.0
 42
6.283185307179586
  0
SPLINE
  5
161
330
1F
100
AcDbEntity
  8
0
  6
Continuous
 62
     7
370
    25
100
AcDbSpline
210
0.0
220
0.0
230
1.0
 70
     8
 71
     3
 72
    15
 73
    11
 74
     0
 42
0.000000001
 43
0.00000001
 40
0.0
 40
0.0
 40
0.0
 40
0.0
 40
0.073434059267234
 40
0.2251287194281755
 40
0.3736970807127836
 40
0.5235752677270034
 40
0.6772483847377351
 40
0.8315347233515998
 40
0.9819873347943012
 40
0.9999999999999999
 40
0.9999999999999999
 40
0.9999999999999999
 40
0.9999999999999999
 10
179.6195651812413
 20
188.2311655894617
 30
0.0
 10
179.5954460353501
 20
188.2302013172397
 30
0.0
 10
179.5215033378828
 20
188.2272451226249
 30
0.0
 10
179.3925543974178
 20
188.2981641706188
 30
0.0
 10
179.2572090272972
 20
188.4307363732328
 30
0.0
 10
179.1503472038554
 20
188.610999786714
 30
0.0
 10
179.0769549668869
 20
188.8165014161611
 30
0.0
 10
179.0452624037228
 20
189.0149703069111
 30
0.0
 10
179.0402605932523
 20
189.1480839102956
 30
0.0
 10
179.0560460008504
 20
189.1930155531722
 30
0.0
 10
179.0577338101596
 20
189.1978197398651
 30
0.0
  0
SPLINE
  5
162
330
1F
100
AcDbEntity
  8
0
  6
Continuous
 62
     7
370
    25
100
AcDbSpline
210
0.0
220
0.0
230
1.0
 70
     8
 71
     3
 72
    15
 73
    11
 74
     0
 42
0.000000001
 43
0.00000001
 40
0.0
 40
0.0
 40
0.0
 40
0.0
 40
0.0734340592672363
 40
0.2251287194281824
 40
0.3736970807127949
 40
0.523575267727019
 40
0.6772483847377551
 40
0.8315347233516561
 40
0.9819873347943303
 40
1.0
 40
1.0
 40
1.0
 40
1.0
 10
179.6195651812413
 20
182.5276280184398
 30
0.0
 10
179.5954460353501
 20
182.5266637462177
 30
0.0
 10
179.5215033378828
 20
182.5237075516028
 30
0.0
 10
179.3925543974178
 20
182.5946265995969
 30
0.0
 10
179.2572090272972
 20
182.7271988022108
 30
0.0
 10
179.1503472038554
 20
182.907462215692
 30
0.0
 10
179.0769549668869
 20
183.1129638451391
 30
0.0
 10
179.0452624037229
 20
183.3114327358891
 30
0.0
 10
179.0402605932523
 20
183.4445463392735
 30
0.0
 10
179.0560460008504
 20
183.4894779821502
 30
0.0
 10
179.0577338101596
 20
183.4942821688431
 30
0.0
  0
LINE
  5
163
330
1F
100
AcDbEntity
  8
0
  6
Continuous
 62
     7
370
    25
100
AcDbLine
 10
180.829825
 20
189.618874
 30
0.0
 11
180.829825
 21
189.100371
 31
0.0
  0
ARC
  5
164
330
1F
100
AcDbEntity
  8
0
  6
Continuous
 62
     7
370
    25
100
AcDbCircle
 10
181.278838
 20
190.485466
 30
0.0
 40
0.976008911524112
100
AcDbArc
 50
242.609672
 51
297.390328
  0
LINE
  5
165
330
1F
100
AcDbEntity
  8
0
  6
Continuous
 62
     7
370
    25
100
AcDbLine
 10
181.727851
 20
189.618874
 30
0.0
 11
181.727851
 21
189.100371
 31
0.0
  0
ARC
  5
166
330
1F
100
AcDbEntity
  8
0
  6
Continuous
 62
     7
370
    25
100
AcDbCircle
 10
181.278838
 20
189.966962
 30
0.0
 40
0.976008911524011
100
AcDbArc
 50
242.609672
 51
297.390328
  0
LWPOLYLINE
  5
167
330
1F
100
AcDbEntity
  8
0
  6
Continuous
 62
     7
370
    25
100
AcDbPolyline
 90
       25
 70
   128
 43
0.0
 10
180.914015
 20
190.704314
 10
181.02087
 20
190.656981
 10
181.145304
 20
190.627226
 10
181.278838
 20
190.617078
 10
181.412373
 20
190.627226
 10
181.536807
 20
190.656981
 10
181.643661
 20
190.704314
 10
181.725653
 20
190.766
 10
181.777196
 20
190.837834
 10
181.794776
 20
190.914922
 10
181.777196
 20
190.99201
 10
181.725653
 20
191.063844
 10
181.643661
 20
191.12553
 10
181.536807
 20
191.172863
 10
181.412373
 20
191.202618
 10
181.278838
 20
191.212766
 10
181.145304
 20
191.202618
 10
181.02087
 20
191.172863
 10
180.914015
 20
191.12553
 10
180.832023
 20
191.063844
 10
180.780481
 20
190.99201
 10
180.762901
 20
190.914922
 10
180.780481
 20
190.837834
 10
180.832023
 20
190.766
 10
180.914015
 20
190.704314
  0
LWPOLYLINE
  5
168
330
1F
100
AcDbEntity
  8
0
  6
Continuous
 62
     7
370
    25
100
AcDbPolyline
 90
       25
 70
   128
 43
0.0
 10
185.404143
 20
193.29641
 10
185.510998
 20
193.249077
 10
185.635432
 20
193.219322
 10
185.768966
 20
193.209173
 10
185.902501
 20
193.219322
 10
186.026935
 20
193.249077
 10
186.133789
 20
193.29641
 10
186.215781
 20
193.358096
 10
186.267324
 20
193.42993
 10
186.284904
 20
193.507018
 10
186.267324
 20
193.584106
 10
186.215781
 20
193.65594
 10
186.133789
 20
193.717626
 10
186.026935
 20
193.764959
 10
185.902501
 20
193.794713
 10
185.768966
 20
193.804862
 10
185.635432
 20
193.794713
 10
185.510998
 20
193.764959
 10
185.404143
 20
193.717626
 10
185.322151
 20
193.65594
 10
185.270609
 20
193.584106
 10
185.253029
 20
193.507018
 10
185.270609
 20
193.42993
 10
185.322151
 20
193.358096
 10
185.404143
 20
193.29641
  0
LINE
  5
169
330
1F
100
AcDbEntity
  8
0
  6
Continuous
 62
     7
370
    25
100
AcDbLine
 10
180.829825
 20
197.395161
 30
0.0
 11
174.543646
 21
193.766227
 31
0.0
  0
ARC
  5
16A
330
1F
100
AcDbEntity
  8
0
  6
Continuous
 62
     7
370
    25
100
AcDbCircle
 10
181.278838
 20
196.52857
 30
0.0
 40
0.9760089115240989
100
AcDbArc
 50
62.609672
 51
117.390328
  0
LINE
  5
16B
330
1F
100
AcDbEntity
  8
0
  6
Continuous
 62
     7
370
    25
100
AcDbLine
 10
188.01403
 20
193.766227
 30
0.0
 11
181.727851
 21
197.395161
 31
0.0
  0
ARC
  5
16C
330
1F
100
AcDbEntity
  8
0
  6
Continuous
 62
     7
370
    25
100
AcDbCircle
 10
187.915652
 20
193.507018
 30
0.0
 40
0.277250726189836
100
AcDbArc
 50
290.783421
 51
69.216579
  0
LINE
  5
16D
330
1F
100
AcDbEntity
  8
0
  6
Continuous
 62
     7
370
    25
100
AcDbLine
 10
181.727851
 20
189.618874
 30
0.0
 11
188.01403
 21
193.247808
 31
0.0
  0
LINE
  5
16E
330
1F
100
AcDbEntity
  8
0
  6
Continuous
 62
     7
370
    25
100
AcDbLine
 10
174.543646
 20
193.247808
 30
0.0
 11
180.829825
 21
189.618874
 31
0.0
  0
ARC
  5
16F
330
1F
100
AcDbEntity
  8
0
  6
Continuous
 62
     7
370
    25
100
AcDbCircle
 10
174.642025
 20
193.507018
 30
0.0
 40
0.2772507261898259
100
AcDbArc
 50
110.783421
 51
249.216579
  0
LWPOLYLINE
  5
170
330
1F
100
AcDbEntity
  8
0
  6
Continuous
 62
     7
370
    25
100
AcDbPolyline
 90
       25
 70
   128
 43
0.0
 10
180.914015
 20
195.888506
 10
181.02087
 20
195.841173
 10
181.145304
 20
195.811418
 10
181.278838
 20
195.801269
 10
181.412373
 20
195.811418
 10
181.536807
 20
195.841173
 10
181.643661
 20
195.888506
 10
181.725653
 20
195.950191
 10
181.777196
 20
196.022026
 10
181.794776
 20
196.099114
 10
181.777196
 20
196.176201
 10
181.725653
 20
196.248036
 10
181.643661
 20
196.309721
 10
181.536807
 20
196.357054
 10
181.412373
 20
196.386809
 10
181.278838
 20
196.396958
 10
181.145304
 20
196.386809
 10
181.02087
 20
196.357054
 10
180.914015
 20
196.309721
 10
180.832023
 20
196.248036
 10
180.780481
 20
196.176201
 10
180.762901
 20
196.099114
 10
180.780481
 20
196.022026
 10
180.832023
 20
195.950191
 10
180.914015
 20
195.888506
  0
LWPOLYLINE
  5
171
330
1F
100
AcDbEntity
  8
0
  6
Continuous
 62
     7
370
    25
100
AcDbPolyline
 90
       25
 70
   128
 43
0.0
 10
176.423887
 20
193.29641
 10
176.530741
 20
193.249077
 10
176.655176
 20
193.219322
 10
176.78871
 20
193.209173
 10
176.922245
 20
193.219322
 10
177.046679
 20
193.249077
 10
177.153533
 20
193.29641
 10
177.235525
 20
193.358096
 10
177.287068
 20
193.42993
 10
177.304648
 20
193.507018
 10
177.287068
 20
193.584106
 10
177.235525
 20
193.65594
 10
177.153533
 20
193.717626
 10
177.046679
 20
193.764959
 10
176.922245
 20
193.794713
 10
176.78871
 20
193.804862
 10
176.655176
 20
193.794713
 10
176.530741
 20
193.764959
 10
176.423887
 20
193.717626
 10
176.341895
 20
193.65594
 10
176.290353
 20
193.584106
 10
176.272773
 20
193.507018
 10
176.290353
 20
193.42993
 10
176.341895
 20
193.358096
 10
176.423887
 20
193.29641
  0
LWPOLYLINE
  5
172
330
1F
100
AcDbEntity
  8
0
  6
Continuous
 62
     7
370
    25
100
AcDbPolyline
 90
       19
 70
   128
 43
0.0
 10
178.809268
 20
194.673461
 10
178.899593
 20
194.63695
 10
179.006102
 20
194.620474
 10
179.115949
 20
194.626022
 10
179.215885
 20
194.652924
 10
179.293855
 20
194.697935
 10
179.340456
 20
194.755627
 10
179.350066
 20
194.81904
 10
179.321527
 20
194.880527
 10
179.258281
 20
194.93267
 10
179.167956
 20
194.969182
 10
179.061446
 20
194.985657
 10
178.951599
 20
194.980109
 10
178.851664
 20
194.953207
 10
178.773693
 20
194.908196
 10
178.727093
 20
194.850504
 10
178.717482
 20
194.787091
 10
178.746022
 20
194.725604
 10
178.809268
 20
194.673461
  0
LWPOLYLINE
  5
173
330
1F
100
AcDbEntity
  8
0
  6
Continuous
 62
     7
370
    25
100
AcDbPolyline
 90
       19
 70
   128
 43
0.0
 10
183.299396
 20
194.673461
 10
183.389721
 20
194.63695
 10
183.49623
 20
194.620474
 10
183.606077
 20
194.626022
 10
183.706013
 20
194.652924
 10
183.783983
 20
194.697935
 10
183.830584
 20
194.755627
 10
183.840194
 20
194.81904
 10
183.811655
 20
194.880527
 10
183.748409
 20
194.93267
 10
183.658084
 20
194.969182
 10
183.551574
 20
194.985657
 10
183.441727
 20
194.980109
 10
183.341792
 20
194.953207
 10
183.263822
 20
194.908196
 10
183.217221
 20
194.850504
 10
183.20761
 20
194.787091
 10
183.23615
 20
194.725604
 10
183.299396
 20
194.673461
  0
LWPOLYLINE
  5
174
330
1F
100
AcDbEntity
  8
0
  6
Continuous
 62
     7
370
    25
100
AcDbPolyline
 90
       19
 70
   128
 43
0.0
 10
183.299396
 20
192.081365
 10
183.389721
 20
192.044854
 10
183.49623
 20
192.028379
 10
183.606077
 20
192.033926
 10
183.706013
 20
192.060828
 10
183.783983
 20
192.10584
 10
183.830584
 20
192.163531
 10
183.840194
 20
192.226945
 10
183.811655
 20
192.288431
 10
183.748409
 20
192.340575
 10
183.658084
 20
192.377086
 10
183.551574
 20
192.393561
 10
183.441727
 20
192.388013
 10
183.341792
 20
192.361111
 10
183.263822
 20
192.3161
 10
183.217221
 20
192.258409
 10
183.20761
 20
192.194995
 10
183.23615
 20
192.133509
 10
183.299396
 20
192.081365
  0
LWPOLYLINE
  5
175
330
1F
100
AcDbEntity
  8
0
  6
Continuous
 62
     7
370
    25
100
AcDbPolyline
 90
       19
 70
   128
 43
0.0
 10
178.809268
 20
192.081365
 10
178.899593
 20
192.044854
 10
179.006102
 20
192.028379
 10
179.115949
 20
192.033926
 10
179.215885
 20
192.060828
 10
179.293855
 20
192.10584
 10
179.340456
 20
192.163531
 10
179.350066
 20
192.226945
 10
179.321527
 20
192.288431
 10
179.258281
 20
192.340575
 10
179.167956
 20
192.377086
 10
179.061446
 20
192.393561
 10
178.951599
 20
192.388013
 10
178.851664
 20
192.361111
 10
178.773693
 20
192.3161
 10
178.727093
 20
192.258409
 10
178.717482
 20
192.194995
 10
178.746022
 20
192.133509
 10
178.809268
 20
192.081365
  0
LINE
  5
176
330
1F
100
AcDbEntity
  8
0
  6
Continuous
 62
     7
370
    25
100
AcDbLine
 10
180.802588
 20
195.156617
 30
0.0
 11
180.802588
 21
194.056884
 31
0.0
  0
LWPOLYLINE
  5
177
330
1F
100
AcDbEntity
  8
0
  6
Continuous
 62
     7
370
    25
100
AcDbPolyline
 90
       12
 70
   128
 43
0.0
 10
180.802588
 20
194.056884
 10
180.82188
 20
193.979427
 10
180.878191
 20
193.908244
 10
180.966961
 20
193.849104
 10
181.080997
 20
193.806796
 10
181.211061
 20
193.784749
 10
181.346616
 20
193.784749
 10
181.47668
 20
193.806796
 10
181.590716
 20
193.849104
 10
181.679485
 20
193.908244
 10
181.735797
 20
193.979427
 10
181.755088
 20
194.056884
  0
LINE
  5
178
330
1F
100
AcDbEntity
  8
0
  6
Continuous
 62
     7
370
    25
100
AcDbLine
 10
181.755088
 20
194.056884
 30
0.0
 11
181.755088
 21
195.156617
 31
0.0
  0
LWPOLYLINE
  5
179
330
1F
100
AcDbEntity
  8
0
  6
Continuous
 62
     7
370
    25
100
AcDbPolyline
 90
       12
 70
   128
 43
0.0
 10
181.755088
 20
195.156617
 10
181.735797
 20
195.234075
 10
181.679485
 20
195.305258
 10
181.590716
 20
195.364398
 10
181.47668
 20
195.406706
 10
181.346616
 20
195.428752
 10
181.211061
 20
195.428752
 10
181.080997
 20
195.406706
 10
180.966961
 20
195.364398
 10
180.878191
 20
195.305258
 10
180.82188
 20
195.234075
 10
180.802588
 20
195.156617
  0
LINE
  5
17A
330
1F
100
AcDbEntity
  8
0
  6
Continuous
 62
     7
370
    25
100
AcDbLine
 10
181.755088
 20
191.857418
 30
0.0
 11
181.755088
 21
192.957151
 31
0.0
  0
LWPOLYLINE
  5
17B
330
1F
100
AcDbEntity
  8
0
  6
Continuous
 62
     7
370
    25
100
AcDbPolyline
 90
       12
 70
   128
 43
0.0
 10
181.755088
 20
192.957151
 10
181.735797
 20
193.034609
 10
181.679485
 20
193.105791
 10
181.590716
 20
193.164932
 10
181.47668
 20
193.207239
 10
181.346616
 20
193.229286
 10
181.211061
 20
193.229286
 10
181.080997
 20
193.207239
 10
180.966961
 20
193.164932
 10
180.878191
 20
193.105791
 10
180.82188
 20
193.034609
 10
180.802588
 20
192.957151
  0
LINE
  5
17C
330
1F
100
AcDbEntity
  8
0
  6
Continuous
 62
     7
370
    25
100
AcDbLine
 10
180.802588
 20
192.957151
 30
0.0
 11
180.802588
 21
191.857418
 31
0.0
  0
LWPOLYLINE
  5
17D
330
1F
100
AcDbEntity
  8
0
  6
Continuous
 62
     7
370
    25
100
AcDbPolyline
 90
       12
 70
   128
 43
0.0
 10
180.802588
 20
191.857418
 10
180.82188
 20
191.77996
 10
180.878191
 20
191.708778
 10
180.966961
 20
191.649637
 10
181.080997
 20
191.60733
 10
181.211061
 20
191.585283
 10
181.346616
 20
191.585283
 10
181.47668
 20
191.60733
 10
181.590716
 20
191.649637
 10
181.679485
 20
191.708778
 10
181.735797
 20
191.77996
 10
181.755088
 20
191.857418
  0
LINE
  5
17E
330
1F
100
AcDbEntity
  8
0
  6
Continuous
 62
     7
370
    25
100
AcDbLine
 10
174.543646
 20
193.247808
 30
0.0
 11
174.543646
 21
192.729305
 31
0.0
  0
LINE
  5
17F
330
1F
100
AcDbEntity
  8
0
  6
Continuous
 62
     7
370
    25
100
AcDbLine
 10
174.543646
 20
192.729305
 30
0.0
 11
180.829825
 21
189.100371
 31
0.0
  0
LINE
  5
180
330
1F
100
AcDbEntity
  8
0
  6
Continuous
 62
     7
370
    25
100
AcDbLine
 10
188.01403
 20
193.247808
 30
0.0
 11
188.01403
 21
192.729305
 31
0.0
  0
LINE
  5
181
330
1F
100
AcDbEntity
  8
0
  6
Continuous
 62
     7
370
    25
100
AcDbLine
 10
181.727851
 20
189.100371
 30
0.0
 11
188.01403
 21
192.729305
 31
0.0
  0
ARC
  5
182
330
1F
100
AcDbEntity
  8
0
  6
Continuous
 62
     7
370
    25
100
AcDbCircle
 10
181.278838
 20
189.845909
 30
0.0
 40
0.8486613476917799
100
AcDbArc
 50
72.585097
 51
107.414903
  0
LWPOLYLINE
  5
183
330
1F
100
AcDbEntity
  8
0
  6
Continuous
 62
     7
370
    25
100
AcDbPolyline
 90
       12
 70
   128
 43
0.0
 10
181.755088
 20
192.438648
 10
181.735797
 20
192.516105
 10
181.679485
 20
192.587288
 10
181.590716
 20
192.646429
 10
181.47668
 20
192.688736
 10
181.346616
 20
192.710783
 10
181.211061
 20
192.710783
 10
181.080997
 20
192.688736
 10
180.966961
 20
192.646429
 10
180.878191
 20
192.587288
 10
180.82188
 20
192.516105
 10
180.802588
 20
192.438648
  0
ARC
  5
184
330
1F
100
AcDbEntity
  8
0
  6
Continuous
 62
     7
370
    25
100
AcDbCircle
 10
185.768966
 20
192.438005
 30
0.0
 40
0.8486613476896061
100
AcDbArc
 50
72.585097
 51
107.414903
  0
ARC
  5
185
330
1F
100
AcDbEntity
  8
0
  6
Continuous
 62
     7
370
    25
100
AcDbCircle
 10
176.78871
 20
192.438005
 30
0.0
 40
0.8486613476726558
100
AcDbArc
 50
72.585097
 51
107.414903
  0
ARC
  5
186
330
1F
100
AcDbEntity
  8
0
  6
Continuous
 62
     7
370
    25
100
AcDbCircle
 10
187.882227
 20
193.020205
 30
0.0
 40
0.319366441843662
100
AcDbArc
 50
294.374658
 51
354.305201
  0
ARC
  5
187
330
1F
100
AcDbEntity
  8
0
  6
Continuous
 62
     7
370
    25
100
AcDbCircle
 10
174.675449
 20
193.020205
 30
0.0
 40
0.3193664418436175
100
AcDbArc
 50
185.694799
 51
245.625342
  0
LWPOLYLINE
  5
188
330
1F
100
AcDbEntity
  8
0
  6
Continuous
 62
     7
370
    25
100
AcDbPolyline
 90
       12
 70
   128
 43
0.0
 10
181.755088
 20
194.638114
 10
181.735797
 20
194.715572
 10
181.679485
 20
194.786754
 10
181.590716
 20
194.845895
 10
181.47668
 20
194.888202
 10
181.346616
 20
194.910249
 10
181.211061
 20
194.910249
 10
181.080997
 20
194.888202
 10
180.966961
 20
194.845895
 10
180.878191
 20
194.786754
 10
180.82188
 20
194.715572
 10
180.802588
 20
194.638114
  0
ARC
  5
189
330
1F
100
AcDbEntity
  8
0
  6
Continuous
 62
     7
370
    25
100
AcDbCircle
 10
181.278838
 20
195.030101
 30
0.0
 40
0.8486613476880525
100
AcDbArc
 50
72.585097
 51
107.414903
  0
ENDSEC
  0
SECTION
  2
OBJECTS
  0
DICTIONARY
  5
C
330
0
100
AcDbDictionary
281
     1
  3
ACAD_DETAILVIEWSTYLE
350
1BF
  3
ACAD_GROUP
350
D
  3
ACAD_IMAGE_DICT
350
1B4
  3
ACAD_LAYOUT
350
1A
  3
ACAD_MATERIAL
350
1A6
  3
ACAD_MLEADERSTYLE
350
1BC
  3
ACAD_MLINESTYLE
350
17
  3
ACAD_PLOTSETTINGS
350
19
  3
ACAD_PLOTSTYLENAME
350
E
  3
ACAD_SCALELIST
350
47
  3
ACAD_SECTIONVIEWSTYLE
350
1C0
  3
ACAD_TABLESTYLE
350
1B0
  3
ACAD_VISUALSTYLE
350
18D
  3
ACDB_RECOMPOSE_DATA
350
1BB
  3
AcDbVariableDictionary
350
1BD
  3
HOST_DOC_SETTINGS
350
1B2
  3
MCS_STREAM_DICT
350
1AC
  0
SUN
  5
1AF
330
29
100
AcDbSun
 90
        1
290
     0
 63
     7
421
 16777215
 40
1.0
291
     1
 91
  2455826
 92
 54000000
292
     0
 70
     2
 71
   256
280
     1
  0
DICTIONARY
  5
1BF
102
{ACAD_REACTORS
330
C
102
}
330
C
100
AcDbDictionary
281
     1
  0
DICTIONARY
  5
D
102
{ACAD_REACTORS
330
C
102
}
330
C
100
AcDbDictionary
281
     1
  0
DICTIONARY
  5
1B4
102
{ACAD_REACTORS
330
C
102
}
330
C
100
AcDbDictionary
281
     1
  0
DICTIONARY
  5
1A
102
{ACAD_REACTORS
330
C
102
}
330
C
100
AcDbDictionary
281
     1
  3
Layout1
350
1E
  3
Layout2
350
26
  3
Model
350
22
  0
DICTIONARY
  5
1A6
102
{ACAD_REACTORS
330
C
102
}
330
C
100
AcDbDictionary
281
     1
  3
ByBlock
350
1A8
  3
ByLayer
350
1A7
  3
Global
350
1A9
  0
DICTIONARY
  5
1BC
102
{ACAD_REACTORS
330
C
102
}
330
C
100
AcDbDictionary
281
     1
  0
DICTIONARY
  5
17
102
{ACAD_REACTORS
330
C
102
}
330
C
100
AcDbDictionary
281
     1
  3
Standard
350
18
  0
DICTIONARY
  5
19
102
{ACAD_REACTORS
330
C
102
}
330
C
100
AcDbDictionary
281
     1
  0
ACDBDICTIONARYWDFLT
  5
E
102
{ACAD_REACTORS
330
C
102
}
330
C
100
AcDbDictionary
281
     1
  3
Normal
350
F
100
AcDbDictionaryWithDefault
340
F
  0
DICTIONARY
  5
47
102
{ACAD_REACTORS
330
C
102
}
330
C
100
AcDbDictionary
281
     1
  3
A0
350
48
  3
A1
350
49
  3
A2
350
4A
  3
A3
350
4B
  3
A4
350
4C
  3
A5
350
4D
  3
A6
350
4E
  3
A7
350
4F
  3
A8
350
50
  3
A9
350
51
  3
B0
350
52
  3
B1
350
53
  3
B2
350
54
  3
B3
350
55
  3
B4
350
56
  3
B5
350
57
  3
B6
350
58
  0
DICTIONARY
  5
1C0
102
{ACAD_REACTORS
330
C
102
}
330
C
100
AcDbDictionary
281
     1
  0
DICTIONARY
  5
1B0
102
{ACAD_REACTORS
330
C
102
}
330
C
100
AcDbDictionary
281
     1
  3
Standard
350
1B1
  0
DICTIONARY
  5
18D
102
{ACAD_REACTORS
330
C
102
}
330
C
100
AcDbDictionary
281
     1
  3
2dWireframe
350
192
  3
Basic
350
195
  3
Brighten
350
199
  3
ColorChange
350
19D
  3
Conceptual
350
197
  3
Dim
350
198
  3
EdgeColorOff
350
1A0
  3
Facepattern
350
19C
  3
Flat
350
18E
  3
FlatWithEdges
350
18F
  3
Gouraud
350
190
  3
GouraudWithEdges
350
191
  3
Hidden
350
194
  3
JitterOff
350
19E
  3
Linepattern
350
19B
  3
OverhangOff
350
19F
  3
Realistic
350
196
  3
Shaded
350
1A5
  3
Shaded with edges
350
1A4
  3
Shades of Gray
350
1A1
  3
Sketchy
350
1A2
  3
Thicken
350
19A
  3
Wireframe
350
193
  3
X-Ray
350
1A3
  0
XRECORD
  5
1BB
102
{ACAD_REACTORS
330
C
102
}
330
C
100
AcDbXrecord
280
     1
 90
        1
330
1B1
  0
DICTIONARY
  5
1BD
102
{ACAD_REACTORS
330
C
102
}
330
C
100
AcDbDictionary
281
     1
  3
MSLTSCALE
350
1BE
  0
DICTIONARY
  5
1B2
102
{ACAD_REACTORS
330
C
102
}
330
C
100
AcDbDictionary
281
     1
  3
NCDocParameters
350
1B3
  0
DICTIONARY
  5
1AC
102
{ACAD_REACTORS
330
C
102
}
330
C
100
AcDbDictionary
281
     1
  3
MC_VERSION_DATA
350
1B7
  3
MCS_DOCUMENT_ID
350
1AD
  3
MCS_PARAMS_DATA
350
1B5
  0
LAYOUT
  5
1E
102
{ACAD_REACTORS
330
1A
102
}
330
1A
100
AcDbPlotSettings
  1

  2
none_device
  4

  6

 40
0.0
 41
0.0
 42
0.0
 43
0.0
 44
0.0
 45
0.0
 46
0.0
 47
0.0
 48
0.0
 49
0.0
140
0.0
141
0.0
142
1.0
143
1.0
 70
   688
 72
     1
 73
     0
 74
     5
  7

 75
    16
 76
     0
 77
     2
 78
   300
147
1.0
148
0.0
149
0.0
100
AcDbLayout
  1
Layout1
 70
     0
 71
     1
 10
0.0
 20
0.0
 11
420.0
 21
297.0
 12
0.0
 22
0.0
 32
0.0
 14
1.000000E+20
 24
1.000000E+20
 34
1.000000E+20
 15
-1.000000E+20
 25
-1.000000E+20
 35
-1.000000E+20
146
0.0
 13
0.0
 23
0.0
 33
0.0
 16
1.0
 26
0.0
 36
0.0
 17
0.0
 27
1.0
 37
0.0
 76
     0
330
1B
  0
LAYOUT
  5
26
102
{ACAD_REACTORS
330
1A
102
}
330
1A
100
AcDbPlotSettings
  1

  2
none_device
  4

  6

 40
0.0
 41
0.0
 42
0.0
 43
0.0
 44
0.0
 45
0.0
 46
0.0
 47
0.0
 48
0.0
 49
0.0
140
0.0
141
0.0
142
1.0
143
1.0
 70
   688
 72
     1
 73
     0
 74
     5
  7

 75
    16
 76
     0
 77
     2
 78
   300
147
1.0
148
0.0
149
0.0
100
AcDbLayout
  1
Layout2
 70
     1
 71
     2
 10
0.0
 20
0.0
 11
0.0
 21
0.0
 12
0.0
 22
0.0
 32
0.0
 14
0.0
 24
0.0
 34
0.0
 15
0.0
 25
0.0
 35
0.0
146
0.0
 13
0.0
 23
0.0
 33
0.0
 16
1.0
 26
0.0
 36
0.0
 17
0.0
 27
1.0
 37
0.0
 76
     0
330
23
  0
LAYOUT
  5
22
102
{ACAD_REACTORS
330
1A
102
}
330
1A
100
AcDbPlotSettings
  1

  2
none_device
  4
Letter_(8.50_x_11.00_Inches)
  6

 40
6.35
 41
6.35
 42
6.350005
 43
6.350005
 44
215.9
 45
279.4
 46
0.0
 47
0.0
 48
0.0
 49
0.0
140
0.0
141
0.0
142
1.0
143
1.0
 70
  1712
 72
     1
 73
     0
 74
     0
  7

 75
     0
 76
     0
 77
     2
 78
   300
147
1.0
148
0.0
149
0.0
100
AcDbLayout
  1
Model
 70
     1
 71
     0
 10
0.0
 20
0.0
 11
279.4
 21
215.9
 12
0.0
 22
0.0
 32
0.0
 14
0.0
 24
0.0
 34
0.0
 15
279.4
 25
215.9
 35
0.0
146
0.0
 13
0.0
 23
0.0
 33
0.0
 16
1.0
 26
0.0
 36
0.0
 17
0.0
 27
1.0
 37
0.0
 76
     0
330
1F
331
29
  0
MATERIAL
  5
1A8
102
{ACAD_REACTORS
330
1A6
102
}
330
1A6
100
AcDbMaterial
  1
ByBlock
 72
     1
 94
      127
  0
MATERIAL
  5
1A7
102
{ACAD_REACTORS
330
1A6
102
}
330
1A6
100
AcDbMaterial
  1
ByLayer
 72
     1
 94
      127
  0
MATERIAL
  5
1A9
102
{ACAD_REACTORS
330
1A6
102
}
330
1A6
100
AcDbMaterial
  1
Global
 72
     1
 94
      127
  0
MLINESTYLE
  5
18
102
{ACAD_REACTORS
330
17
102
}
330
17
100
AcDbMlineStyle
  2
Standard
 70
     0
  3

 62
   256
 51
90.0
 52
90.0
 71
     2
 49
0.5
 62
   256
  6
BYLAYER
 49
-0.5
 62
   256
  6
BYLAYER
  0
ACDBPLACEHOLDER
  5
F
102
{ACAD_REACTORS
330
E
102
}
330
E
  0
SCALE
  5
48
102
{ACAD_REACTORS
330
47
102
}
330
47
100
AcDbScale
 70
     0
300
1:1
140
1.0
141
1.0
290
     1
  0
SCALE
  5
49
102
{ACAD_REACTORS
330
47
102
}
330
47
100
AcDbScale
 70
     0
300
1:2
140
1.0
141
2.0
290
     0
  0
SCALE
  5
4A
102
{ACAD_REACTORS
330
47
102
}
330
47
100
AcDbScale
 70
     0
300
1:4
140
1.0
141
4.0
290
     0
  0
SCALE
  5
4B
102
{ACAD_REACTORS
330
47
102
}
330
47
100
AcDbScale
 70
     0
300
1:5
140
1.0
141
5.0
290
     0
  0
SCALE
  5
4C
102
{ACAD_REACTORS
330
47
102
}
330
47
100
AcDbScale
 70
     0
300
1:8
140
1.0
141
8.0
290
     0
  0
SCALE
  5
4D
102
{ACAD_REACTORS
330
47
102
}
330
47
100
AcDbScale
 70
     0
300
1:10
140
1.0
141
10.0
290
     0
  0
SCALE
  5
4E
102
{ACAD_REACTORS
330
47
102
}
330
47
100
AcDbScale
 70
     0
300
1:16
140
1.0
141
16.0
290
     0
  0
SCALE
  5
4F
102
{ACAD_REACTORS
330
47
102
}
330
47
100
AcDbScale
 70
     0
300
1:20
140
1.0
141
20.0
290
     0
  0
SCALE
  5
50
102
{ACAD_REACTORS
330
47
102
}
330
47
100
AcDbScale
 70
     0
300
1:30
140
1.0
141
30.0
290
     0
  0
SCALE
  5
51
102
{ACAD_REACTORS
330
47
102
}
330
47
100
AcDbScale
 70
     0
300
1:40
140
1.0
141
40.0
290
     0
  0
SCALE
  5
52
102
{ACAD_REACTORS
330
47
102
}
330
47
100
AcDbScale
 70
     0
300
1:50
140
1.0
141
50.0
290
     0
  0
SCALE
  5
53
102
{ACAD_REACTORS
330
47
102
}
330
47
100
AcDbScale
 70
     0
300
1:100
140
1.0
141
100.0
290
     0
  0
SCALE
  5
54
102
{ACAD_REACTORS
330
47
102
}
330
47
100
AcDbScale
 70
     0
300
2:1
140
2.0
141
1.0
290
     0
  0
SCALE
  5
55
102
{ACAD_REACTORS
330
47
102
}
330
47
100
AcDbScale
 70
     0
300
4:1
140
4.0
141
1.0
290
     0
  0
SCALE
  5
56
102
{ACAD_REACTORS
330
47
102
}
330
47
100
AcDbScale
 70
     0
300
8:1
140
8.0
141
1.0
290
     0
  0
SCALE
  5
57
102
{ACAD_REACTORS
330
47
102
}
330
47
100
AcDbScale
 70
     0
300
10:1
140
10.0
141
1.0
290
     0
  0
SCALE
  5
58
102
{ACAD_REACTORS
330
47
102
}
330
47
100
AcDbScale
 70
     0
300
100:1
140
100.0
141
1.0
290
     0
  0
TABLESTYLE
  5
1B1
102
{ACAD_REACTORS
330
1B0
102
}
102
{ACAD_XDICTIONARY
360
1B9
102
}
330
1B0
100
AcDbTableStyle
  3
Standard
 70
     0
 71
     8
 40
1.5
 41
1.5
280
     0
281
     0
  7
Standard
140
4.5
170
     2
 62
     0
 63
   257
283
     0
 90
        4
 91
        0
  1

274
    -2
284
     1
 64
     0
275
    -2
285
     1
 65
     0
276
    -2
286
     1
 66
     0
277
    -2
287
     1
 67
     0
278
    -2
288
     1
 68
     0
279
    -2
289
     1
 69
     0
  7
Standard
140
6.0
170
     5
 62
     0
 63
   257
283
     0
 90
        4
 91
        0
  1

274
    -2
284
     1
 64
     0
275
    -2
285
     1
 65
     0
276
    -2
286
     1
 66
     0
277
    -2
287
     1
 67
     0
278
    -2
288
     1
 68
     0
279
    -2
289
     1
 69
     0
  7
Standard
140
4.5
170
     5
 62
     0
 63
   257
283
     0
 90
        4
 91
        0
  1

274
    -2
284
     1
 64
     0
275
    -2
285
     1
 65
     0
276
    -2
286
     1
 66
     0
277
    -2
287
     1
 67
     0
278
    -2
288
     1
 68
     0
279
    -2
289
     1
 69
     0
  0
VISUALSTYLE
  5
192
102
{ACAD_REACTORS
330
18D
102
}
330
18D
100
AcDbVisualStyle
  2
2dWireframe
 70
     4
177
     3
291
     0
 70
    58
 90
        0
176
     1
 90
        2
176
     1
 90
        0
176
     1
 90
        0
176
     1
 40
0.6
176
     1
 40
30.0
176
     1
 62
     7
420
 16777215
176
     1
 90
        1
176
     1
 90
        4
176
     1
 62
     7
176
     1
 62
   257
176
     1
 90
        1
176
     1
 90
        1
176
     1
 40
1.0
176
     1
 90
        0
176
     1
 62
   257
176
     1
 40
1.0
176
     1
 90
        1
176
     1
 90
        6
176
     1
 90
        2
176
     1
 62
     7
176
     1
 90
        5
176
     1
 90
        0
176
     1
 90
        0
176
     1
290
     0
176
     1
 90
        1
176
     1
 40
0.0
176
     1
 90
        0
176
     1
290
     1
176
     1
290
     1
176
     1
290
     0
176
     1
290
     0
176
     1
290
     0
176
     1
290
     0
176
     1
290
     0
176
     1
290
     0
176
     1
290
     0
176
     1
 90
       50
176
     1
 40
0.0
176
     1
 40
1.0
176
     1
 90
        0
176
     1
 62
    18
420
        0
176
     1
 90
       50
176
     1
 90
        3
176
     1
 62
     5
420
      255
176
     1
290
     0
176
     1
 90
       50
176
     1
 90
       50
176
     1
 90
       50
176
     1
290
     0
176
     1
 90
       50
176
     1
 62
   256
176
     0
 40
1.0
176
     0
 90
        2
176
     1
  1
strokes_ogs.tif
176
     1
290
     0
176
     1
 40
1.0
176
     1
 40
1.0
176
     1
  0
VISUALSTYLE
  5
195
102
{ACAD_REACTORS
330
18D
102
}
330
18D
100
AcDbVisualStyle
  2
Basic
 70
     7
177
     3
291
     1
 70
    58
 90
        1
176
     1
 90
        0
176
     1
 90
        1
176
     1
 90
        0
176
     1
 40
0.6
176
     1
 40
30.0
176
     1
 62
     7
420
 16777215
176
     1
 90
        0
176
     1
 90
        4
176
     1
 62
     7
176
     1
 62
   257
176
     1
 90
        1
176
     1
 90
        1
176
     1
 40
1.0
176
     1
 90
        8
176
     1
 62
     7
176
     1
 40
1.0
176
     1
 90
        1
176
     1
 90
        6
176
     1
 90
        2
176
     1
 62
     7
176
     1
 90
        5
176
     1
 90
        0
176
     1
 90
        0
176
     1
290
     0
176
     1
 90
        1
176
     1
 40
0.0
176
     1
 90
        0
176
     1
290
     0
176
     1
290
     1
176
     1
290
     1
176
     1
290
     0
176
     1
290
     0
176
     1
290
     0
176
     1
290
     0
176
     1
290
     0
176
     1
290
     0
176
     1
 90
       50
176
     1
 40
0.0
176
     1
 40
1.0
176
     1
 90
        0
176
     1
 62
    18
420
        0
176
     1
 90
       50
176
     1
 90
        3
176
     1
 62
     5
420
      255
176
     1
290
     0
176
     1
 90
       50
176
     1
 90
       50
176
     1
 90
       50
176
     1
290
     0
176
     1
 90
       50
176
     1
 62
   256
176
     0
 40
1.0
176
     0
 90
        2
176
     1
  1
strokes_ogs.tif
176
     1
290
     0
176
     1
 40
1.0
176
     1
 40
1.0
176
     1
  0
VISUALSTYLE
  5
199
102
{ACAD_REACTORS
330
18D
102
}
330
18D
100
AcDbVisualStyle
  2
Brighten
 70
    12
177
     3
291
     1
 70
    58
 90
        2
176
     1
 90
        2
176
     1
 90
        0
176
     1
 90
        0
176
     1
 40
0.6
176
     1
 40
30.0
176
     1
 62
     7
420
 16777215
176
     1
 90
        1
176
     1
 90
        4
176
     1
 62
     7
176
     1
 62
   257
176
     1
 90
        1
176
     1
 90
        1
176
     1
 40
1.0
176
     1
 90
        8
176
     1
 62
     7
176
     1
 40
1.0
176
     1
 90
        1
176
     1
 90
        6
176
     1
 90
        2
176
     1
 62
     7
176
     1
 90
        5
176
     1
 90
        0
176
     1
 90
        0
176
     1
290
     0
176
     1
 90
        1
176
     1
 40
50.0
176
     1
 90
        0
176
     1
290
     0
176
     1
290
     1
176
     1
290
     1
176
     1
290
     0
176
     1
290
     0
176
     1
290
     0
176
     1
290
     0
176
     1
290
     0
176
     1
290
     0
176
     1
 90
       50
176
     1
 40
0.0
176
     1
 40
1.0
176
     1
 90
        0
176
     1
 62
    18
420
        0
176
     1
 90
       50
176
     1
 90
        3
176
     1
 62
     5
420
      255
176
     1
290
     0
176
     1
 90
       50
176
     1
 90
       50
176
     1
 90
       50
176
     1
290
     0
176
     1
 90
       50
176
     1
 62
   256
176
     0
 40
1.0
176
     0
 90
        2
176
     1
  1
strokes_ogs.tif
176
     1
290
     0
176
     1
 40
1.0
176
     1
 40
1.0
176
     1
  0
VISUALSTYLE
  5
19D
102
{ACAD_REACTORS
330
18D
102
}
330
18D
100
AcDbVisualStyle
  2
ColorChange
 70
    16
177
     3
291
     1
 70
    58
 90
        2
176
     1
 90
        2
176
     1
 90
        3
176
     1
 90
        0
176
     1
 40
0.6
176
     1
 40
30.0
176
     1
 62
     8
420
  8421504
176
     1
 90
        1
176
     1
 90
        4
176
     1
 62
     7
176
     1
 62
   257
176
     1
 90
        1
176
     1
 90
        1
176
     1
 40
1.0
176
     1
 90
        8
176
     1
 62
     8
420
  8421504
176
     1
 40
1.0
176
     1
 90
        1
176
     1
 90
        6
176
     1
 90
        2
176
     1
 62
     7
176
     1
 90
        5
176
     1
 90
        0
176
     1
 90
        0
176
     1
290
     0
176
     1
 90
        1
176
     1
 40
0.0
176
     1
 90
        0
176
     1
290
     0
176
     1
290
     1
176
     1
290
     1
176
     1
290
     0
176
     1
290
     0
176
     1
290
     0
176
     1
290
     0
176
     1
290
     0
176
     1
290
     0
176
     1
 90
       50
176
     1
 40
0.0
176
     1
 40
1.0
176
     1
 90
        0
176
     1
 62
    18
420
        0
176
     1
 90
       50
176
     1
 90
        3
176
     1
 62
     5
420
      255
176
     1
290
     0
176
     1
 90
       50
176
     1
 90
       50
176
     1
 90
       50
176
     1
290
     0
176
     1
 90
       50
176
     1
 62
   256
176
     0
 40
1.0
176
     0
 90
        2
176
     1
  1
strokes_ogs.tif
176
     1
290
     0
176
     1
 40
1.0
176
     1
 40
1.0
176
     1
  0
VISUALSTYLE
  5
197
102
{ACAD_REACTORS
330
18D
102
}
330
18D
100
AcDbVisualStyle
  2
Conceptual
 70
     9
177
     3
291
     0
 70
    58
 90
        3
176
     1
 90
        2
176
     1
 90
        0
176
     1
 90
        0
176
     1
 40
0.6
176
     1
 40
30.0
176
     1
 62
     7
420
 16777215
176
     1
 90
        2
176
     1
 90
        2
176
     1
 62
     7
176
     1
 62
   257
176
     1
 90
        1
176
     1
 90
        1
176
     1
 40
179.0
176
     1
 90
        8
176
     1
 62
     7
176
     1
 40
1.0
176
     1
 90
        1
176
     1
 90
        6
176
     1
 90
        2
176
     1
 62
     7
176
     1
 90
        3
176
     1
 90
        0
176
     1
 90
        0
176
     1
290
     0
176
     1
 90
        1
176
     1
 40
0.0
176
     1
 90
        0
176
     1
290
     0
176
     1
290
     1
176
     1
290
     1
176
     1
290
     0
176
     1
290
     0
176
     1
290
     0
176
     1
290
     0
176
     1
290
     0
176
     1
290
     0
176
     1
 90
       50
176
     1
 40
0.0
176
     1
 40
1.0
176
     1
 90
        0
176
     1
 62
    18
420
        0
176
     1
 90
       50
176
     1
 90
        3
176
     1
 62
     5
420
      255
176
     1
290
     0
176
     1
 90
       50
176
     1
 90
       50
176
     1
 90
       50
176
     1
290
     0
176
     1
 90
       50
176
     1
 62
   256
176
     0
 40
1.0
176
     0
 90
        2
176
     1
  1
strokes_ogs.tif
176
     1
290
     0
176
     1
 40
1.0
176
     1
 40
1.0
176
     1
  0
VISUALSTYLE
  5
198
102
{ACAD_REACTORS
330
18D
102
}
330
18D
100
AcDbVisualStyle
  2
Dim
 70
    11
177
     3
291
     1
 70
    58
 90
        2
176
     1
 90
        2
176
     1
 90
        0
176
     1
 90
        0
176
     1
 40
0.6
176
     1
 40
30.0
176
     1
 62
     7
420
 16777215
176
     1
 90
        1
176
     1
 90
        4
176
     1
 62
     7
176
     1
 62
   257
176
     1
 90
        1
176
     1
 90
        1
176
     1
 40
1.0
176
     1
 90
        8
176
     1
 62
     7
176
     1
 40
1.0
176
     1
 90
        1
176
     1
 90
        6
176
     1
 90
        2
176
     1
 62
     7
176
     1
 90
        5
176
     1
 90
        0
176
     1
 90
        0
176
     1
290
     0
176
     1
 90
        1
176
     1
 40
-50.0
176
     1
 90
        0
176
     1
290
     0
176
     1
290
     1
176
     1
290
     1
176
     1
290
     0
176
     1
290
     0
176
     1
290
     0
176
     1
290
     0
176
     1
290
     0
176
     1
290
     0
176
     1
 90
       50
176
     1
 40
0.0
176
     1
 40
1.0
176
     1
 90
        0
176
     1
 62
    18
420
        0
176
     1
 90
       50
176
     1
 90
        3
176
     1
 62
     5
420
      255
176
     1
290
     0
176
     1
 90
       50
176
     1
 90
       50
176
     1
 90
       50
176
     1
290
     0
176
     1
 90
       50
176
     1
 62
   256
176
     0
 40
1.0
176
     0
 90
        2
176
     1
  1
strokes_ogs.tif
176
     1
290
     0
176
     1
 40
1.0
176
     1
 40
1.0
176
     1
  0
VISUALSTYLE
  5
1A0
102
{ACAD_REACTORS
330
18D
102
}
330
18D
100
AcDbVisualStyle
  2
EdgeColorOff
 70
    22
177
     3
291
     1
 70
    58
 90
        2
176
     0
 90
        2
176
     0
 90
        0
176
     0
 90
        0
176
     0
 40
0.6
176
     0
 40
30.0
176
     0
 62
     7
420
 16777215
176
     0
 90
        1
176
     0
 90
        4
176
     0
 62
     7
176
     0
 62
   257
176
     0
 90
        1
176
     0
 90
        1
176
     0
 40
1.0
176
     0
 90
        8
176
     2
 62
     7
176
     0
 40
1.0
176
     0
 90
        1
176
     0
 90
        6
176
     0
 90
        2
176
     0
 62
     7
176
     0
 90
        5
176
     0
 90
        0
176
     0
 90
        0
176
     0
290
     0
176
     0
 90
        1
176
     0
 40
0.0
176
     0
 90
        0
176
     0
290
     0
176
     0
290
     1
176
     0
290
     1
176
     0
290
     0
176
     0
290
     0
176
     0
290
     0
176
     0
290
     0
176
     0
290
     0
176
     0
290
     0
176
     0
 90
       50
176
     0
 40
0.0
176
     0
 40
1.0
176
     0
 90
        0
176
     0
 62
    18
420
        0
176
     0
 90
       50
176
     0
 90
        3
176
     0
 62
     5
420
      255
176
     0
290
     0
176
     0
 90
       50
176
     0
 90
       50
176
     0
 90
       50
176
     0
290
     0
176
     0
 90
       50
176
     0
 62
   256
176
     0
 40
1.0
176
     0
 90
        2
176
     0
  1
strokes_ogs.tif
176
     0
290
     0
176
     0
 40
1.0
176
     0
 40
1.0
176
     0
  0
VISUALSTYLE
  5
19C
102
{ACAD_REACTORS
330
18D
102
}
330
18D
100
AcDbVisualStyle
  2
Facepattern
 70
    15
177
     3
291
     1
 70
    58
 90
        2
176
     1
 90
        2
176
     1
 90
        0
176
     1
 90
        0
176
     1
 40
0.6
176
     1
 40
30.0
176
     1
 62
     7
420
 16777215
176
     1
 90
        1
176
     1
 90
        4
176
     1
 62
     7
176
     1
 62
   257
176
     1
 90
        1
176
     1
 90
        1
176
     1
 40
1.0
176
     1
 90
        8
176
     1
 62
     7
176
     1
 40
1.0
176
     1
 90
        1
176
     1
 90
        6
176
     1
 90
        2
176
     1
 62
     7
176
     1
 90
        5
176
     1
 90
        0
176
     1
 90
        0
176
     1
290
     0
176
     1
 90
        1
176
     1
 40
0.0
176
     1
 90
        0
176
     1
290
     0
176
     1
290
     1
176
     1
290
     1
176
     1
290
     0
176
     1
290
     0
176
     1
290
     0
176
     1
290
     0
176
     1
290
     0
176
     1
290
     0
176
     1
 90
       50
176
     1
 40
0.0
176
     1
 40
1.0
176
     1
 90
        0
176
     1
 62
    18
420
        0
176
     1
 90
       50
176
     1
 90
        3
176
     1
 62
     5
420
      255
176
     1
290
     0
176
     1
 90
       50
176
     1
 90
       50
176
     1
 90
       50
176
     1
290
     0
176
     1
 90
       50
176
     1
 62
   256
176
     0
 40
1.0
176
     0
 90
        2
176
     1
  1
strokes_ogs.tif
176
     1
290
     0
176
     1
 40
1.0
176
     1
 40
1.0
176
     1
  0
VISUALSTYLE
  5
18E
102
{ACAD_REACTORS
330
18D
102
}
330
18D
100
AcDbVisualStyle
  2
Flat
 70
     0
177
     3
291
     1
 70
    58
 90
        2
176
     1
 90
        1
176
     1
 90
        1
176
     1
 90
        2
176
     1
 40
0.6
176
     1
 40
30.0
176
     1
 62
     7
420
 16777215
176
     1
 90
        0
176
     1
 90
        0
176
     1
 62
     7
176
     1
 62
   257
176
     1
 90
        1
176
     1
 90
        1
176
     1
 40
1.0
176
     1
 90
        8
176
     1
 62
     7
176
     1
 40
1.0
176
     1
 90
        1
176
     1
 90
        6
176
     1
 90
        2
176
     1
 62
     7
176
     1
 90
        5
176
     1
 90
        0
176
     1
 90
        0
176
     1
290
     0
176
     1
 90
       13
176
     1
 40
0.0
176
     1
 90
        0
176
     1
290
     0
176
     1
290
     1
176
     1
290
     1
176
     1
290
     0
176
     1
290
     0
176
     1
290
     0
176
     1
290
     0
176
     1
290
     0
176
     1
290
     0
176
     1
 90
       50
176
     1
 40
0.0
176
     1
 40
1.0
176
     1
 90
        0
176
     1
 62
    18
420
        0
176
     1
 90
       50
176
     1
 90
        3
176
     1
 62
     5
420
      255
176
     1
290
     0
176
     1
 90
       50
176
     1
 90
       50
176
     1
 90
       50
176
     1
290
     0
176
     1
 90
       50
176
     1
 62
   256
176
     0
 40
1.0
176
     0
 90
        2
176
     1
  1
strokes_ogs.tif
176
     1
290
     0
176
     1
 40
1.0
176
     1
 40
1.0
176
     1
  0
VISUALSTYLE
  5
18F
102
{ACAD_REACTORS
330
18D
102
}
330
18D
100
AcDbVisualStyle
  2
FlatWithEdges
 70
     1
177
     3
291
     1
 70
    58
 90
        2
176
     1
 90
        1
176
     1
 90
        1
176
     1
 90
        2
176
     1
 40
0.6
176
     1
 40
30.0
176
     1
 62
     7
420
 16777215
176
     1
 90
        1
176
     1
 90
        0
176
     1
 62
     7
176
     1
 62
   257
176
     1
 90
        1
176
     1
 90
        1
176
     1
 40
1.0
176
     1
 90
        0
176
     1
 62
   257
176
     1
 40
1.0
176
     1
 90
        1
176
     1
 90
        6
176
     1
 90
        2
176
     1
 62
     7
176
     1
 90
        5
176
     1
 90
        0
176
     1
 90
        0
176
     1
290
     0
176
     1
 90
       13
176
     1
 40
0.0
176
     1
 90
        0
176
     1
290
     0
176
     1
290
     1
176
     1
290
     1
176
     1
290
     0
176
     1
290
     0
176
     1
290
     0
176
     1
290
     0
176
     1
290
     0
176
     1
290
     0
176
     1
 90
       50
176
     1
 40
0.0
176
     1
 40
1.0
176
     1
 90
        0
176
     1
 62
    18
420
        0
176
     1
 90
       50
176
     1
 90
        3
176
     1
 62
     5
420
      255
176
     1
290
     0
176
     1
 90
       50
176
     1
 90
       50
176
     1
 90
       50
176
     1
290
     0
176
     1
 90
       50
176
     1
 62
   256
176
     0
 40
1.0
176
     0
 90
        2
176
     1
  1
strokes_ogs.tif
176
     1
290
     0
176
     1
 40
1.0
176
     1
 40
1.0
176
     1
  0
VISUALSTYLE
  5
190
102
{ACAD_REACTORS
330
18D
102
}
330
18D
100
AcDbVisualStyle
  2
Gouraud
 70
     2
177
     3
291
     1
 70
    58
 90
        2
176
     1
 90
        2
176
     1
 90
        1
176
     1
 90
        2
176
     1
 40
0.6
176
     1
 40
30.0
176
     1
 62
     7
420
 16777215
176
     1
 90
        0
176
     1
 90
        0
176
     1
 62
     7
176
     1
 62
   257
176
     1
 90
        1
176
     1
 90
        1
176
     1
 40
1.0
176
     1
 90
        0
176
     1
 62
     7
176
     1
 40
1.0
176
     1
 90
        1
176
     1
 90
        6
176
     1
 90
        2
176
     1
 62
     7
176
     1
 90
        5
176
     1
 90
        0
176
     1
 90
        0
176
     1
290
     0
176
     1
 90
       13
176
     1
 40
0.0
176
     1
 90
        0
176
     1
290
     0
176
     1
290
     1
176
     1
290
     1
176
     1
290
     0
176
     1
290
     0
176
     1
290
     0
176
     1
290
     0
176
     1
290
     0
176
     1
290
     0
176
     1
 90
       50
176
     1
 40
0.0
176
     1
 40
1.0
176
     1
 90
        0
176
     1
 62
    18
420
        0
176
     1
 90
       50
176
     1
 90
        3
176
     1
 62
     5
420
      255
176
     1
290
     0
176
     1
 90
       50
176
     1
 90
       50
176
     1
 90
       50
176
     1
290
     0
176
     1
 90
       50
176
     1
 62
   256
176
     0
 40
1.0
176
     0
 90
        2
176
     1
  1
strokes_ogs.tif
176
     1
290
     0
176
     1
 40
1.0
176
     1
 40
1.0
176
     1
  0
VISUALSTYLE
  5
191
102
{ACAD_REACTORS
330
18D
102
}
330
18D
100
AcDbVisualStyle
  2
GouraudWithEdges
 70
     3
177
     3
291
     1
 70
    58
 90
        2
176
     1
 90
        2
176
     1
 90
        1
176
     1
 90
        2
176
     1
 40
0.6
176
     1
 40
30.0
176
     1
 62
     7
420
 16777215
176
     1
 90
        1
176
     1
 90
        0
176
     1
 62
     7
176
     1
 62
   257
176
     1
 90
        1
176
     1
 90
        1
176
     1
 40
1.0
176
     1
 90
        0
176
     1
 62
   257
176
     1
 40
1.0
176
     1
 90
        1
176
     1
 90
        6
176
     1
 90
        2
176
     1
 62
     7
176
     1
 90
        5
176
     1
 90
        0
176
     1
 90
        0
176
     1
290
     0
176
     1
 90
       13
176
     1
 40
0.0
176
     1
 90
        0
176
     1
290
     0
176
     1
290
     1
176
     1
290
     1
176
     1
290
     0
176
     1
290
     0
176
     1
290
     0
176
     1
290
     0
176
     1
290
     0
176
     1
290
     0
176
     1
 90
       50
176
     1
 40
0.0
176
     1
 40
1.0
176
     1
 90
        0
176
     1
 62
    18
420
        0
176
     1
 90
       50
176
     1
 90
        3
176
     1
 62
     5
420
      255
176
     1
290
     0
176
     1
 90
       50
176
     1
 90
       50
176
     1
 90
       50
176
     1
290
     0
176
     1
 90
       50
176
     1
 62
   256
176
     0
 40
1.0
176
     0
 90
        2
176
     1
  1
strokes_ogs.tif
176
     1
290
     0
176
     1
 40
1.0
176
     1
 40
1.0
176
     1
  0
VISUALSTYLE
  5
194
102
{ACAD_REACTORS
330
18D
102
}
330
18D
100
AcDbVisualStyle
  2
Hidden
 70
     6
177
     3
291
     0
 70
    58
 90
        1
176
     1
 90
        2
176
     1
 90
        2
176
     1
 90
        0
176
     1
 40
0.6
176
     1
 40
30.0
176
     1
 62
     7
420
 16777215
176
     1
 90
        2
176
     1
 90
        2
176
     1
 62
     7
176
     1
 62
   257
176
     1
 90
        2
176
     1
 90
        1
176
     1
 40
40.0
176
     1
 90
        0
176
     1
 62
   257
176
     1
 40
1.0
176
     1
 90
        1
176
     1
 90
        6
176
     1
 90
        2
176
     1
 62
     7
176
     1
 90
        3
176
     1
 90
        0
176
     1
 90
        0
176
     1
290
     0
176
     1
 90
        1
176
     1
 40
0.0
176
     1
 90
        0
176
     1
290
     0
176
     1
290
     1
176
     1
290
     1
176
     1
290
     0
176
     1
290
     0
176
     1
290
     0
176
     1
290
     0
176
     1
290
     0
176
     1
290
     0
176
     1
 90
       50
176
     1
 40
0.0
176
     1
 40
1.0
176
     1
 90
        0
176
     1
 62
    18
420
        0
176
     1
 90
       50
176
     1
 90
        3
176
     1
 62
     5
420
      255
176
     1
290
     0
176
     1
 90
       50
176
     1
 90
       50
176
     1
 90
       50
176
     1
290
     0
176
     1
 90
       50
176
     1
 62
   256
176
     0
 40
1.0
176
     0
 90
        2
176
     1
  1
strokes_ogs.tif
176
     1
290
     0
176
     1
 40
1.0
176
     1
 40
1.0
176
     1
  0
VISUALSTYLE
  5
19E
102
{ACAD_REACTORS
330
18D
102
}
330
18D
100
AcDbVisualStyle
  2
JitterOff
 70
    20
177
     3
291
     1
 70
    58
 90
        2
176
     0
 90
        2
176
     0
 90
        0
176
     0
 90
        0
176
     0
 40
0.6
176
     0
 40
30.0
176
     0
 62
     7
420
 16777215
176
     0
 90
        1
176
     0
 90
        4
176
     0
 62
     7
176
     0
 62
   257
176
     0
 90
        1
176
     0
 90
        1
176
     0
 40
1.0
176
     0
 90
       10
176
     2
 62
     7
176
     0
 40
1.0
176
     0
 90
        1
176
     0
 90
        6
176
     0
 90
        2
176
     0
 62
     7
176
     0
 90
        5
176
     0
 90
        0
176
     0
 90
        0
176
     0
290
     0
176
     0
 90
        1
176
     0
 40
0.0
176
     0
 90
        0
176
     0
290
     0
176
     0
290
     1
176
     0
290
     1
176
     0
290
     0
176
     0
290
     0
176
     0
290
     0
176
     0
290
     0
176
     0
290
     0
176
     0
290
     0
176
     0
 90
       50
176
     0
 40
0.0
176
     0
 40
1.0
176
     0
 90
        0
176
     0
 62
    18
420
        0
176
     0
 90
       50
176
     0
 90
        3
176
     0
 62
     5
420
      255
176
     0
290
     0
176
     0
 90
       50
176
     0
 90
       50
176
     0
 90
       50
176
     0
290
     0
176
     0
 90
       50
176
     0
 62
   256
176
     0
 40
1.0
176
     0
 90
        2
176
     0
  1
strokes_ogs.tif
176
     0
290
     0
176
     0
 40
1.0
176
     0
 40
1.0
176
     0
  0
VISUALSTYLE
  5
19B
102
{ACAD_REACTORS
330
18D
102
}
330
18D
100
AcDbVisualStyle
  2
Linepattern
 70
    14
177
     3
291
     1
 70
    58
 90
        2
176
     1
 90
        2
176
     1
 90
        0
176
     1
 90
        0
176
     1
 40
0.6
176
     1
 40
30.0
176
     1
 62
     7
420
 16777215
176
     1
 90
        1
176
     1
 90
        4
176
     1
 62
     7
176
     1
 62
   257
176
     1
 90
        7
176
     1
 90
        7
176
     1
 40
1.0
176
     1
 90
        8
176
     1
 62
     7
176
     1
 40
1.0
176
     1
 90
        1
176
     1
 90
        6
176
     1
 90
        2
176
     1
 62
     7
176
     1
 90
        5
176
     1
 90
        0
176
     1
 90
        0
176
     1
290
     0
176
     1
 90
        1
176
     1
 40
0.0
176
     1
 90
        0
176
     1
290
     0
176
     1
290
     1
176
     1
290
     1
176
     1
290
     0
176
     1
290
     0
176
     1
290
     0
176
     1
290
     0
176
     1
290
     0
176
     1
290
     0
176
     1
 90
       50
176
     1
 40
0.0
176
     1
 40
1.0
176
     1
 90
        0
176
     1
 62
    18
420
        0
176
     1
 90
       50
176
     1
 90
        3
176
     1
 62
     5
420
      255
176
     1
290
     0
176
     1
 90
       50
176
     1
 90
       50
176
     1
 90
       50
176
     1
290
     0
176
     1
 90
       50
176
     1
 62
   256
176
     0
 40
1.0
176
     0
 90
        2
176
     1
  1
strokes_ogs.tif
176
     1
290
     0
176
     1
 40
1.0
176
     1
 40
1.0
176
     1
  0
VISUALSTYLE
  5
19F
102
{ACAD_REACTORS
330
18D
102
}
330
18D
100
AcDbVisualStyle
  2
OverhangOff
 70
    21
177
     3
291
     1
 70
    58
 90
        2
176
     0
 90
        2
176
     0
 90
        0
176
     0
 90
        0
176
     0
 40
0.6
176
     0
 40
30.0
176
     0
 62
     7
420
 16777215
176
     0
 90
        1
176
     0
 90
        4
176
     0
 62
     7
176
     0
 62
   257
176
     0
 90
        1
176
     0
 90
        1
176
     0
 40
1.0
176
     0
 90
        9
176
     2
 62
     7
176
     0
 40
1.0
176
     0
 90
        1
176
     0
 90
        6
176
     0
 90
        2
176
     0
 62
     7
176
     0
 90
        5
176
     0
 90
        0
176
     0
 90
        0
176
     0
290
     0
176
     0
 90
        1
176
     0
 40
0.0
176
     0
 90
        0
176
     0
290
     0
176
     0
290
     1
176
     0
290
     1
176
     0
290
     0
176
     0
290
     0
176
     0
290
     0
176
     0
290
     0
176
     0
290
     0
176
     0
290
     0
176
     0
 90
       50
176
     0
 40
0.0
176
     0
 40
1.0
176
     0
 90
        0
176
     0
 62
    18
420
        0
176
     0
 90
       50
176
     0
 90
        3
176
     0
 62
     5
420
      255
176
     0
290
     0
176
     0
 90
       50
176
     0
 90
       50
176
     0
 90
       50
176
     0
290
     0
176
     0
 90
       50
176
     0
 62
   256
176
     0
 40
1.0
176
     0
 90
        2
176
     0
  1
strokes_ogs.tif
176
     0
290
     0
176
     0
 40
1.0
176
     0
 40
1.0
176
     0
  0
VISUALSTYLE
  5
196
102
{ACAD_REACTORS
330
18D
102
}
330
18D
100
AcDbVisualStyle
  2
Realistic
 70
     8
177
     3
291
     0
 70
    58
 90
        2
176
     1
 90
        3
176
     1
 90
        0
176
     1
 90
        2
176
     1
 40
0.6
176
     1
 40
30.0
176
     1
 62
     7
420
 16777215
176
     1
 90
        0
176
     1
 90
        0
176
     1
 62
     7
176
     1
 62
   257
176
     1
 90
        1
176
     1
 90
        1
176
     1
 40
1.0
176
     1
 90
        8
176
     1
 62
   257
176
     1
 40
1.0
176
     1
 90
        1
176
     1
 90
        6
176
     1
 90
        2
176
     1
 62
     7
176
     1
 90
        3
176
     1
 90
        0
176
     1
 90
        0
176
     1
290
     0
176
     1
 90
       13
176
     1
 40
0.0
176
     1
 90
        0
176
     1
290
     0
176
     1
290
     1
176
     1
290
     1
176
     1
290
     0
176
     1
290
     0
176
     1
290
     0
176
     1
290
     0
176
     1
290
     0
176
     1
290
     0
176
     1
 90
       50
176
     1
 40
0.0
176
     1
 40
1.0
176
     1
 90
        0
176
     1
 62
    18
420
        0
176
     1
 90
       50
176
     1
 90
        3
176
     1
 62
     5
420
      255
176
     1
290
     0
176
     1
 90
       50
176
     1
 90
       50
176
     1
 90
       50
176
     1
290
     0
176
     1
 90
       50
176
     1
 62
   256
176
     0
 40
1.0
176
     0
 90
        2
176
     1
  1
strokes_ogs.tif
176
     1
290
     0
176
     1
 40
1.0
176
     1
 40
1.0
176
     1
  0
VISUALSTYLE
  5
1A5
102
{ACAD_REACTORS
330
18D
102
}
330
18D
100
AcDbVisualStyle
  2
Shaded
 70
    27
177
     3
291
     0
 70
    58
 90
        2
176
     1
 90
        2
176
     1
 90
        1
176
     1
 90
        2
176
     1
 40
0.6
176
     1
 40
30.0
176
     1
 62
     7
420
 16777215
176
     1
 90
        0
176
     1
 90
        4
176
     1
 62
     7
176
     1
 62
   257
176
     1
 90
        1
176
     1
 90
        1
176
     1
 40
1.0
176
     1
 90
        8
176
     1
 62
   257
176
     1
 40
1.0
176
     1
 90
        1
176
     1
 90
        6
176
     1
 90
        2
176
     1
 62
     8
420
  7895160
176
     1
 90
        3
176
     1
 90
        0
176
     1
 90
        0
176
     1
290
     0
176
     1
 90
        5
176
     1
 40
0.0
176
     1
 90
        0
176
     1
290
     0
176
     1
290
     1
176
     1
290
     1
176
     1
290
     0
176
     1
290
     0
176
     1
290
     0
176
     1
290
     0
176
     1
290
     0
176
     1
290
     0
176
     1
 90
       50
176
     1
 40
0.0
176
     1
 40
1.0
176
     1
 90
        0
176
     1
 62
    18
420
        0
176
     1
 90
       50
176
     1
 90
        3
176
     1
 62
     5
420
      255
176
     1
290
     0
176
     1
 90
       50
176
     1
 90
       50
176
     1
 90
       50
176
     1
290
     0
176
     1
 90
       50
176
     1
 62
   256
176
     0
 40
1.0
176
     0
 90
        2
176
     1
  1
strokes_ogs.tif
176
     1
290
     0
176
     1
 40
1.0
176
     1
 40
1.0
176
     1
  0
VISUALSTYLE
  5
1A4
102
{ACAD_REACTORS
330
18D
102
}
330
18D
100
AcDbVisualStyle
  2
Shaded with edges
 70
    26
177
     3
291
     0
 70
    58
 90
        2
176
     1
 90
        2
176
     1
 90
        1
176
     1
 90
        2
176
     1
 40
0.6
176
     1
 40
30.0
176
     1
 62
     7
420
 16777215
176
     1
 90
        1
176
     1
 90
       10
176
     1
 62
     7
176
     1
 62
   257
176
     1
 90
        2
176
     1
 90
        1
176
     1
 40
1.0
176
     1
 90
        8
176
     1
 62
   257
176
     1
 40
1.0
176
     1
 90
        1
176
     1
 90
        6
176
     1
 90
        2
176
     1
 62
     7
176
     1
 90
        3
176
     1
 90
        0
176
     1
 90
        0
176
     1
290
     0
176
     1
 90
        5
176
     1
 40
0.0
176
     1
 90
        0
176
     1
290
     0
176
     1
290
     1
176
     1
290
     1
176
     1
290
     0
176
     1
290
     0
176
     1
290
     0
176
     1
290
     0
176
     1
290
     0
176
     1
290
     0
176
     1
 90
       50
176
     1
 40
0.0
176
     1
 40
1.0
176
     1
 90
        0
176
     1
 62
    18
420
        0
176
     1
 90
       50
176
     1
 90
        3
176
     1
 62
     5
420
      255
176
     1
290
     0
176
     1
 90
       50
176
     1
 90
       50
176
     1
 90
       50
176
     1
290
     0
176
     1
 90
       50
176
     1
 62
   256
176
     0
 40
1.0
176
     0
 90
        2
176
     1
  1
strokes_ogs.tif
176
     1
290
     0
176
     1
 40
1.0
176
     1
 40
1.0
176
     1
  0
VISUALSTYLE
  5
1A1
102
{ACAD_REACTORS
330
18D
102
}
330
18D
100
AcDbVisualStyle
  2
Shades of Gray
 70
    23
177
     3
291
     0
 70
    58
 90
        2
176
     1
 90
        2
176
     1
 90
        3
176
     1
 90
        0
176
     1
 40
0.6
176
     1
 40
30.0
176
     1
 62
     7
420
 16777215
176
     1
 90
        2
176
     1
 90
        2
176
     1
 62
     7
176
     1
 62
     7
176
     1
 90
        1
176
     1
 90
        1
176
     1
 40
40.0
176
     1
 90
        8
176
     1
 62
     7
176
     1
 40
1.0
176
     1
 90
        1
176
     1
 90
        6
176
     1
 90
        2
176
     1
 62
     7
176
     1
 90
        3
176
     1
 90
        0
176
     1
 90
        0
176
     1
290
     0
176
     1
 90
        1
176
     1
 40
0.0
176
     1
 90
        0
176
     1
290
     0
176
     1
290
     1
176
     1
290
     1
176
     1
290
     0
176
     1
290
     0
176
     1
290
     0
176
     1
290
     0
176
     1
290
     0
176
     1
290
     0
176
     1
 90
       50
176
     1
 40
0.0
176
     1
 40
1.0
176
     1
 90
        0
176
     1
 62
    18
420
        0
176
     1
 90
       50
176
     1
 90
        3
176
     1
 62
     5
420
      255
176
     1
290
     0
176
     1
 90
       50
176
     1
 90
       50
176
     1
 90
       50
176
     1
290
     0
176
     1
 90
       50
176
     1
 62
   256
176
     0
 40
1.0
176
     0
 90
        2
176
     1
  1
strokes_ogs.tif
176
     1
290
     0
176
     1
 40
1.0
176
     1
 40
1.0
176
     1
  0
VISUALSTYLE
  5
1A2
102
{ACAD_REACTORS
330
18D
102
}
330
18D
100
AcDbVisualStyle
  2
Sketchy
 70
    24
177
     3
291
     0
 70
    58
 90
        1
176
     1
 90
        2
176
     1
 90
        2
176
     1
 90
        0
176
     1
 40
0.6
176
     1
 40
30.0
176
     1
 62
     7
420
 16777215
176
     1
 90
        2
176
     1
 90
        2
176
     1
 62
     7
176
     1
 62
     7
176
     1
 90
        1
176
     1
 90
        1
176
     1
 40
40.0
176
     1
 90
       11
176
     1
 62
     7
176
     1
 40
1.0
176
     1
 90
        1
176
     1
 90
        6
176
     1
 90
        2
176
     1
 62
     7
176
     1
 90
        6
176
     1
 90
        0
176
     1
 90
        0
176
     1
290
     0
176
     1
 90
        1
176
     1
 40
0.0
176
     1
 90
        0
176
     1
290
     0
176
     1
290
     1
176
     1
290
     1
176
     1
290
     0
176
     1
290
     0
176
     1
290
     0
176
     1
290
     0
176
     1
290
     0
176
     1
290
     0
176
     1
 90
       50
176
     1
 40
0.0
176
     1
 40
1.0
176
     1
 90
        0
176
     1
 62
    18
420
        0
176
     1
 90
       50
176
     1
 90
        3
176
     1
 62
     5
420
      255
176
     1
290
     0
176
     1
 90
       50
176
     1
 90
       50
176
     1
 90
       50
176
     1
290
     0
176
     1
 90
       50
176
     1
 62
   256
176
     0
 40
1.0
176
     0
 90
        2
176
     1
  1
strokes_ogs.tif
176
     1
290
     0
176
     1
 40
1.0
176
     1
 40
1.0
176
     1
  0
VISUALSTYLE
  5
19A
102
{ACAD_REACTORS
330
18D
102
}
330
18D
100
AcDbVisualStyle
  2
Thicken
 70
    13
177
     3
291
     1
 70
    58
 90
        2
176
     1
 90
        2
176
     1
 90
        0
176
     1
 90
        0
176
     1
 40
0.6
176
     1
 40
30.0
176
     1
 62
     7
420
 16777215
176
     1
 90
        1
176
     1
 90
        4
176
     1
 62
     7
176
     1
 62
   257
176
     1
 90
        1
176
     1
 90
        1
176
     1
 40
1.0
176
     1
 90
       12
176
     1
 62
     7
176
     1
 40
1.0
176
     1
 90
        1
176
     1
 90
        6
176
     1
 90
        2
176
     1
 62
     7
176
     1
 90
        5
176
     1
 90
        0
176
     1
 90
        0
176
     1
290
     0
176
     1
 90
        1
176
     1
 40
0.0
176
     1
 90
        0
176
     1
290
     0
176
     1
290
     1
176
     1
290
     1
176
     1
290
     0
176
     1
290
     0
176
     1
290
     0
176
     1
290
     0
176
     1
290
     0
176
     1
290
     0
176
     1
 90
       50
176
     1
 40
0.0
176
     1
 40
1.0
176
     1
 90
        0
176
     1
 62
    18
420
        0
176
     1
 90
       50
176
     1
 90
        3
176
     1
 62
     5
420
      255
176
     1
290
     0
176
     1
 90
       50
176
     1
 90
       50
176
     1
 90
       50
176
     1
290
     0
176
     1
 90
       50
176
     1
 62
   256
176
     0
 40
1.0
176
     0
 90
        2
176
     1
  1
strokes_ogs.tif
176
     1
290
     0
176
     1
 40
1.0
176
     1
 40
1.0
176
     1
  0
VISUALSTYLE
  5
193
102
{ACAD_REACTORS
330
18D
102
}
330
18D
100
AcDbVisualStyle
  2
Wireframe
 70
     5
177
     3
291
     0
 70
    58
 90
        0
176
     1
 90
        2
176
     1
 90
        0
176
     1
 90
        0
176
     1
 40
0.6
176
     1
 40
30.0
176
     1
 62
     7
420
 16777215
176
     1
 90
        1
176
     1
 90
        4
176
     1
 62
     7
176
     1
 62
   257
176
     1
 90
        1
176
     1
 90
        1
176
     1
 40
1.0
176
     1
 90
        0
176
     1
 62
   257
176
     1
 40
1.0
176
     1
 90
        1
176
     1
 90
        6
176
     1
 90
        2
176
     1
 62
     7
176
     1
 90
        3
176
     1
 90
        0
176
     1
 90
        0
176
     1
290
     0
176
     1
 90
        1
176
     1
 40
0.0
176
     1
 90
        0
176
     1
290
     0
176
     1
290
     1
176
     1
290
     1
176
     1
290
     0
176
     1
290
     0
176
     1
290
     0
176
     1
290
     0
176
     1
290
     0
176
     1
290
     0
176
     1
 90
       50
176
     1
 40
0.0
176
     1
 40
1.0
176
     1
 90
        0
176
     1
 62
    18
420
        0
176
     1
 90
       50
176
     1
 90
        3
176
     1
 62
     5
420
      255
176
     1
290
     0
176
     1
 90
       50
176
     1
 90
       50
176
     1
 90
       50
176
     1
290
     0
176
     1
 90
       50
176
     1
 62
   256
176
     0
 40
1.0
176
     0
 90
        2
176
     1
  1
strokes_ogs.tif
176
     1
290
     0
176
     1
 40
1.0
176
     1
 40
1.0
176
     1
  0
VISUALSTYLE
  5
1A3
102
{ACAD_REACTORS
330
18D
102
}
330
18D
100
AcDbVisualStyle
  2
X-Ray
 70
    25
177
     3
291
     0
 70
    58
 90
        2
176
     1
 90
        2
176
     1
 90
        1
176
     1
 90
        1
176
     1
 40
0.5
176
     1
 40
30.0
176
     1
 62
     7
420
 16777215
176
     1
 90
        1
176
     1
 90
        0
176
     1
 62
     7
176
     1
 62
   257
176
     1
 90
        1
176
     1
 90
        1
176
     1
 40
1.0
176
     1
 90
        8
176
     1
 62
     7
176
     1
 40
1.0
176
     1
 90
        1
176
     1
 90
        6
176
     1
 90
        2
176
     1
 62
     7
176
     1
 90
        3
176
     1
 90
        0
176
     1
 90
        0
176
     1
290
     0
176
     1
 90
       13
176
     1
 40
0.0
176
     1
 90
        0
176
     1
290
     0
176
     1
290
     1
176
     1
290
     1
176
     1
290
     0
176
     1
290
     0
176
     1
290
     0
176
     1
290
     0
176
     1
290
     0
176
     1
290
     0
176
     1
 90
       50
176
     1
 40
0.0
176
     1
 40
1.0
176
     1
 90
        0
176
     1
 62
    18
420
        0
176
     1
 90
       50
176
     1
 90
        3
176
     1
 62
     5
420
      255
176
     1
290
     0
176
     1
 90
       50
176
     1
 90
       50
176
     1
 90
       50
176
     1
290
     0
176
     1
 90
       50
176
     1
 62
   256
176
     0
 40
1.0
176
     0
 90
        2
176
     1
  1
strokes_ogs.tif
176
     1
290
     0
176
     1
 40
1.0
176
     1
 40
1.0
176
     1
  0
DICTIONARYVAR
  5
1BE
102
{ACAD_REACTORS
330
1BD
102
}
330
1BD
100
DictionaryVariables
280
     0
  1
0
  0
CSACDOCUMENTOPTIONS
  5
1B3
102
{ACAD_REACTORS
330
1B2
102
}
330
1B2
  0
XRECORD
  5
1B7
102
{ACAD_REACTORS
330
1AC
102
}
330
1AC
100
AcDbXrecord
280
     1
300
MC_VERSION_DATA
 90
       95
310
0600000002000000570000001C000000E404000000000000000000007801936764E5D8CFFA9993818115C460606066E0646662626666706006F218793899F8DE3171E725E6E53B3BBA2878E6951050AF75FEFFFFFF520036E40F2657000000
  0
XRECORD
  5
1AD
102
{ACAD_REACTORS
330
1AC
102
}
330
1AC
100
AcDbXrecord
280
     1
300
MCS_DOCUMENT_ID
 90
       60
310
0600000002000000150000001C000000E404000000000000000000007801E3DDC7ADD97743BBDB678270EFB3998BBC0DFE03010063A10B3015000000
  0
XRECORD
  5
1B5
102
{ACAD_REACTORS
330
1AC
102
}
330
1AC
100
AcDbXrecord
280
     1
300
MCS_PARAMS_DATA
 90
     3313
310
0600000002000000F64B00001C000000E404000000000000000000007801C55C5B6C5CC519DE9D595FD6B9DF494B53970A1A6F4A58DF92A6426A1A1210527090E23EF0543976A2BA75E25CAC160A6DA92AF5A55255A96AD556551F4A49A0CF15A03EC0438190865E482021147221409310B6900B3826B1FB7F7366CEFC73E6
310
1CAFBDDE3D9B07D8FF3F73CEF7DFE6FB67E6ECBA757EA3143929F767A4FCCE8636299AA49C90529036BB402C105929F279912F89C6DEAF6FD8BC69AB14A46C51EAC2B9898909BA39945F872C1FCD848A834A91A13B1AD51D6D5266E8A9FAF627E9AABE92BD45CA6F03BD81A3CFC24D59D990C96408C7E066656E0232E13A03
310
14B0AB01724443F05CC3F08780DFC8F19B03FC710A073DC8486413411B49060E3311A05C24C45064703B01D7CCE196A818E5C59C9268B967CBD6DED68ED59DC52EEB78BEF08E09F8223D745649346F1DE9DB35D0B777C089FC5FC3C8EB60BF1A286CF47FE3467F17CC59C5CD990B0CD948C1A77FB9F5CA0E4F479188EA541E
310
3C25A2E22BC99C8892456878B2821857F6B05492C2AD881B41409C21325211340605C9C6DC6006EC49AC088A0CCBB25B1159B72248E415019155047D5453031360047082A7405D92B72AB0F03379693EAB50870260AC609E2C6F6510BB3D081DFE4EF5EFECD71494A7B3590EC7F12C5B25CB32539229914732934ECE22AF1D
310
D259AC8B7B7649E437DE7BDFA69EADF76EE95186E95A7ED74C032DBFA66A9BF1CEF341B19B78E45DDED9EF56FE29189043E4814BF734E1FF34659991678231F23A51010DA578E8294D435524988818E84710A7B2643B4F7C134F5CC6936D1E4176D01398C4D0A83AE0A6BDC86B0BB5C3E1E8299D70A5A945AC12322FE697C4
310
9C8DC3BBBE34D2BA77FBEEA1BEFEED79D15C120DF70F0FEE1A093EF60C8FF47F4BCAB3B0ED666EDB17F5733E2B445B5E2C298985C507BB8BEBBA3A3A3774178B1D777FA5B36B9D327BBE1ED84C030BC74C9EDAB5B64D88BC405AEF1E1CD9D73A34B88F70838775AD5DDBD1B9B6BBABBB73A0ABA37F5D7BE0E757F57D1DB80F
310
037BFBB60D6D6F1DDED1DA3B3CB47D6FDF2EF8A0AD5933506CEF2FF6F7ADD9D6B56D5DFF9A60D6A95222FF670B51F8295953F8455019945B7EE9315C7A8AFEC352DE9D4B4A5050256AA6D1B42D5F0C265BEED4473538E9811F770DEFDCDD3732B86D706870E4A1D69DC303E45F6349C807B6EFCB8B8692103DC352AE816545
310
9E9E798813B5E9A692C86DD9B1A355A5424F8E0BF018466AF90D150136590E2905AA568F782650907D5A7180140B84AD0159F8156902B8F63BDA8BE1A72E29AF48322EA98B5F578631B6F5489B26184C63434803DB221A328E6B58DEAED6DB808FEB6DC068BD0DF8A4DE065CABB7018B3045EB390B3EAD7704C6EA6DC07518
310
10B79C17773A0DB6C361F03BDD064B22C8C7303844629E5064B47323116EB9039777E096BB70247238880C6E39831B9F221C81B3E543C57019D4736C30574EE2DD4AD73B12B9771099772B997713E97A974DF4CECD5D9582B938116EC00926492C777A7F676A8F441E4C882C98032C983211AE26DE8974E196022EC7174366
310
F9AE62C95769E105B5C4B012E2E82ED8CD3516C5E34D519CF0D1F6765A8551C6CC0505130A3E8ABEC46EF81CED54DC1DA04AB7BC4DB0CA082453194AB29B82400C2B438BA6322032B88FE093B3E13470C11297490C8EEF78E88158D51A8AD42283A38F61044E78707A57F8BBDFE2DF2167F36975041D1DA7FCF59430C35792
310
05112533A905D5D3CAAB4759DBB4CA160F3E9309466F934A1794E7E1154C402D3088858048DCDF7EA3E7FECD5B7A7B376D5480CBF43A7E5E49CCBE6BEB37D945B2402FC65F52AB73B67E7F3A58AE93F37A04F6B7011D680556EBCCA2819BC8A21C320F385BBDB4EE56E6E32CE2CB18E358AD7676B4C7C096B1674BAF7B1278
310
1E906198B0DF8681EA696AF34D20563061CAB731C0DB01185B8B0DCA46538BD880EB0E2C6FC3120B40E62289BC162112587895C11513E18290E892090EBF46A9321968C513E0BB89A0AE8F2431B88A7DFC9E07A7BD0A8E668E3AF3CDEA083A3A8ECFB770A00AB53712018F2859D8DB3D93C2E4D422CB77A40BB73A5DB807A7
310
0857A5727AC8838BE45965D0D3D5B29CBEEF99145F4E558AC0C3E9C23D922EDC0FD285FBA107E7958EEDE721E98018A3E3AAC64E7F5C166D7ABA81B65C437BB31D766C74A6ED6E1FBC2766B7AFDAD87156F9771BF44A2A724C461AB43EE729AAFB710D63E2111810BBA3ABC9AE6037E09AB9BF3AB40BE8309F8736AB64CAB2
310
BE7E3364E5AC569CA6976081AF5A311628A8EF68C5B3A4609E3E86AC3AA156E3E83562F4B5A292099A878C61EB3B549CF92354989982613F016CE7AD5A4D09AA1F5126387AAD451EE384D9C035A925859E39C1AA865EE9A9B8DA21CEE289167F7CF1D4C4BC7A125EC5AED5D8BB0B5A9D9144D134CFA71BF85A8D44BE568348
310
F6AA55A2F3CAEACF6982FD29118CC249D3CBF852A586F278BA70FBD3853B90085793EDE51E143F0AD06C6B4CB2242BDDBDD1419166C2865E85F9CE1648F3CBF54B2E655D5432557AB8C599EEE6E763403914E55050D879E2BFFA30F366F009F0CB378371CA9B99D05949929DD07465EA8797A3808B6B06B9536E64AF9C844C
310
903AF2F3709D3783A318A078E4F37AEBBCEC2DD1B228B722F785DC2DB9D64C476675A63353CC74E937B1FA39BFA7DB58A6AFC19E49583A4A9B6110A6BA038D3C80418F79D091B18A763C1D8524AA5361F194EC4CC4B23EDBA3192533E95398E41423EB6DCA1C239B4DBF91D13F6D762A6897D7013D496371DC8BECCAA7D45E
310
0C251095ABC98AA38E1B6540CD3DACF829EF15C38D27C2B92DA64A071D13897001094F16523EC1C9E5A99FF465029665AB5B13C49AF8984D174EA40B273D389D33BB29A272F6749622C2719C22AC925104534E7A8CF33714555C6B3CF3BE4BE0AF28994CA9B8353E0F28878DD26D8D2F007FBAAD11BD305CEB4EAB35BE08B8
310
B8D678FEB81BD9134AB6ADF10A644BBEF9C2334A81E4EAA6772450D87DD2AF49C178F020A0EBD3055FF292CC5B8AB3FC4114C86BA708ACDB15F49C43C04EBBE7FCBD0CA8A1CB2AF59CC3897035E1E39713E16AD873FE91085A131FFF19C04DBEDBF8D75406FD3B3A2842E56C8ABE82A171BC3BF89ECB0E0F287926BC7B0450
310
75E4DDA3C09F2EEF56BE2579157071BCBBE7881BD93E255BDE7D04B225A07C61BD5230DE1DBA8C1158736B225E412358525F03747D78F79897E472BCCBAF5BAF2BA0DDE3804E9B765F2F035A65DA3D910857134A7A2311AE52DA8D6E0E9C1341735A873DD47F12A16BE2E99BE9C275792B70532835F1AEDB838B7404B509F7
310
74C449519D9AA19EB28205FF5B08785CE3F9307262735AC933693C270155C7C6730AF8E9359ED3808B6B3CA387DDC6734EC9B6F1C897238DE72006D89713F9C2E58B91C6F3388D608DE70CA0A7DA7866D30F8008DC16BEAA2D26A2AAB848F4108A0CF46D0F54D7A73989E2C56D75B6B8431D2F6EAB64C5CD94644C04869974
310
1626C5B6A280378D1BEE62BCE2C3917700E714386FAA719B1D7E7D464DF7DD444F8317374E8CAA75BEF65E19D0F8F0523EC21D7470DCC60B8CAEF29753FC38EF4760CFDBF99B4673F680D0869F6742513F06849341B61DF57EE3400A02734628D75C0DBC8B68A868B98655ECA330208EA3C6F1B52E3DF1E8849E2433679564
310
431A886148B568E62C4406F75F64308EFD2F9D7039EA6D259B5B2BF91AD8396F72B01004EFC5CD6C88F911E8CCDF849C077E5C64E9488747967101058B73015D99FA9B900B808B63FFB117DCC85E50324556799F2F34BC086EC70CD18A4318C0D9FF2AB6807CDB718046B0A4BE0FE8B4D9FFA207EA504E3D7E65FA014C7226
310
B329B0E8D703AAFEBAA304E869379E693123CD68457958A4FF2F11AE86ECFF6119D078F6E7138AD87FF2370F86D6E1E34789702D76FED2134932CCA824CB8C811832A3160D33426421BD940847AF6F0C11D33DEECB1CFE9B7175D1F926045DE5BD8DBFBDBE9C081764D0049324E6DDB40A8607F34A225C4D16463974B5B836
310
F3B3A32E193EACE499B49986C93A780A6DA631A981D7A6CD34012EAECDFCF23937B23F51B26D337F80CCDBCC36A5C0ECD07DE7E7A7236D663D8D6033A419D0536D33E07F56B8C4CA7C0D48229F9610695A461A0883CE7B494E8DD95B004DF38E8247AB09FE45AC1A52EDAC32A0861DD8DA85D8A76276989D08579353913989
310
700119397510D9BB4CAB9DF096393711B4263ECE4B176E7EBA700B3C389DB3F0B5335AA6A7234288EA142D784A9083AFB414616018456CF64C3293C4CD2F49D3E5A5F0410CEE3E0F2E6A6FEA11580893E29AEE529C2FC11C4DF48D4AA628982DB44A422820F8563073C8F989CF2240392BED74F7768B819FDEDE6E09E0E29A
310
EE0AFA030B3CB273954C91D5916E83CC9BEE074FAB1E6B73B11CFB6CBEB73B4C23589D2D05F4CC9AAE2E4C768646F0614DBB4BD40606BDCC4B726A4DF72640A7DD749797013521AB4ED3C5971C1BF2225712D922FD192CAA82F186C253F467B664EED8B163100EA1787299890C1D4314EEF90B040C236113FD72905624B8F0
310
99FF03A92412CEF64B0000
  0
DICTIONARY
  5
1B9
330
1B1
100
AcDbDictionary
280
     1
281
     1
  3
ACAD_ROUNDTRIP_2008_TABLESTYLE_CELLSTYLEMAP
360
1BA
  0
CELLSTYLEMAP
  5
1BA
102
{ACAD_REACTORS
330
1B9
102
}
330
1B9
100
AcDbCellStyleMap
 90
        3
300
CELLSTYLE
  1
TABLEFORMAT_BEGIN
 90
        5
170
     1
 91
        0
 92
        0
 62
   257
 93
        1
300
CONTENTFORMAT
  1
CONTENTFORMAT_BEGIN
 90
        0
 91
        0
 92
        4
 93
        0
300

 40
0.0
140
1.0
 94
        5
 62
     0
340
11
144
6.0
309
CONTENTFORMAT_END
171
     1
301
MARGIN
  1
CELLMARGIN_BEGIN
 40
1.5
 40
1.5
 40
1.5
 40
1.5
 40
4.5
 40
4.5
309
CELLMARGIN_END
 94
        6
 95
        1
302
GRIDFORMAT
  1
GRIDFORMAT_BEGIN
 90
        0
 91
        1
 62
     0
 92
       -2
340
14
 93
        0
 40
1.125
309
GRIDFORMAT_END
 95
        2
302
GRIDFORMAT
  1
GRIDFORMAT_BEGIN
 90
        0
 91
        1
 62
     0
 92
       -2
340
14
 93
        0
 40
1.125
309
GRIDFORMAT_END
 95
        4
302
GRIDFORMAT
  1
GRIDFORMAT_BEGIN
 90
        0
 91
        1
 62
     0
 92
       -2
340
14
 93
        0
 40
1.125
309
GRIDFORMAT_END
 95
        8
302
GRIDFORMAT
  1
GRIDFORMAT_BEGIN
 90
        0
 91
        1
 62
     0
 92
       -2
340
14
 93
        0
 40
1.125
309
GRIDFORMAT_END
 95
       16
302
GRIDFORMAT
  1
GRIDFORMAT_BEGIN
 90
        0
 91
        1
 62
     0
 92
       -2
340
14
 93
        0
 40
1.125
309
GRIDFORMAT_END
 95
       32
302
GRIDFORMAT
  1
GRIDFORMAT_BEGIN
 90
        0
 91
        1
 62
     0
 92
       -2
340
14
 93
        0
 40
1.125
309
GRIDFORMAT_END
309
TABLEFORMAT_END
  1
CELLSTYLE_BEGIN
 90
        1
 91
        1
300
_TITLE
309
CELLSTYLE_END
300
CELLSTYLE
  1
TABLEFORMAT_BEGIN
 90
        5
170
     1
 91
        0
 92
        0
 62
   257
 93
        1
300
CONTENTFORMAT
  1
CONTENTFORMAT_BEGIN
 90
        0
 91
        0
 92
        4
 93
        0
300

 40
0.0
140
1.0
 94
        5
 62
     0
340
11
144
4.5
309
CONTENTFORMAT_END
171
     1
301
MARGIN
  1
CELLMARGIN_BEGIN
 40
1.5
 40
1.5
 40
1.5
 40
1.5
 40
4.5
 40
4.5
309
CELLMARGIN_END
 94
        6
 95
        1
302
GRIDFORMAT
  1
GRIDFORMAT_BEGIN
 90
        0
 91
        1
 62
     0
 92
       -2
340
14
 93
        0
 40
1.125
309
GRIDFORMAT_END
 95
        2
302
GRIDFORMAT
  1
GRIDFORMAT_BEGIN
 90
        0
 91
        1
 62
     0
 92
       -2
340
14
 93
        0
 40
1.125
309
GRIDFORMAT_END
 95
        4
302
GRIDFORMAT
  1
GRIDFORMAT_BEGIN
 90
        0
 91
        1
 62
     0
 92
       -2
340
14
 93
        0
 40
1.125
309
GRIDFORMAT_END
 95
        8
302
GRIDFORMAT
  1
GRIDFORMAT_BEGIN
 90
        0
 91
        1
 62
     0
 92
       -2
340
14
 93
        0
 40
1.125
309
GRIDFORMAT_END
 95
       16
302
GRIDFORMAT
  1
GRIDFORMAT_BEGIN
 90
        0
 91
        1
 62
     0
 92
       -2
340
14
 93
        0
 40
1.125
309
GRIDFORMAT_END
 95
       32
302
GRIDFORMAT
  1
GRIDFORMAT_BEGIN
 90
        0
 91
        1
 62
     0
 92
       -2
340
14
 93
        0
 40
1.125
309
GRIDFORMAT_END
309
TABLEFORMAT_END
  1
CELLSTYLE_BEGIN
 90
        2
 91
        1
300
_HEADER
309
CELLSTYLE_END
300
CELLSTYLE
  1
TABLEFORMAT_BEGIN
 90
        5
170
     1
 91
        0
 92
        0
 62
   257
 93
        1
300
CONTENTFORMAT
  1
CONTENTFORMAT_BEGIN
 90
        0
 91
        0
 92
        4
 93
        0
300

 40
0.0
140
1.0
 94
        2
 62
     0
340
11
144
4.5
309
CONTENTFORMAT_END
171
     1
301
MARGIN
  1
CELLMARGIN_BEGIN
 40
1.5
 40
1.5
 40
1.5
 40
1.5
 40
4.5
 40
4.5
309
CELLMARGIN_END
 94
        6
 95
        1
302
GRIDFORMAT
  1
GRIDFORMAT_BEGIN
 90
        0
 91
        1
 62
     0
 92
       -2
340
14
 93
        0
 40
1.125
309
GRIDFORMAT_END
 95
        2
302
GRIDFORMAT
  1
GRIDFORMAT_BEGIN
 90
        0
 91
        1
 62
     0
 92
       -2
340
14
 93
        0
 40
1.125
309
GRIDFORMAT_END
 95
        4
302
GRIDFORMAT
  1
GRIDFORMAT_BEGIN
 90
        0
 91
        1
 62
     0
 92
       -2
340
14
 93
        0
 40
1.125
309
GRIDFORMAT_END
 95
        8
302
GRIDFORMAT
  1
GRIDFORMAT_BEGIN
 90
        0
 91
        1
 62
     0
 92
       -2
340
14
 93
        0
 40
1.125
309
GRIDFORMAT_END
 95
       16
302
GRIDFORMAT
  1
GRIDFORMAT_BEGIN
 90
        0
 91
        1
 62
     0
 92
       -2
340
14
 93
        0
 40
1.125
309
GRIDFORMAT_END
 95
       32
302
GRIDFORMAT
  1
GRIDFORMAT_BEGIN
 90
        0
 91
        1
 62
     0
 92
       -2
340
14
 93
        0
 40
1.125
309
GRIDFORMAT_END
309
TABLEFORMAT_END
  1
CELLSTYLE_BEGIN
 90
        3
 91
        2
300
_DATA
309
CELLSTYLE_END
  0
ENDSEC
  0
EOF
