  0
SECTION
  2
HEADER
  9
$ACADVER
  1
AC1027
  9
$ACADMAINTVER
 70
     8
  9
$DWGCODEPAGE
  3
ANSI_1252
  9
$REQUIREDVERSIONS
160
                 0
  9
$LASTSAVEDBY
  1
maika.huard
  9
$INSBASE
 10
0.0
 20
0.0
 30
0.0
  9
$EXTMIN
 10
0.0
 20
0.0
 30
0.0
  9
$EXTMAX
 10
279.4
 20
215.9
 30
0.0
  9
$LIMMIN
 10
0.0
 20
0.0
  9
$LIMMAX
 10
279.4
 20
215.9
  9
$ORTHOMODE
 70
     0
  9
$REGENMODE
 70
     1
  9
$FILLMODE
 70
     1
  9
$QTEXTMODE
 70
     0
  9
$MIRRTEXT
 70
     1
  9
$LTSCALE
 40
1.0
  9
$ATTMODE
 70
     1
  9
$TEXTSIZE
 40
3.175
  9
$TRACEWID
 40
1.0
  9
$TEXTSTYLE
  7
Standard
  9
$CLAYER
  8
0
  9
$CELTYPE
  6
ByLayer
  9
$CECOLOR
 62
   256
  9
$CELTSCALE
 40
1.0
  9
$DISPSILH
 70
     0
  9
$DIMSCALE
 40
1.0
  9
$DIMASZ
 40
3.302
  9
$DIMEXO
 40
1.27
  9
$DIMDLI
 40
3.75
  9
$DIMRND
 40
0.0
  9
$DIMDLE
 40
0.0
  9
$DIMEXE
 40
1.0
  9
$DIMTP
 40
0.0
  9
$DIMTM
 40
0.0
  9
$DIMTXT
 40
3.175
  9
$DIMCEN
 40
2.5
  9
$DIMTSZ
 40
0.0
  9
$DIMTOL
 70
     0
  9
$DIMLIM
 70
     0
  9
$DIMTIH
 70
     1
  9
$DIMTOH
 70
     1
  9
$DIMSE1
 70
     0
  9
$DIMSE2
 70
     0
  9
$DIMTAD
 70
     0
  9
$DIMZIN
 70
     0
  9
$DIMBLK
  1

  9
$DIMASO
 70
     1
  9
$DIMSHO
 70
     1
  9
$DIMPOST
  1

  9
$DIMAPOST
  1

  9
$DIMALT
 70
     0
  9
$DIMALTD
 70
     3
  9
$DIMALTF
 40
0.03937
  9
$DIMLFAC
 40
24.0
  9
$DIMTOFL
 70
     1
  9
$DIMTVP
 40
0.0
  9
$DIMTIX
 70
     0
  9
$DIMSOXD
 70
     0
  9
$DIMSAH
 70
     0
  9
$DIMBLK1
  1

  9
$DIMBLK2
  1

  9
$DIMSTYLE
  2
ISO-25
  9
$DIMCLRD
 70
     0
  9
$DIMCLRE
 70
     0
  9
$DIMCLRT
 70
     0
  9
$DIMTFAC
 40
1.0
  9
$DIMGAP
 40
1.524
  9
$DIMJUST
 70
     0
  9
$DIMSD1
 70
     0
  9
$DIMSD2
 70
     0
  9
$DIMTOLJ
 70
     0
  9
$DIMTZIN
 70
     0
  9
$DIMALTZ
 70
     0
  9
$DIMALTTZ
 70
     0
  9
$DIMUPT
 70
     0
  9
$DIMDEC
 70
     0
  9
$DIMTDEC
 70
     0
  9
$DIMALTU
 70
     2
  9
$DIMALTTD
 70
     3
  9
$DIMTXSTY
  7
Standard
  9
$DIMAUNIT
 70
     0
  9
$DIMADEC
 70
     1
  9
$DIMALTRND
 40
0.0
  9
$DIMAZIN
 70
     0
  9
$DIMDSEP
 70
    44
  9
$DIMATFIT
 70
     3
  9
$DIMFRAC
 70
     0
  9
$DIMLDRBLK
  1

  9
$DIMLUNIT
 70
     2
  9
$DIMLWD
 70
    -2
  9
$DIMLWE
 70
    -2
  9
$DIMTMOVE
 70
     0
  9
$DIMFXL
 40
1.0
  9
$DIMFXLON
 70
     0
  9
$DIMJOGANG
 40
0.785398
  9
$DIMTFILL
 70
     0
  9
$DIMTFILLCLR
 70
     0
  9
$DIMARCSYM
 70
     0
  9
$DIMLTYPE
  6

  9
$DIMLTEX1
  6

  9
$DIMLTEX2
  6

  9
$DIMTXTDIRECTION
 70
     0
  9
$LUNITS
 70
     2
  9
$LUPREC
 70
     0
  9
$SKETCHINC
 40
1.0
  9
$FILLETRAD
 40
0.0
  9
$AUNITS
 70
     0
  9
$AUPREC
 70
     1
  9
$MENU
  1
.
  9
$ELEVATION
 40
0.0
  9
$PELEVATION
 40
0.0
  9
$THICKNESS
 40
0.0
  9
$LIMCHECK
 70
     0
  9
$CHAMFERA
 40
0.0
  9
$CHAMFERB
 40
0.0
  9
$CHAMFERC
 40
0.0
  9
$CHAMFERD
 40
0.0
  9
$SKPOLY
 70
     0
  9
$TDCREATE
 40
2460516.431684977
  9
$TDUCREATE
 40
2460516.598351643
  9
$TDUPDATE
 40
2460521.406558958
  9
$TDUUPDATE
 40
2460521.573225625
  9
$TDINDWG
 40
0.0000000116
  9
$TDUSRTIMER
 40
0.0000000116
  9
$USRTIMER
 70
     1
  9
$ANGBASE
 50
0.0
  9
$ANGDIR
 70
     0
  9
$PDMODE
 70
     0
  9
$PDSIZE
 40
-1.0
  9
$PLINEWID
 40
0.0
  9
$SPLFRAME
 70
     0
  9
$SPLINETYPE
 70
     6
  9
$SPLINESEGS
 70
     8
  9
$HANDSEED
  5
1C1
  9
$SURFTAB1
 70
     6
  9
$SURFTAB2
 70
     6
  9
$SURFTYPE
 70
     6
  9
$SURFU
 70
     6
  9
$SURFV
 70
     6
  9
$UCSBASE
  2

  9
$UCSNAME
  2

  9
$UCSORG
 10
0.0
 20
0.0
 30
0.0
  9
$UCSXDIR
 10
1.0
 20
0.0
 30
0.0
  9
$UCSYDIR
 10
0.0
 20
1.0
 30
0.0
  9
$UCSORTHOREF
  2

  9
$UCSORTHOVIEW
 70
     0
  9
$UCSORGTOP
 10
0.0
 20
0.0
 30
0.0
  9
$UCSORGBOTTOM
 10
0.0
 20
0.0
 30
0.0
  9
$UCSORGLEFT
 10
0.0
 20
0.0
 30
0.0
  9
$UCSORGRIGHT
 10
0.0
 20
0.0
 30
0.0
  9
$UCSORGFRONT
 10
0.0
 20
0.0
 30
0.0
  9
$UCSORGBACK
 10
0.0
 20
0.0
 30
0.0
  9
$PUCSBASE
  2

  9
$PUCSNAME
  2

  9
$PUCSORG
 10
0.0
 20
0.0
 30
0.0
  9
$PUCSXDIR
 10
1.0
 20
0.0
 30
0.0
  9
$PUCSYDIR
 10
0.0
 20
1.0
 30
0.0
  9
$PUCSORTHOREF
  2

  9
$PUCSORTHOVIEW
 70
     0
  9
$PUCSORGTOP
 10
0.0
 20
0.0
 30
0.0
  9
$PUCSORGBOTTOM
 10
0.0
 20
0.0
 30
0.0
  9
$PUCSORGLEFT
 10
0.0
 20
0.0
 30
0.0
  9
$PUCSORGRIGHT
 10
0.0
 20
0.0
 30
0.0
  9
$PUCSORGFRONT
 10
0.0
 20
0.0
 30
0.0
  9
$PUCSORGBACK
 10
0.0
 20
0.0
 30
0.0
  9
$USERI1
 70
     0
  9
$USERI2
 70
     0
  9
$USERI3
 70
     0
  9
$USERI4
 70
     0
  9
$USERI5
 70
     0
  9
$USERR1
 40
0.0
  9
$USERR2
 40
0.0
  9
$USERR3
 40
0.0
  9
$USERR4
 40
0.0
  9
$USERR5
 40
0.0
  9
$WORLDVIEW
 70
     1
  9
$SHADEDGE
 70
     3
  9
$SHADEDIF
 70
    70
  9
$TILEMODE
 70
     1
  9
$MAXACTVP
 70
    64
  9
$PINSBASE
 10
0.0
 20
0.0
 30
0.0
  9
$PLIMCHECK
 70
     0
  9
$PEXTMIN
 10
1.000000E+20
 20
1.000000E+20
 30
1.000000E+20
  9
$PEXTMAX
 10
-1.000000E+20
 20
-1.000000E+20
 30
-1.000000E+20
  9
$PLIMMIN
 10
0.0
 20
0.0
  9
$PLIMMAX
 10
420.0
 20
297.0
  9
$UNITMODE
 70
     0
  9
$VISRETAIN
 70
     1
  9
$PLINEGEN
 70
     0
  9
$PSLTSCALE
 70
     0
  9
$TREEDEPTH
 70
  3020
  9
$CMLSTYLE
  2
Standard
  9
$CMLJUST
 70
     0
  9
$CMLSCALE
 40
20.0
  9
$PROXYGRAPHICS
 70
     1
  9
$MEASUREMENT
 70
     1
  9
$CELWEIGHT
370
    -1
  9
$ENDCAPS
280
     0
  9
$JOINSTYLE
280
     0
  9
$LWDISPLAY
290
     1
  9
$INSUNITS
 70
     4
  9
$HYPERLINKBASE
  1

  9
$STYLESHEET
  1

  9
$XEDIT
290
     1
  9
$CEPSNTYPE
380
     0
  9
$PSTYLEMODE
290
     1
  9
$FINGERPRINTGUID
  2
{45b28233-f93c-46a7-83e4-9ea4c4563b17}
  9
$VERSIONGUID
  2
{FAEB1C32-E019-11D5-929B-00C0DF256EC4}
  9
$EXTNAMES
290
     1
  9
$PSVPSCALE
 40
0.0
  9
$OLESTARTUP
290
     0
  9
$SORTENTS
280
   127
  9
$INDEXCTL
280
     0
  9
$HIDETEXT
280
     1
  9
$XCLIPFRAME
280
     2
  9
$HALOGAP
280
     0
  9
$OBSCOLOR
 70
   257
  9
$OBSLTYPE
280
     0
  9
$INTERSECTIONDISPLAY
280
     0
  9
$INTERSECTIONCOLOR
 70
   257
  9
$DIMASSOC
280
     2
  9
$PROJECTNAME
  1

  9
$CAMERADISPLAY
290
     0
  9
$LENSLENGTH
 40
50.0
  9
$CAMERAHEIGHT
 40
0.0
  9
$STEPSPERSEC
 40
2.0
  9
$STEPSIZE
 40
6.0
  9
$3DDWFPREC
 40
2.0
  9
$PSOLWIDTH
 40
0.25
  9
$PSOLHEIGHT
 40
4.0
  9
$LOFTANG1
 40
1.570796
  9
$LOFTANG2
 40
1.570796
  9
$LOFTMAG1
 40
0.0
  9
$LOFTMAG2
 40
0.0
  9
$LOFTPARAM
 70
     7
  9
$LOFTNORMALS
280
     1
  9
$LATITUDE
 40
37.795
  9
$LONGITUDE
 40
-122.394
  9
$NORTHDIRECTION
 40
0.0
  9
$TIMEZONE
 70
 -8000
  9
$LIGHTGLYPHDISPLAY
280
     1
  9
$TILEMODELIGHTSYNCH
280
     1
  9
$SOLIDHIST
280
     1
  9
$SHOWHIST
280
     1
  9
$DWFFRAME
280
     2
  9
$DGNFRAME
280
     2
  9
$REALWORLDSCALE
290
     1
  9
$INTERFERECOLOR
 62
   256
  9
$CSHADOW
280
     0
  9
$SHADOWPLANELOCATION
 40
0.0
  0
ENDSEC
  0
SECTION
  2
CLASSES
  0
CLASS
  1
ACDBDICTIONARYWDFLT
  2
AcDbDictionaryWithDefault
  3
ObjectDBX Classes
 90
        0
 91
        6
280
     0
281
     0
  0
CLASS
  1
VISUALSTYLE
  2
AcDbVisualStyle
  3
ObjectDBX Classes
 90
     4095
 91
        5
280
     0
281
     0
  0
CLASS
  1
MATERIAL
  2
AcDbMaterial
  3
ObjectDBX Classes
 90
     1153
 91
        5
280
     0
281
     0
  0
CLASS
  1
SCALE
  2
AcDbScale
  3
ObjectDBX Classes
 90
     1153
 91
        5
280
     0
281
     0
  0
CLASS
  1
TABLESTYLE
  2
AcDbTableStyle
  3
ObjectDBX Classes
 90
     4095
 91
        5
280
     0
281
     0
  0
CLASS
  1
MLEADERSTYLE
  2
AcDbMLeaderStyle
  3
ACDB_MLEADERSTYLE_CLASS
 90
     4095
 91
        4
280
     0
281
     0
  0
CLASS
  1
SUN
  2
AcDbSun
  3
SCENEOE
 90
     1153
 91
        5
280
     0
281
     0
  0
CLASS
  1
ACDBPLACEHOLDER
  2
AcDbPlaceHolder
  3
ObjectDBX Classes
 90
        0
 91
        1
280
     0
281
     0
  0
CLASS
  1
LAYOUT
  2
AcDbLayout
  3
ObjectDBX Classes
 90
        0
 91
        1
280
     0
281
     0
  0
CLASS
  1
CSACDOCUMENTOPTIONS
  2
CDocDataContainer
  3
"DERU003_CSAPP"
 90
     4095
 91
        4
280
     0
281
     0
  0
CLASS
  1
CELLSTYLEMAP
  2
AcDbCellStyleMap
  3
ObjectDBX Classes
 90
     1152
 91
        4
280
     0
281
     0
  0
CLASS
  1
DICTIONARYVAR
  2
AcDbDictionaryVar
  3
ObjectDBX Classes
 90
        0
 91
        4
280
     0
281
     0
  0
ENDSEC
  0
SECTION
  2
TABLES
  0
TABLE
  2
VPORT
  5
8
330
0
100
AcDbSymbolTable
 70
     1
  0
VPORT
  5
29
330
8
100
AcDbSymbolTableRecord
100
AcDbViewportTableRecord
  2
*Active
 70
     0
 10
0.0
 20
0.0
 11
1.0
 21
1.0
 12
154.426681
 22
108.412349
 13
0.0
 23
0.0
 14
10.0
 24
10.0
 15
10.0
 25
10.0
 16
0.0
 26
0.0
 36
1.0
 17
0.0
 27
0.0
 37
0.0
 40
485.775
 41
2.019036
 42
50.0
 43
0.0
 44
0.0
 50
0.0
 51
0.0
 71
    16
 72
  2000
 73
     1
 74
     3
 75
     0
 76
     0
 77
     0
 78
     0
281
     0
 65
     1
110
0.0
120
0.0
130
0.0
111
1.0
121
0.0
131
0.0
112
0.0
122
1.0
132
0.0
 79
     0
146
0.0
 60
     3
 61
     5
292
     1
282
     1
141
0.0
142
0.0
 63
   256
361
1AF
  0
ENDTAB
  0
TABLE
  2
LTYPE
  5
5
330
0
100
AcDbSymbolTable
 70
     6
  0
LTYPE
  5
14
330
5
100
AcDbSymbolTableRecord
100
AcDbLinetypeTableRecord
  2
ByBlock
 70
     0
  3

 72
    65
 73
     0
 40
0.0
  0
LTYPE
  5
15
330
5
100
AcDbSymbolTableRecord
100
AcDbLinetypeTableRecord
  2
ByLayer
 70
     0
  3

 72
    65
 73
     0
 40
0.0
  0
LTYPE
  5
16
330
5
100
AcDbSymbolTableRecord
100
AcDbLinetypeTableRecord
  2
Continuous
 70
     0
  3
Solid line
 72
    65
 73
     0
 40
0.0
  0
LTYPE
  5
5E
330
5
100
AcDbSymbolTableRecord
100
AcDbLinetypeTableRecord
  2
HIDDEN
 70
     0
  3
Hidden __ __ __ __ __ __ __ __ __ __ __ __ __ __
 72
    65
 73
     2
 40
1.905
 49
1.27
 74
     0
 49
-0.635
 74
     0
  0
LTYPE
  5
5F
330
5
100
AcDbSymbolTableRecord
100
AcDbLinetypeTableRecord
  2
PHANTOM
 70
     0
  3
Phantom ______  __  __  ______  __  __  ______
 72
    65
 73
     6
 40
12.7
 49
6.35
 74
     0
 49
-1.27
 74
     0
 49
1.27
 74
     0
 49
-1.27
 74
     0
 49
1.27
 74
     0
 49
-1.27
 74
     0
  0
LTYPE
  5
60
330
5
100
AcDbSymbolTableRecord
100
AcDbLinetypeTableRecord
  2
CENTER
 70
     0
  3
Center ____ _ ____ _ ____ _ ____ _ ____ _ ____
 72
    65
 73
     4
 40
10.16
 49
6.35
 74
     0
 49
-1.27
 74
     0
 49
1.27
 74
     0
 49
-1.27
 74
     0
  0
LTYPE
  5
61
330
5
100
AcDbSymbolTableRecord
100
AcDbLinetypeTableRecord
  2
CENTERX2
 70
     0
  3
Center (2x) ________  __  ________  __  _____
 72
    65
 73
     4
 40
20.32
 49
12.7
 74
     0
 49
-2.54
 74
     0
 49
2.54
 74
     0
 49
-2.54
 74
     0
  0
LTYPE
  5
62
330
5
100
AcDbSymbolTableRecord
100
AcDbLinetypeTableRecord
  2
DOT2
 70
     0
  3
Dot (.5x) ........................................
 72
    65
 73
     2
 40
0.635
 49
0.0
 74
     0
 49
-0.635
 74
     0
  0
ENDTAB
  0
TABLE
  2
LAYER
  5
2
330
0
100
AcDbSymbolTable
 70
     2
  0
LAYER
  5
10
330
2
100
AcDbSymbolTableRecord
100
AcDbLayerTableRecord
  2
0
 70
     0
 62
     7
  6
Continuous
370
    -3
390
F
347
1A9
348
0
  0
LAYER
  5
63
330
2
100
AcDbSymbolTableRecord
100
AcDbLayerTableRecord
  2
FORMAT
 70
     0
 62
     7
  6
Continuous
370
    -3
390
F
347
1A9
348
0
  0
ENDTAB
  0
TABLE
  2
STYLE
  5
3
330
0
100
AcDbSymbolTable
 70
     4
  0
STYLE
  5
11
330
3
100
AcDbSymbolTableRecord
100
AcDbTextStyleTableRecord
  2
Standard
 70
     0
 40
0.0
 41
1.0
 50
0.0
 71
     0
 42
3.175
  3
txt
  4

  0
STYLE
  5
87
330
3
100
AcDbSymbolTableRecord
100
AcDbTextStyleTableRecord
  2
SLDTEXTSTYLE0
 70
     0
 40
0.0
 41
0.605
 50
0.0
 71
     0
 42
3.175
  3
TXT
  4

  0
STYLE
  5
99
330
3
100
AcDbSymbolTableRecord
100
AcDbTextStyleTableRecord
  2
SLDTEXTSTYLE1
 70
     0
 40
0.0
 41
0.75
 50
0.0
 71
     0
 42
3.175
  3
TXT
  4

  0
STYLE
  5
A7
330
3
100
AcDbSymbolTableRecord
100
AcDbTextStyleTableRecord
  2
SLDTEXTSTYLE2
 70
     0
 40
0.0
 41
0.696429
 50
0.0
 71
     0
 42
3.175
  3
TXT
  4

  0
ENDTAB
  0
TABLE
  2
VIEW
  5
6
330
0
100
AcDbSymbolTable
 70
     0
  0
ENDTAB
  0
TABLE
  2
UCS
  5
7
330
0
100
AcDbSymbolTable
 70
     0
  0
ENDTAB
  0
TABLE
  2
APPID
  5
9
330
0
100
AcDbSymbolTable
 70
     6
  0
APPID
  5
12
330
9
100
AcDbSymbolTableRecord
100
AcDbRegAppTableRecord
  2
ACAD
 70
     0
  0
APPID
  5
1AA
330
9
100
AcDbSymbolTableRecord
100
AcDbRegAppTableRecord
  2
MCS_DIM1
 70
     0
  0
APPID
  5
1AB
330
9
100
AcDbSymbolTableRecord
100
AcDbRegAppTableRecord
  2
McsXdata5
 70
     0
  0
APPID
  5
1AE
330
9
100
AcDbSymbolTableRecord
100
AcDbRegAppTableRecord
  2
MCS_DOCUMENT_ID
 70
     0
  0
APPID
  5
1B6
330
9
100
AcDbSymbolTableRecord
100
AcDbRegAppTableRecord
  2
MCS_PARAMS_DATA
 70
     0
  0
APPID
  5
1B8
330
9
100
AcDbSymbolTableRecord
100
AcDbRegAppTableRecord
  2
MC_VERSION_DATA
 70
     0
  0
ENDTAB
  0
TABLE
  2
DIMSTYLE
  5
A
330
0
100
AcDbSymbolTable
 70
     4
100
AcDbDimStyleTable
  0
DIMSTYLE
105
27
330
A
100
AcDbSymbolTableRecord
100
AcDbDimStyleTableRecord
  2
ISO-25
 70
     0
 41
2.5
 42
0.625
 43
3.75
 44
1.25
 73
     0
 74
     0
 77
     1
 78
     8
140
2.5
141
2.5
143
0.03937
147
0.625
171
     3
172
     1
178
     0
271
     2
272
     2
274
     3
278
    44
283
     0
284
     8
340
11
  0
DIMSTYLE
105
E3
330
A
100
AcDbSymbolTableRecord
100
AcDbDimStyleTableRecord
  2
SLDDIMSTYLE0
 70
     0
 41
3.302
 44
0.0
 45
0.0
 78
    12
 79
     3
140
2.311487
143
0.03937
144
8.0
147
0.577872
148
0.0
170
     1
171
     3
172
     1
173
     1
178
     0
271
     0
272
     0
274
     3
276
     2
284
    12
289
     0
340
87
  0
DIMSTYLE
105
F1
330
A
100
AcDbSymbolTableRecord
100
AcDbDimStyleTableRecord
  2
SLDDIMSTYLE1
 70
     0
 41
3.302
 44
0.0
 45
0.0
 78
    12
 79
     3
140
2.311487
143
0.03937
144
8.0
147
0.577872
148
0.0
170
     1
171
     3
173
     1
178
     0
271
     0
272
     0
274
     3
276
     2
284
    12
340
87
  0
DIMSTYLE
105
116
330
A
100
AcDbSymbolTableRecord
100
AcDbDimStyleTableRecord
  2
SLDDIMSTYLE2
 70
     0
 41
3.302
 44
0.0
 45
0.0
146
3.302
147
0.0
173
     1
178
     0
271
     0
272
     0
276
     2
340
11
  0
ENDTAB
  0
TABLE
  2
BLOCK_RECORD
  5
1
330
0
100
AcDbSymbolTable
 70
     5
  0
BLOCK_RECORD
  5
1F
330
1
100
AcDbSymbolTableRecord
100
AcDbBlockTableRecord
  2
*Model_Space
340
22
 70
     0
280
     1
281
     0
  0
BLOCK_RECORD
  5
1B
330
1
100
AcDbSymbolTableRecord
100
AcDbBlockTableRecord
  2
*Paper_Space
340
1E
 70
     0
280
     1
281
     0
  0
BLOCK_RECORD
  5
23
330
1
100
AcDbSymbolTableRecord
100
AcDbBlockTableRecord
  2
*Paper_Space0
340
26
 70
     0
280
     1
281
     0
  0
BLOCK_RECORD
  5
B9
330
1
100
AcDbSymbolTableRecord
100
AcDbBlockTableRecord
  2
SW_BROKEN_VIEW_0
340
0
102
{BLKREFS
331
0
102
}
 70
     0
280
     1
281
     0
  0
BLOCK_RECORD
  5
E4
330
1
100
AcDbSymbolTableRecord
100
AcDbBlockTableRecord
  2
_D
340
0
 70
     0
280
     1
281
     0
  0
BLOCK_RECORD
  5
F2
330
1
100
AcDbSymbolTableRecord
100
AcDbBlockTableRecord
  2
_D_1
340
0
 70
     0
280
     1
281
     0
  0
BLOCK_RECORD
  5
104
330
1
100
AcDbSymbolTableRecord
100
AcDbBlockTableRecord
  2
_D_2
340
0
 70
     0
280
     1
281
     0
  0
ENDTAB
  0
ENDSEC
  0
SECTION
  2
BLOCKS
  0
BLOCK
  5
20
330
1F
100
AcDbEntity
  8
0
100
AcDbBlockBegin
  2
*Model_Space
 70
     0
 10
0.0
 20
0.0
 30
0.0
  3
*Model_Space
  1
*Model_Space
  0
ENDBLK
  5
21
330
1F
100
AcDbEntity
  8
0
100
AcDbBlockEnd
  0
BLOCK
  5
1C
330
1B
100
AcDbEntity
 67
     1
  8
0
100
AcDbBlockBegin
  2
*Paper_Space
 70
     0
 10
0.0
 20
0.0
 30
0.0
  3
*Paper_Space
  1
*Paper_Space
  0
ENDBLK
  5
1D
330
1B
100
AcDbEntity
 67
     1
  8
0
100
AcDbBlockEnd
  0
BLOCK
  5
24
330
23
100
AcDbEntity
  8
0
100
AcDbBlockBegin
  2
*Paper_Space0
 70
     0
 10
0.0
 20
0.0
 30
0.0
  3
*Paper_Space0
  1
*Paper_Space0
  0
ENDBLK
  5
25
330
23
100
AcDbEntity
  8
0
100
AcDbBlockEnd
  0
BLOCK
  5
BA
330
B9
100
AcDbEntity
  8
0
100
AcDbBlockBegin
  2
SW_BROKEN_VIEW_0
 70
     0
 10
0.0
 20
0.0
 30
0.0
  3
SW_BROKEN_VIEW_0
  1
SW_BROKEN_VIEW_0
  0
LINE
  5
BC
330
B9
100
AcDbEntity
  8
0
  6
Continuous
 62
     0
100
AcDbLine
 10
0.0
 20
0.0
 30
0.0
 11
133.576423
 21
0.0
 31
0.0
  0
ENDBLK
  5
BB
330
B9
100
AcDbEntity
  8
0
100
AcDbBlockEnd
  0
BLOCK
  5
E5
330
E4
100
AcDbEntity
  8
0
100
AcDbBlockBegin
  2
_D
 70
     0
 10
0.0
 20
0.0
 30
0.0
  3
_D
  1
_D
  0
SOLID
  5
E7
330
E4
100
AcDbEntity
  8
0
  6
Continuous
 62
     7
370
    18
100
AcDbTrace
 10
42.284415
 20
164.98192
 30
0.0
 11
41.776415
 21
161.67992
 31
0.0
 12
42.792415
 22
161.67992
 32
0.0
 13
42.792415
 23
161.67992
 33
0.0
  0
SOLID
  5
E8
330
E4
100
AcDbEntity
  8
0
  6
Continuous
 62
     7
370
    18
100
AcDbTrace
 10
42.284415
 20
188.05985
 30
0.0
 11
42.792415
 21
191.36185
 31
0.0
 12
41.776415
 22
191.36185
 32
0.0
 13
41.776415
 23
191.36185
 33
0.0
  0
LINE
  5
E9
330
E4
100
AcDbEntity
  8
0
  6
Continuous
 62
     7
370
     0
100
AcDbLine
 10
54.335915
 20
188.05985
 30
0.0
 11
41.284415
 21
188.05985
 31
0.0
  0
LINE
  5
EA
330
E4
100
AcDbEntity
  8
0
  6
Continuous
 62
     7
370
     0
100
AcDbLine
 10
42.284415
 20
164.98192
 30
0.0
 11
42.284415
 21
158.63192
 31
0.0
  0
LINE
  5
EB
330
E4
100
AcDbEntity
  8
0
  6
Continuous
 62
     7
370
     0
100
AcDbLine
 10
42.284415
 20
188.05985
 30
0.0
 11
42.284415
 21
194.40985
 31
0.0
  0
MTEXT
  5
EC
330
E4
100
AcDbEntity
  8
0
  6
Continuous
 62
     7
370
    18
100
AcDbMText
 10
39.021221
 20
185.046344
 30
0.0
 40
2.38125
 41
0.0
 46
0.0
 71
     1
 72
     1
  1
min.
  7
SLDTEXTSTYLE0
 73
     1
 44
1.0
  0
MTEXT
  5
ED
330
E4
100
AcDbEntity
  8
0
  6
Continuous
 62
     7
370
    18
100
AcDbMText
 10
36.375388
 20
181.496518
 30
0.0
 40
2.38125
 41
0.0
 46
0.0
 71
     1
 72
     1
  1
152 mm
  7
SLDTEXTSTYLE0
 73
     1
 44
1.0
  0
MTEXT
  5
EE
330
E4
100
AcDbEntity
  8
0
  6
Continuous
 62
     7
370
    18
100
AcDbMText
 10
39.590075
 20
177.946691
 30
0.0
 40
2.38125
 41
0.0
 46
0.0
 71
     1
 72
     1
  1
(6'')
  7
SLDTEXTSTYLE0
 73
     1
 44
1.0
  0
MTEXT
  5
EF
330
E4
100
AcDbEntity
  8
0
  6
Continuous
 62
     7
370
    18
100
AcDbMText
 10
33.817749
 20
174.396865
 30
0.0
 40
2.38125
 41
0.0
 46
0.0
 71
     1
 72
     1
  1
voir note#2
  7
SLDTEXTSTYLE0
 73
     1
 44
1.0
  0
ENDBLK
  5
E6
330
E4
100
AcDbEntity
  8
0
100
AcDbBlockEnd
  0
BLOCK
  5
F3
330
F2
100
AcDbEntity
  8
0
100
AcDbBlockBegin
  2
_D_1
 70
     0
 10
0.0
 20
0.0
 30
0.0
  3
_D_1
  1
_D_1
  0
SOLID
  5
F5
330
F2
100
AcDbEntity
  8
FORMAT
100
AcDbTrace
 10
42.284415
 20
45.928095
 30
0.0
 11
42.792415
 21
49.230095
 31
0.0
 12
41.776415
 22
49.230095
 32
0.0
 13
41.776415
 23
49.230095
 33
0.0
  0
SOLID
  5
F6
330
F2
100
AcDbEntity
  8
FORMAT
100
AcDbTrace
 10
42.284415
 20
164.98192
 30
0.0
 11
41.776415
 21
161.67992
 31
0.0
 12
42.792415
 22
161.67992
 32
0.0
 13
42.792415
 23
161.67992
 33
0.0
  0
LINE
  5
F7
330
F2
100
AcDbEntity
  8
FORMAT
100
AcDbLine
 10
70.180059
 20
45.928095
 30
0.0
 11
41.284415
 21
45.928095
 31
0.0
  0
LINE
  5
F8
330
F2
100
AcDbEntity
  8
FORMAT
100
AcDbLine
 10
42.284415
 20
45.928095
 30
0.0
 11
42.284415
 21
78.306083
 31
0.0
  0
LINE
  5
F9
330
F2
100
AcDbEntity
  8
FORMAT
100
AcDbLine
 10
42.284415
 20
164.98192
 30
0.0
 11
42.284415
 21
120.05194
 31
0.0
  0
LINE
  5
FA
330
F2
100
AcDbEntity
  8
FORMAT
100
AcDbLine
 10
42.284415
 20
78.306083
 30
0.0
 11
43.871915
 21
79.099833
 31
0.0
  0
LINE
  5
FB
330
F2
100
AcDbEntity
  8
FORMAT
100
AcDbLine
 10
43.871915
 20
79.099833
 30
0.0
 11
40.696915
 21
80.687333
 31
0.0
  0
LINE
  5
FC
330
F2
100
AcDbEntity
  8
FORMAT
100
AcDbLine
 10
40.696915
 20
80.687333
 30
0.0
 11
42.284415
 21
81.481083
 31
0.0
  0
LINE
  5
FD
330
F2
100
AcDbEntity
  8
FORMAT
100
AcDbLine
 10
42.284415
 20
81.481083
 30
0.0
 11
42.284415
 21
102.302809
 31
0.0
  0
MTEXT
  5
FE
330
F2
100
AcDbEntity
  8
FORMAT
100
AcDbMText
 10
31.171913
 20
119.571706
 30
0.0
 40
2.38125
 41
0.0
 46
0.0
 71
     1
 72
     1
  1
Sous le niveau
  7
SLDTEXTSTYLE0
 73
     1
 44
1.0
  0
MTEXT
  5
FF
330
F2
100
AcDbEntity
  8
FORMAT
100
AcDbMText
 10
29.824743
 20
116.02188
 30
0.0
 40
2.38125
 41
0.0
 46
0.0
 71
     1
 72
     1
  1
du gel et jusqu'à
  7
SLDTEXTSTYLE0
 73
     1
 44
1.0
  0
MTEXT
  5
100
330
F2
100
AcDbEntity
  8
FORMAT
100
AcDbMText
 10
29.736551
 20
112.472054
 30
0.0
 40
2.38125
 41
0.0
 46
0.0
 71
     1
 72
     1
  1
l'obtention de la
  7
SLDTEXTSTYLE0
 73
     1
 44
1.0
  0
MTEXT
  5
101
330
F2
100
AcDbEntity
  8
FORMAT
100
AcDbMText
 10
29.143443
 20
108.922227
 30
0.0
 40
2.38125
 41
0.0
 46
0.0
 71
     1
 72
     1
  1
capacité portante
  7
SLDTEXTSTYLE0
 73
     1
 44
1.0
  0
MTEXT
  5
102
330
F2
100
AcDbEntity
  8
FORMAT
100
AcDbMText
 10
36.198998
 20
105.372401
 30
0.0
 40
2.38125
 41
0.0
 46
0.0
 71
     1
 72
     1
  1
requise.
  7
SLDTEXTSTYLE0
 73
     1
 44
1.0
  0
ENDBLK
  5
F4
330
F2
100
AcDbEntity
  8
0
100
AcDbBlockEnd
  0
BLOCK
  5
105
330
104
100
AcDbEntity
  8
0
100
AcDbBlockBegin
  2
_D_2
 70
     0
 10
0.0
 20
0.0
 30
0.0
  3
_D_2
  1
_D_2
  0
SOLID
  5
107
330
104
100
AcDbEntity
  8
FORMAT
100
AcDbTrace
 10
83.860647
 20
40.973048
 30
0.0
 11
80.558647
 21
41.481048
 31
0.0
 12
80.558647
 22
40.465048
 32
0.0
 13
80.558647
 23
40.465048
 33
0.0
  0
SOLID
  5
108
330
104
100
AcDbEntity
  8
FORMAT
100
AcDbTrace
 10
46.05026
 20
40.973048
 30
0.0
 11
49.35226
 21
40.465048
 31
0.0
 12
49.35226
 22
41.481048
 32
0.0
 13
49.35226
 23
41.481048
 33
0.0
  0
LINE
  5
109
330
104
100
AcDbEntity
  8
FORMAT
100
AcDbLine
 10
83.860647
 20
65.361044
 30
0.0
 11
83.860647
 21
39.973048
 31
0.0
  0
LINE
  5
10A
330
104
100
AcDbEntity
  8
FORMAT
100
AcDbLine
 10
46.05026
 20
60.540447
 30
0.0
 11
46.05026
 21
39.973048
 31
0.0
  0
LINE
  5
10B
330
104
100
AcDbEntity
  8
FORMAT
100
AcDbLine
 10
83.860647
 20
40.973048
 30
0.0
 11
92.116419
 21
40.973048
 31
0.0
  0
LINE
  5
10C
330
104
100
AcDbEntity
  8
FORMAT
100
AcDbLine
 10
46.05026
 20
40.973048
 30
0.0
 11
83.860647
 21
40.973048
 31
0.0
  0
MTEXT
  5
10D
330
104
100
AcDbEntity
  8
FORMAT
100
AcDbMText
 10
92.645589
 20
47.592467
 30
0.0
 40
2.38125
 41
0.0
 46
0.0
 71
     1
 72
     1
  1
203 à 610 mm
  7
SLDTEXTSTYLE0
 73
     1
 44
1.0
  0
MTEXT
  5
10E
330
104
100
AcDbEntity
  8
FORMAT
100
AcDbMText
 10
92.645589
 20
44.042641
 30
0.0
 40
2.38125
 41
0.0
 46
0.0
 71
     1
 72
     1
  1
(8'' à 24'')
  7
SLDTEXTSTYLE0
 73
     1
 44
1.0
  0
MTEXT
  5
10F
330
104
100
AcDbEntity
  8
FORMAT
100
AcDbMText
 10
92.645589
 20
40.492815
 30
0.0
 40
2.38125
 41
0.0
 46
0.0
 71
     1
 72
     1
  1
Selon le type de sol et la
  7
SLDTEXTSTYLE0
 73
     1
 44
1.0
  0
MTEXT
  5
110
330
104
100
AcDbEntity
  8
FORMAT
100
AcDbMText
 10
92.645589
 20
36.942988
 30
0.0
 40
2.38125
 41
0.0
 46
0.0
 71
     1
 72
     1
  1
capacité portante requise.
  7
SLDTEXTSTYLE0
 73
     1
 44
1.0
  0
ENDBLK
  5
106
330
104
100
AcDbEntity
  8
0
100
AcDbBlockEnd
  0
ENDSEC
  0
SECTION
  2
ENTITIES
  0
LINE
  5
138
330
1F
100
AcDbEntity
  8
0
  6
Continuous
 62
     7
370
    25
100
AcDbLine
 10
186.376293
 20
25.842416
 30
0.0
 11
186.376293
 21
26.198737
 31
0.0
  0
LINE
  5
139
330
1F
100
AcDbEntity
  8
0
  6
Continuous
 62
     7
370
    25
100
AcDbLine
 10
186.376293
 20
30.351389
 30
0.0
 11
186.376293
 21
42.868674
 31
0.0
  0
LINE
  5
13A
330
1F
100
AcDbEntity
  8
0
  6
Continuous
 62
     7
370
    25
100
AcDbLine
 10
186.376293
 20
180.534356
 30
0.0
 11
186.376293
 21
189.710182
 31
0.0
  0
LINE
  5
13B
330
1F
100
AcDbEntity
  8
0
  6
Continuous
 62
     7
370
    25
100
AcDbLine
 10
176.216293
 20
189.69003
 30
0.0
 11
176.216293
 21
180.534356
 31
0.0
  0
LINE
  5
13C
330
1F
100
AcDbEntity
  8
0
  6
Continuous
 62
     7
370
    25
100
AcDbLine
 10
176.216293
 20
42.868674
 30
0.0
 11
176.216293
 21
34.026966
 31
0.0
  0
LINE
  5
13D
330
1F
100
AcDbEntity
  8
0
  6
Continuous
 62
     7
370
    25
100
AcDbLine
 10
176.216293
 20
26.322096
 30
0.0
 11
176.216293
 21
19.97622
 31
0.0
  0
LINE
  5
13E
330
1F
100
AcDbEntity
  8
0
  6
Continuous
 62
     7
370
    25
100
AcDbLine
 10
191.79212
 20
192.988514
 30
0.0
 11
191.79212
 21
193.507018
 31
0.0
  0
LINE
  5
13F
330
1F
100
AcDbEntity
  8
0
  6
Continuous
 62
     7
370
    25
100
AcDbLine
 10
170.765557
 20
193.507018
 30
0.0
 11
170.765557
 21
192.988514
 31
0.0
  0
LINE
  5
140
330
1F
100
AcDbEntity
  8
0
  6
Continuous
 62
     7
370
    25
100
AcDbLine
 10
175.740043
 20
180.534356
 30
0.0
 11
175.740043
 21
44.167958
 31
0.0
  0
LINE
  5
141
330
1F
100
AcDbEntity
  8
0
  6
Continuous
 62
     7
370
    25
100
AcDbLine
 10
186.852543
 20
44.167958
 30
0.0
 11
186.852543
 21
180.534356
 31
0.0
  0
LINE
  5
142
330
1F
100
AcDbEntity
  8
0
  6
Continuous
 62
     7
370
    25
100
AcDbLine
 10
196.536293
 20
29.966646
 30
0.0
 11
196.536293
 21
31.003653
 31
0.0
  0
LINE
  5
143
330
1F
100
AcDbEntity
  8
0
  6
Continuous
 62
     7
370
    25
100
AcDbLine
 10
166.056293
 20
34.342815
 30
0.0
 11
166.056293
 21
33.305808
 31
0.0
  0
ELLIPSE
  5
144
330
1F
100
AcDbEntity
  8
0
  6
Continuous
 62
     7
370
    25
100
AcDbEllipse
 10
181.296293
 20
22.909318
 30
0.0
 11
5.079999994808901
 21
2.933098265986782
 31
0.0
210
0.0
220
0.0
230
1.0
 40
0.00007
 41
0.0
 42
6.283185307179586
  0
LWPOLYLINE
  5
145
330
1F
100
AcDbEntity
  8
0
  6
Continuous
 62
     7
370
    25
100
AcDbPolyline
 90
        3
 70
   128
 43
0.0
 10
181.658827
 20
195.903582
 10
181.243096
 20
195.910899
 10
180.896763
 20
195.901976
  0
SPLINE
  5
146
330
1F
100
AcDbEntity
  8
0
  6
Continuous
 62
     7
370
    25
100
AcDbSpline
210
0.0
220
0.0
230
1.0
 70
    11
 71
     3
 72
   101
 73
    97
 74
     0
 42
0.000000001
 43
0.00000001
 40
0.0
 40
0.0
 40
0.0
 40
0.0
 40
0.0312500000000197
 40
0.0312500000000197
 40
0.0468750000000295
 40
0.0468750000000295
 40
0.0625000000000394
 40
0.0625000000000394
 40
0.0937500000000591
 40
0.0937500000000591
 40
0.1093750000000689
 40
0.1093750000000689
 40
0.1250000000000788
 40
0.1250000000000788
 40
0.1562500000000984
 40
0.1562500000000984
 40
0.1718750000001082
 40
0.1718750000001082
 40
0.1875000000001181
 40
0.1875000000001181
 40
0.2031250000001279
 40
0.2031250000001279
 40
0.2187500000001378
 40
0.2187500000001378
 40
0.2500000000001614
 40
0.2500000000001614
 40
0.2812500000001851
 40
0.2812500000001851
 40
0.3125000000002088
 40
0.3125000000002088
 40
0.3281250000002167
 40
0.3281250000002167
 40
0.3437500000002245
 40
0.3437500000002245
 40
0.3593750000002324
 40
0.3593750000002324
 40
0.3750000000002404
 40
0.3750000000002404
 40
0.4062500000002561
 40
0.4062500000002561
 40
0.421875000000264
 40
0.421875000000264
 40
0.4375000000002719
 40
0.4375000000002719
 40
0.4687500000002689
 40
0.4687500000002689
 40
0.4843750000002673
 40
0.4843750000002673
 40
0.5000000000002658
 40
0.5000000000002658
 40
0.5312500000002833
 40
0.5312500000002833
 40
0.5468750000002921
 40
0.5468750000002921
 40
0.5625000000003008
 40
0.5625000000003008
 40
0.5781250000003095
 40
0.5781250000003095
 40
0.5937500000003183
 40
0.5937500000003183
 40
0.625000000000319
 40
0.625000000000319
 40
0.640625000000312
 40
0.640625000000312
 40
0.6562500000003051
 40
0.6562500000003051
 40
0.6875000000002799
 40
0.6875000000002799
 40
0.7031250000002712
 40
0.7031250000002712
 40
0.7187500000002625
 40
0.7343750000002538
 40
0.7343750000002538
 40
0.750000000000245
 40
0.750000000000245
 40
0.7812500000002277
 40
0.7812500000002277
 40
0.7968750000002169
 40
0.7968750000002169
 40
0.8125000000002063
 40
0.8125000000002063
 40
0.8437500000001849
 40
0.8437500000001849
 40
0.8593750000001742
 40
0.8593750000001742
 40
0.8750000000001634
 40
0.8750000000001634
 40
0.9062500000001276
 40
0.9062500000001276
 40
0.9375000000000918
 40
0.9375000000000918
 40
0.9531250000000738
 40
0.9531250000000738
 40
0.968750000000056
 40
0.968750000000056
 40
1.0
 40
1.0
 40
1.0
 40
1.0
 10
178.508721191057
 20
187.4157558494454
 30
0.0
 10
178.508721191057
 20
187.3599357385758
 30
0.0
 10
178.502969121675
 20
187.307248820421
 30
0.0
 10
178.4861738042199
 20
187.2327601970367
 30
0.0
 10
178.4792055164887
 20
187.2086941823637
 30
0.0
 10
178.4625046683697
 20
187.1621416994384
 30
0.0
 10
178.4527367394379
 20
187.1396306281942
 30
0.0
 10
178.4199866720221
 20
187.0760034426478
 30
0.0
 10
178.3934288985006
 20
187.0382197664321
 30
0.0
 10
178.3469187702084
 20
186.9886075045569
 30
0.0
 10
178.3302066211825
 20
186.9731889031936
 30
0.0
 10
178.294964650765
 20
186.9451958868675
 30
0.0
 10
178.2765187891486
 20
186.9326636156456
 30
0.0
 10
178.2188727400627
 20
186.8993895134092
 30
0.0
 10
178.1773862679864
 20
186.8829270088976
 30
0.0
 10
178.1108036092274
 20
186.8673138184858
 30
0.0
 10
178.0879866996832
 20
186.8636781820728
 30
0.0
 10
178.0419209231976
 20
186.8596371917928
 30
0.0
 10
178.0185661211952
 20
186.8592049524211
 30
0.0
 10
177.9712673324886
 20
186.8615161567555
 30
0.0
 10
177.9473232822595
 20
186.8642594935667
 30
0.0
 10
177.8988744852319
 20
186.8730093670706
 30
0.0
 10
177.8742260141037
 20
186.8790664232652
 30
0.0
 10
177.8007345981761
 20
186.9019700819561
 30
0.0
 10
177.7523530856585
 20
186.923408730198
 30
0.0
 10
177.656894029724
 20
186.9784373095483
 30
0.0
 10
177.6093805707894
 20
187.0124991788787
 30
0.0
 10
177.5194269552595
 20
187.0902855872835
 30
0.0
 10
177.4766089653826
 20
187.1341027536708
 30
0.0
 10
177.4154113422911
 20
187.2071580433118
 30
0.0
 10
177.3954659061437
 20
187.2328331243301
 30
0.0
 10
177.3573883218007
 20
187.2855403129446
 30
0.0
 10
177.3391498793207
 20
187.3126876419301
 30
0.0
 10
177.3041766784106
 20
187.3685089242574
 30
0.0
 10
177.2874420751859
 20
187.3971829686588
 30
0.0
 10
177.2554196154677
 20
187.4560404600655
 30
0.0
 10
177.2400717866197
 20
187.4863532291229
 30
0.0
 10
177.1965910716588
 20
187.5786865573105
 30
0.0
 10
177.1713497608395
 20
187.6412456940522
 30
0.0
 10
177.1385119755138
 20
187.7363611643833
 30
0.0
 10
177.1284105538497
 20
187.7682810844718
 30
0.0
 10
177.1098803063743
 20
187.8325344021956
 30
0.0
 10
177.1014822673779
 20
187.8648020689133
 30
0.0
 10
177.0792741808765
 20
187.9600380092658
 30
0.0
 10
177.0682035244807
 20
188.0221607572698
 30
0.0
 10
177.0569801155532
 20
188.1131583649345
 30
0.0
 10
177.0541356523718
 20
188.1432883456077
 30
0.0
 10
177.050368241628
 20
188.2018950542796
 30
0.0
 10
177.0494373334341
 20
188.2303047535686
 30
0.0
 10
177.0494141918421
 20
188.3129193800646
 30
0.0
 10
177.0530572823242
 20
188.3645307919597
 30
0.0
 10
177.0642777022179
 20
188.4366324600362
 30
0.0
 10
177.0689586255233
 20
188.4595448395157
 30
0.0
 10
177.080079771757
 20
188.502700461582
 30
0.0
 10
177.0865329514385
 20
188.5230293409997
 30
0.0
 10
177.1012502390841
 20
188.5612483011652
 30
0.0
 10
177.1095142324472
 20
188.5791383741766
 30
0.0
 10
177.1279425511761
 20
188.6124728664431
 30
0.0
 10
177.1381578832637
 20
188.6279607190737
 30
0.0
 10
177.1711502432232
 20
188.6698278653912
 30
0.0
 10
177.1963837782969
 20
188.6919886354692
 30
0.0
 10
177.2394631958428
 20
188.716971625086
 30
0.0
 10
177.2547501642435
 20
188.7239290002472
 30
0.0
 10
177.2870069209756
 20
188.7349344020414
 30
0.0
 10
177.3038117839784
 20
188.7389373611977
 30
0.0
 10
177.3562991673354
 20
188.7466408653055
 30
0.0
 10
177.3940362347247
 20
188.7460791462637
 30
0.0
 10
177.4552438194377
 20
188.7366504313183
 30
0.0
 10
177.4764403256042
 20
188.7320412938055
 30
0.0
 10
177.5194761582369
 20
188.7201511335237
 30
0.0
 10
177.5633854242315
 20
188.7055642168176
 30
0.0
 10
177.6090813875841
 20
188.6856968148033
 30
0.0
 10
177.6557042057911
 20
188.6631617468163
 30
0.0
 10
177.6796009320056
 20
188.6504887105261
 30
0.0
 10
177.7518554037371
 20
188.6088230666807
 30
0.0
 10
177.8002776015877
 20
188.5765616745649
 30
0.0
 10
177.8732031623677
 20
188.5216035562937
 30
0.0
 10
177.8975593327365
 20
188.502180984013
 30
0.0
 10
177.9463381452018
 20
188.4610468406832
 30
0.0
 10
177.970586634853
 20
188.4394714135329
 30
0.0
 10
178.041859246548
 20
188.3726473062825
 30
0.0
 10
178.0878419557776
 20
188.3249797818759
 30
0.0
 10
178.1541969690808
 20
188.2485624611755
 30
0.0
 10
178.1759679245598
 20
188.2221345914189
 30
0.0
 10
178.2176992706893
 20
188.1686020410934
 30
0.0
 10
178.2377442824469
 20
188.1414124616611
 30
0.0
 10
178.2953765924646
 20
188.0585302015748
 30
0.0
 10
178.3305306112483
 20
188.0014598581253
 30
0.0
 10
178.3932143817159
 20
187.8836084156068
 30
0.0
 10
178.419791539908
 20
187.8246275064194
 30
0.0
 10
178.4524139323067
 20
187.735837256617
 30
0.0
 10
178.4620731656338
 20
187.7061879298203
 30
0.0
 10
178.478849889642
 20
187.646749362741
 30
0.0
 10
178.4859674064343
 20
187.6168907396185
 30
0.0
 10
178.5029677898067
 20
187.5288355946127
 30
0.0
 10
178.508721191057
 20
187.4715759603148
 30
0.0
 10
178.508721191057
 20
187.4157558494454
 30
0.0
  0
SPLINE
  5
147
330
1F
100
AcDbEntity
  8
0
  6
Continuous
 62
     7
370
    25
100
AcDbSpline
210
0.0
220
0.0
230
1.0
 70
    11
 71
     3
 72
   101
 73
    97
 74
     0
 42
0.000000001
 43
0.00000001
 40
0.0
 40
0.0
 40
0.0
 40
0.0
 40
0.0312499999999709
 40
0.0312499999999709
 40
0.0468749999999564
 40
0.0468749999999564
 40
0.0624999999999418
 40
0.0624999999999418
 40
0.0937499999999128
 40
0.0937499999999128
 40
0.1093749999998982
 40
0.1093749999998982
 40
0.1249999999998837
 40
0.1249999999998837
 40
0.1562499999998691
 40
0.1562499999998691
 40
0.1718749999998619
 40
0.1718749999998619
 40
0.1874999999998546
 40
0.1874999999998546
 40
0.2031249999998473
 40
0.2031249999998473
 40
0.21874999999984
 40
0.21874999999984
 40
0.2499999999998215
 40
0.2499999999998215
 40
0.281249999999803
 40
0.281249999999803
 40
0.3124999999997845
 40
0.3124999999997845
 40
0.3281249999997791
 40
0.3281249999997791
 40
0.3437499999997738
 40
0.3437499999997738
 40
0.3593749999997685
 40
0.3593749999997685
 40
0.3749999999997631
 40
0.3749999999997631
 40
0.4062499999997525
 40
0.4062499999997525
 40
0.4218749999997471
 40
0.4218749999997471
 40
0.4374999999997418
 40
0.4374999999997418
 40
0.4687499999997311
 40
0.4687499999997311
 40
0.4843749999997258
 40
0.4843749999997258
 40
0.4999999999997204
 40
0.4999999999997204
 40
0.5312499999997098
 40
0.5312499999997098
 40
0.5468749999997045
 40
0.5468749999997045
 40
0.5624999999996991
 40
0.5624999999996991
 40
0.5781249999996938
 40
0.5781249999996938
 40
0.5937499999996885
 40
0.5937499999996885
 40
0.6249999999996947
 40
0.6249999999996947
 40
0.6406249999996978
 40
0.6406249999996978
 40
0.6562499999997009
 40
0.6562499999997009
 40
0.6874999999997186
 40
0.6874999999997186
 40
0.7031249999997273
 40
0.7031249999997273
 40
0.7187499999997361
 40
0.7343749999997449
 40
0.7343749999997449
 40
0.7499999999997536
 40
0.7499999999997536
 40
0.7812499999997713
 40
0.7812499999997713
 40
0.7968749999997821
 40
0.7968749999997821
 40
0.8124999999997928
 40
0.8124999999997928
 40
0.8437499999998145
 40
0.8437499999998145
 40
0.8593749999998253
 40
0.8593749999998253
 40
0.8749999999998359
 40
0.8749999999998359
 40
0.906249999999872
 40
0.906249999999872
 40
0.9374999999999081
 40
0.9374999999999081
 40
0.9531249999999261
 40
0.9531249999999261
 40
0.968749999999944
 40
0.968749999999944
 40
1.0
 40
1.0
 40
1.0
 40
1.0
 10
178.508721191057
 20
181.7122182784234
 30
0.0
 10
178.508721191057
 20
181.656398167554
 30
0.0
 10
178.502969121675
 20
181.6037112493991
 30
0.0
 10
178.4861738042199
 20
181.5292226260147
 30
0.0
 10
178.4792055164887
 20
181.5051566113416
 30
0.0
 10
178.4625046683697
 20
181.4586041284164
 30
0.0
 10
178.4527367394379
 20
181.4360930571722
 30
0.0
 10
178.4199866720221
 20
181.3724658716258
 30
0.0
 10
178.3934288985006
 20
181.3346821954103
 30
0.0
 10
178.3469187702084
 20
181.2850699335349
 30
0.0
 10
178.3302066211825
 20
181.2696513321717
 30
0.0
 10
178.294964650765
 20
181.2416583158455
 30
0.0
 10
178.2765187891486
 20
181.2291260446237
 30
0.0
 10
178.2188727400627
 20
181.1958519423872
 30
0.0
 10
178.1773862679864
 20
181.1793894378756
 30
0.0
 10
178.1108036092274
 20
181.1637762474638
 30
0.0
 10
178.0879866996832
 20
181.1601406110508
 30
0.0
 10
178.0419209231976
 20
181.1560996207708
 30
0.0
 10
178.0185661211952
 20
181.1556673813991
 30
0.0
 10
177.9712673324886
 20
181.1579785857334
 30
0.0
 10
177.9473232822595
 20
181.1607219225448
 30
0.0
 10
177.8988744852319
 20
181.1694717960487
 30
0.0
 10
177.8742260141037
 20
181.1755288522432
 30
0.0
 10
177.8007345981761
 20
181.1984325109342
 30
0.0
 10
177.7523530856585
 20
181.2198711591759
 30
0.0
 10
177.656894029724
 20
181.2748997385262
 30
0.0
 10
177.6093805707894
 20
181.3089616078566
 30
0.0
 10
177.5194269552595
 20
181.3867480162614
 30
0.0
 10
177.4766089653825
 20
181.4305651826488
 30
0.0
 10
177.4154113422911
 20
181.5036204722898
 30
0.0
 10
177.3954659061437
 20
181.5292955533081
 30
0.0
 10
177.3573883218007
 20
181.5820027419227
 30
0.0
 10
177.3391498793207
 20
181.6091500709082
 30
0.0
 10
177.3041766784106
 20
181.6649713532356
 30
0.0
 10
177.2874420751859
 20
181.6936453976368
 30
0.0
 10
177.2554196154677
 20
181.7525028890434
 30
0.0
 10
177.2400717866197
 20
181.782815658101
 30
0.0
 10
177.1965910716588
 20
181.8751489862885
 30
0.0
 10
177.1713497608395
 20
181.93770812303
 30
0.0
 10
177.1385119755138
 20
182.0328235933614
 30
0.0
 10
177.1284105538497
 20
182.06474351345
 30
0.0
 10
177.1098803063743
 20
182.1289968311737
 30
0.0
 10
177.1014822673779
 20
182.1612644978913
 30
0.0
 10
177.0792741808765
 20
182.2565004382439
 30
0.0
 10
177.0682035244807
 20
182.3186231862478
 30
0.0
 10
177.0569801155532
 20
182.4096207939125
 30
0.0
 10
177.0541356523718
 20
182.4397507745857
 30
0.0
 10
177.050368241628
 20
182.4983574832576
 30
0.0
 10
177.0494373334341
 20
182.5267671825466
 30
0.0
 10
177.0494141918421
 20
182.6093818090425
 30
0.0
 10
177.0530572823242
 20
182.6609932209378
 30
0.0
 10
177.0642777022179
 20
182.7330948890141
 30
0.0
 10
177.0689586255233
 20
182.7560072684937
 30
0.0
 10
177.080079771757
 20
182.7991628905601
 30
0.0
 10
177.0865329514385
 20
182.8194917699778
 30
0.0
 10
177.1012502390841
 20
182.8577107301432
 30
0.0
 10
177.1095142324472
 20
182.8756008031547
 30
0.0
 10
177.1279425511761
 20
182.9089352954211
 30
0.0
 10
177.1381578832637
 20
182.9244231480518
 30
0.0
 10
177.1711502432232
 20
182.9662902943691
 30
0.0
 10
177.1963837782969
 20
182.9884510644472
 30
0.0
 10
177.2394631958428
 20
183.0134340540641
 30
0.0
 10
177.2547501642435
 20
183.0203914292252
 30
0.0
 10
177.2870069209756
 20
183.0313968310195
 30
0.0
 10
177.3038117839784
 20
183.0353997901757
 30
0.0
 10
177.3562991673354
 20
183.0431032942835
 30
0.0
 10
177.3940362347247
 20
183.0425415752421
 30
0.0
 10
177.4552438194377
 20
183.0331128602963
 30
0.0
 10
177.4764403256042
 20
183.0285037227835
 30
0.0
 10
177.5194761582369
 20
183.0166135625019
 30
0.0
 10
177.5633854242315
 20
183.0020266457956
 30
0.0
 10
177.6090813875841
 20
182.9821592437812
 30
0.0
 10
177.6557042057911
 20
182.9596241757943
 30
0.0
 10
177.6796009320056
 20
182.9469511395042
 30
0.0
 10
177.7518554037371
 20
182.9052854956588
 30
0.0
 10
177.8002776015878
 20
182.8730241035431
 30
0.0
 10
177.8732031623677
 20
182.8180659852717
 30
0.0
 10
177.8975593327365
 20
182.7986434129909
 30
0.0
 10
177.9463381452018
 20
182.7575092696611
 30
0.0
 10
177.970586634853
 20
182.7359338425109
 30
0.0
 10
178.041859246548
 20
182.6691097352606
 30
0.0
 10
178.0878419557776
 20
182.6214422108542
 30
0.0
 10
178.1541969690808
 20
182.5450248901535
 30
0.0
 10
178.1759679245598
 20
182.5185970203969
 30
0.0
 10
178.2176992706893
 20
182.4650644700715
 30
0.0
 10
178.2377442824469
 20
182.4378748906392
 30
0.0
 10
178.2953765924646
 20
182.3549926305527
 30
0.0
 10
178.3305306112483
 20
182.2979222871032
 30
0.0
 10
178.3932143817159
 20
182.1800708445847
 30
0.0
 10
178.419791539908
 20
182.1210899353975
 30
0.0
 10
178.4524139323067
 20
182.032299685595
 30
0.0
 10
178.4620731656338
 20
182.0026503587983
 30
0.0
 10
178.478849889642
 20
181.943211791719
 30
0.0
 10
178.4859674064343
 20
181.9133531685965
 30
0.0
 10
178.5029677898067
 20
181.8252980235906
 30
0.0
 10
178.508721191057
 20
181.768038389293
 30
0.0
 10
178.508721191057
 20
181.7122182784234
 30
0.0
  0
ARC
  5
148
330
1F
100
AcDbEntity
  8
0
  6
Continuous
 62
     7
370
    25
100
AcDbCircle
 10
181.296319
 20
187.791728
 30
0.0
 40
7.787950595949607
100
AcDbArc
 50
86.62289
 51
93.634804
  0
ELLIPSE
  5
149
330
1F
100
AcDbEntity
  8
0
  6
Continuous
 62
     7
370
    25
100
AcDbEllipse
 10
181.296293
 20
22.909318
 30
0.0
 11
4.505960000664373
 21
2.601658164972431
 31
0.0
210
0.0
220
0.0
230
1.0
 40
0.00007
 41
0.0
 42
6.283185307179586
  0
SPLINE
  5
14A
330
1F
100
AcDbEntity
  8
0
  6
Continuous
 62
     7
370
    25
100
AcDbSpline
210
0.0
220
0.0
230
1.0
 70
     8
 71
     3
 72
    15
 73
    11
 74
     0
 42
0.000000001
 43
0.00000001
 40
0.0
 40
0.0
 40
0.0
 40
0.0
 40
0.0850973794406395
 40
0.2302526904884779
 40
0.3727251789281473
 40
0.5163495297596438
 40
0.6632383631593294
 40
0.8106028687720207
 40
0.9546747661562799
 40
1.0
 40
1.0
 40
1.0
 40
1.0
 10
178.4250384219929
 20
187.1092160833254
 30
0.0
 10
178.3777891346232
 20
187.1071570648758
 30
0.0
 10
178.2499441220968
 20
187.1015858646707
 30
0.0
 10
178.0318366567113
 20
187.2196005959048
 30
0.0
 10
177.8108364024448
 20
187.4362086924961
 30
0.0
 10
177.6356181299768
 20
187.7292180310792
 30
0.0
 10
177.5155096973707
 20
188.0621831603488
 30
0.0
 10
177.4622457988556
 20
188.3856494665327
 30
0.0
 10
177.4576144892443
 20
188.6160407283138
 30
0.0
 10
177.4901148872895
 20
188.6997548598137
 30
0.0
 10
177.4978926615982
 20
188.7197887566401
 30
0.0
  0
SPLINE
  5
14B
330
1F
100
AcDbEntity
  8
0
  6
Continuous
 62
     7
370
    25
100
AcDbSpline
210
0.0
220
0.0
230
1.0
 70
     8
 71
     3
 72
    15
 73
    11
 74
     0
 42
0.000000001
 43
0.00000001
 40
0.0
 40
0.0
 40
0.0
 40
0.0
 40
0.0850973794406381
 40
0.2302526904884739
 40
0.3727251789281408
 40
0.5163495297596349
 40
0.6632383631593178
 40
0.8106028687720067
 40
0.9546747661562632
 40
1.0
 40
1.0
 40
1.0
 40
1.0
 10
178.4250384219929
 20
181.4056785123034
 30
0.0
 10
178.3777891346232
 20
181.4036194938537
 30
0.0
 10
178.2499441220968
 20
181.3980482936487
 30
0.0
 10
178.0318366567113
 20
181.5160630248829
 30
0.0
 10
177.8108364024448
 20
181.7326711214742
 30
0.0
 10
177.6356181299768
 20
182.0256804600571
 30
0.0
 10
177.5155096973707
 20
182.3586455893269
 30
0.0
 10
177.4622457988556
 20
182.6821118955106
 30
0.0
 10
177.4576144892443
 20
182.912503157292
 30
0.0
 10
177.4901148872895
 20
182.9962172887917
 30
0.0
 10
177.4978926615982
 20
183.0162511856182
 30
0.0
  0
LINE
  5
14C
330
1F
100
AcDbEntity
  8
0
  6
Continuous
 62
     7
370
    25
100
AcDbLine
 10
180.829825
 20
187.545198
 30
0.0
 11
180.829825
 21
187.026694
 31
0.0
  0
ARC
  5
14D
330
1F
100
AcDbEntity
  8
0
  6
Continuous
 62
     7
370
    25
100
AcDbCircle
 10
181.278838
 20
188.411789
 30
0.0
 40
0.9760089115238344
100
AcDbArc
 50
242.609672
 51
297.390328
  0
LINE
  5
14E
330
1F
100
AcDbEntity
  8
0
  6
Continuous
 62
     7
370
    25
100
AcDbLine
 10
181.727851
 20
187.545198
 30
0.0
 11
181.727851
 21
187.026694
 31
0.0
  0
ARC
  5
14F
330
1F
100
AcDbEntity
  8
0
  6
Continuous
 62
     7
370
    25
100
AcDbCircle
 10
181.278838
 20
187.893286
 30
0.0
 40
0.9760089115237961
100
AcDbArc
 50
242.609672
 51
297.390328
  0
LWPOLYLINE
  5
150
330
1F
100
AcDbEntity
  8
0
  6
Continuous
 62
     7
370
    25
100
AcDbPolyline
 90
       25
 70
   128
 43
0.0
 10
180.914015
 20
188.630638
 10
181.02087
 20
188.583305
 10
181.145304
 20
188.55355
 10
181.278838
 20
188.543401
 10
181.412373
 20
188.55355
 10
181.536807
 20
188.583305
 10
181.643661
 20
188.630638
 10
181.725653
 20
188.692323
 10
181.777196
 20
188.764158
 10
181.794776
 20
188.841245
 10
181.777196
 20
188.918333
 10
181.725653
 20
188.990168
 10
181.643661
 20
189.051853
 10
181.536807
 20
189.099186
 10
181.412373
 20
189.128941
 10
181.278838
 20
189.13909
 10
181.145304
 20
189.128941
 10
181.02087
 20
189.099186
 10
180.914015
 20
189.051853
 10
180.832023
 20
188.990168
 10
180.780481
 20
188.918333
 10
180.762901
 20
188.841245
 10
180.780481
 20
188.764158
 10
180.832023
 20
188.692323
 10
180.914015
 20
188.630638
  0
LWPOLYLINE
  5
151
330
1F
100
AcDbEntity
  8
0
  6
Continuous
 62
     7
370
    25
100
AcDbPolyline
 90
       25
 70
   128
 43
0.0
 10
188.996246
 20
193.29641
 10
189.1031
 20
193.249077
 10
189.227534
 20
193.219322
 10
189.361069
 20
193.209173
 10
189.494603
 20
193.219322
 10
189.619038
 20
193.249077
 10
189.725892
 20
193.29641
 10
189.807884
 20
193.358096
 10
189.859426
 20
193.42993
 10
189.877006
 20
193.507018
 10
189.859426
 20
193.584106
 10
189.807884
 20
193.65594
 10
189.725892
 20
193.717626
 10
189.619038
 20
193.764959
 10
189.494603
 20
193.794713
 10
189.361069
 20
193.804862
 10
189.227534
 20
193.794713
 10
189.1031
 20
193.764959
 10
188.996246
 20
193.717626
 10
188.914254
 20
193.65594
 10
188.862711
 20
193.584106
 10
188.845131
 20
193.507018
 10
188.862711
 20
193.42993
 10
188.914254
 20
193.358096
 10
188.996246
 20
193.29641
  0
LINE
  5
152
330
1F
100
AcDbEntity
  8
0
  6
Continuous
 62
     7
370
    25
100
AcDbLine
 10
180.829825
 20
199.468838
 30
0.0
 11
170.951544
 21
193.766227
 31
0.0
  0
ARC
  5
153
330
1F
100
AcDbEntity
  8
0
  6
Continuous
 62
     7
370
    25
100
AcDbCircle
 10
181.278838
 20
198.602246
 30
0.0
 40
0.9760089115241242
100
AcDbArc
 50
62.609672
 51
117.390328
  0
LINE
  5
154
330
1F
100
AcDbEntity
  8
0
  6
Continuous
 62
     7
370
    25
100
AcDbLine
 10
191.606133
 20
193.766227
 30
0.0
 11
181.727851
 21
199.468838
 31
0.0
  0
ARC
  5
155
330
1F
100
AcDbEntity
  8
0
  6
Continuous
 62
     7
370
    25
100
AcDbCircle
 10
191.507754
 20
193.507018
 30
0.0
 40
0.2772507261898158
100
AcDbArc
 50
290.783421
 51
69.216579
  0
LINE
  5
156
330
1F
100
AcDbEntity
  8
0
  6
Continuous
 62
     7
370
    25
100
AcDbLine
 10
181.727851
 20
187.545198
 30
0.0
 11
191.606133
 21
193.247808
 31
0.0
  0
LINE
  5
157
330
1F
100
AcDbEntity
  8
0
  6
Continuous
 62
     7
370
    25
100
AcDbLine
 10
170.951544
 20
193.247808
 30
0.0
 11
180.829825
 21
187.545198
 31
0.0
  0
ARC
  5
158
330
1F
100
AcDbEntity
  8
0
  6
Continuous
 62
     7
370
    25
100
AcDbCircle
 10
171.049922
 20
193.507018
 30
0.0
 40
0.277250726189836
100
AcDbArc
 50
110.783421
 51
249.216579
  0
LWPOLYLINE
  5
159
330
1F
100
AcDbEntity
  8
0
  6
Continuous
 62
     7
370
    25
100
AcDbPolyline
 90
       25
 70
   128
 43
0.0
 10
180.914015
 20
197.962182
 10
181.02087
 20
197.914849
 10
181.145304
 20
197.885095
 10
181.278838
 20
197.874946
 10
181.412373
 20
197.885095
 10
181.536807
 20
197.914849
 10
181.643661
 20
197.962182
 10
181.725653
 20
198.023868
 10
181.777196
 20
198.095702
 10
181.794776
 20
198.17279
 10
181.777196
 20
198.249878
 10
181.725653
 20
198.321712
 10
181.643661
 20
198.383398
 10
181.536807
 20
198.430731
 10
181.412373
 20
198.460486
 10
181.278838
 20
198.470635
 10
181.145304
 20
198.460486
 10
181.02087
 20
198.430731
 10
180.914015
 20
198.383398
 10
180.832023
 20
198.321712
 10
180.780481
 20
198.249878
 10
180.762901
 20
198.17279
 10
180.780481
 20
198.095702
 10
180.832023
 20
198.023868
 10
180.914015
 20
197.962182
  0
LWPOLYLINE
  5
15A
330
1F
100
AcDbEntity
  8
0
  6
Continuous
 62
     7
370
    25
100
AcDbPolyline
 90
       25
 70
   128
 43
0.0
 10
172.831785
 20
193.29641
 10
172.938639
 20
193.249077
 10
173.063073
 20
193.219322
 10
173.196608
 20
193.209173
 10
173.330142
 20
193.219322
 10
173.454577
 20
193.249077
 10
173.561431
 20
193.29641
 10
173.643423
 20
193.358096
 10
173.694965
 20
193.42993
 10
173.712545
 20
193.507018
 10
173.694965
 20
193.584106
 10
173.643423
 20
193.65594
 10
173.561431
 20
193.717626
 10
173.454577
 20
193.764959
 10
173.330142
 20
193.794713
 10
173.196608
 20
193.804862
 10
173.063073
 20
193.794713
 10
172.938639
 20
193.764959
 10
172.831785
 20
193.717626
 10
172.749793
 20
193.65594
 10
172.69825
 20
193.584106
 10
172.68067
 20
193.507018
 10
172.69825
 20
193.42993
 10
172.749793
 20
193.358096
 10
172.831785
 20
193.29641
  0
LWPOLYLINE
  5
15B
330
1F
100
AcDbEntity
  8
0
  6
Continuous
 62
     7
370
    25
100
AcDbPolyline
 90
       19
 70
   128
 43
0.0
 10
177.013217
 20
195.710299
 10
177.103542
 20
195.673788
 10
177.210051
 20
195.657313
 10
177.319898
 20
195.662861
 10
177.419834
 20
195.689763
 10
177.497804
 20
195.734774
 10
177.544404
 20
195.792465
 10
177.554015
 20
195.855879
 10
177.525476
 20
195.917365
 10
177.462229
 20
195.969509
 10
177.371904
 20
196.00602
 10
177.265395
 20
196.022495
 10
177.155548
 20
196.016947
 10
177.055612
 20
195.990045
 10
176.977642
 20
195.945034
 10
176.931042
 20
195.887343
 10
176.921431
 20
195.823929
 10
176.94997
 20
195.762443
 10
177.013217
 20
195.710299
  0
LWPOLYLINE
  5
15C
330
1F
100
AcDbEntity
  8
0
  6
Continuous
 62
     7
370
    25
100
AcDbPolyline
 90
       19
 70
   128
 43
0.0
 10
185.095447
 20
195.710299
 10
185.185772
 20
195.673788
 10
185.292282
 20
195.657313
 10
185.402129
 20
195.662861
 10
185.502064
 20
195.689763
 10
185.580034
 20
195.734774
 10
185.626635
 20
195.792465
 10
185.636245
 20
195.855879
 10
185.607706
 20
195.917365
 10
185.54446
 20
195.969509
 10
185.454135
 20
196.00602
 10
185.347625
 20
196.022495
 10
185.237778
 20
196.016947
 10
185.137843
 20
195.990045
 10
185.059873
 20
195.945034
 10
185.013272
 20
195.887343
 10
185.003662
 20
195.823929
 10
185.032201
 20
195.762443
 10
185.095447
 20
195.710299
  0
LWPOLYLINE
  5
15D
330
1F
100
AcDbEntity
  8
0
  6
Continuous
 62
     7
370
    25
100
AcDbPolyline
 90
       19
 70
   128
 43
0.0
 10
185.095447
 20
191.044527
 10
185.185772
 20
191.008015
 10
185.292282
 20
190.99154
 10
185.402129
 20
190.997088
 10
185.502064
 20
191.02399
 10
185.580034
 20
191.069001
 10
185.626635
 20
191.126693
 10
185.636245
 20
191.190106
 10
185.607706
 20
191.251593
 10
185.54446
 20
191.303736
 10
185.454135
 20
191.340248
 10
185.347625
 20
191.356723
 10
185.237778
 20
191.351175
 10
185.137843
 20
191.324273
 10
185.059873
 20
191.279262
 10
185.013272
 20
191.22157
 10
185.003662
 20
191.158157
 10
185.032201
 20
191.09667
 10
185.095447
 20
191.044527
  0
LWPOLYLINE
  5
15E
330
1F
100
AcDbEntity
  8
0
  6
Continuous
 62
     7
370
    25
100
AcDbPolyline
 90
       19
 70
   128
 43
0.0
 10
177.013217
 20
191.044527
 10
177.103542
 20
191.008015
 10
177.210051
 20
190.99154
 10
177.319898
 20
190.997088
 10
177.419834
 20
191.02399
 10
177.497804
 20
191.069001
 10
177.544404
 20
191.126693
 10
177.554015
 20
191.190106
 10
177.525476
 20
191.251593
 10
177.462229
 20
191.303736
 10
177.371904
 20
191.340248
 10
177.265395
 20
191.356723
 10
177.155548
 20
191.351175
 10
177.055612
 20
191.324273
 10
176.977642
 20
191.279262
 10
176.931042
 20
191.22157
 10
176.921431
 20
191.158157
 10
176.94997
 20
191.09667
 10
177.013217
 20
191.044527
  0
LINE
  5
15F
330
1F
100
AcDbEntity
  8
0
  6
Continuous
 62
     7
370
    25
100
AcDbLine
 10
180.802588
 20
196.256351
 30
0.0
 11
180.802588
 21
194.973329
 31
0.0
  0
LWPOLYLINE
  5
160
330
1F
100
AcDbEntity
  8
0
  6
Continuous
 62
     7
370
    25
100
AcDbPolyline
 90
       12
 70
   128
 43
0.0
 10
180.802588
 20
194.973329
 10
180.82188
 20
194.895871
 10
180.878191
 20
194.824688
 10
180.966961
 20
194.765548
 10
181.080997
 20
194.72324
 10
181.211061
 20
194.701194
 10
181.346616
 20
194.701194
 10
181.47668
 20
194.72324
 10
181.590716
 20
194.765548
 10
181.679485
 20
194.824688
 10
181.735797
 20
194.895871
 10
181.755088
 20
194.973329
  0
LINE
  5
161
330
1F
100
AcDbEntity
  8
0
  6
Continuous
 62
     7
370
    25
100
AcDbLine
 10
181.755088
 20
194.973329
 30
0.0
 11
181.755088
 21
196.256351
 31
0.0
  0
LWPOLYLINE
  5
162
330
1F
100
AcDbEntity
  8
0
  6
Continuous
 62
     7
370
    25
100
AcDbPolyline
 90
       12
 70
   128
 43
0.0
 10
181.755088
 20
196.256351
 10
181.735797
 20
196.333808
 10
181.679485
 20
196.404991
 10
181.590716
 20
196.464131
 10
181.47668
 20
196.506439
 10
181.346616
 20
196.528485
 10
181.211061
 20
196.528485
 10
181.080997
 20
196.506439
 10
180.966961
 20
196.464131
 10
180.878191
 20
196.404991
 10
180.82188
 20
196.333808
 10
180.802588
 20
196.256351
  0
LINE
  5
163
330
1F
100
AcDbEntity
  8
0
  6
Continuous
 62
     7
370
    25
100
AcDbLine
 10
181.755088
 20
190.757685
 30
0.0
 11
181.755088
 21
192.040707
 31
0.0
  0
LWPOLYLINE
  5
164
330
1F
100
AcDbEntity
  8
0
  6
Continuous
 62
     7
370
    25
100
AcDbPolyline
 90
       12
 70
   128
 43
0.0
 10
181.755088
 20
192.040707
 10
181.735797
 20
192.118165
 10
181.679485
 20
192.189347
 10
181.590716
 20
192.248488
 10
181.47668
 20
192.290795
 10
181.346616
 20
192.312842
 10
181.211061
 20
192.312842
 10
181.080997
 20
192.290795
 10
180.966961
 20
192.248488
 10
180.878191
 20
192.189347
 10
180.82188
 20
192.118165
 10
180.802588
 20
192.040707
  0
LINE
  5
165
330
1F
100
AcDbEntity
  8
0
  6
Continuous
 62
     7
370
    25
100
AcDbLine
 10
180.802588
 20
192.040707
 30
0.0
 11
180.802588
 21
190.757685
 31
0.0
  0
LWPOLYLINE
  5
166
330
1F
100
AcDbEntity
  8
0
  6
Continuous
 62
     7
370
    25
100
AcDbPolyline
 90
       12
 70
   128
 43
0.0
 10
180.802588
 20
190.757685
 10
180.82188
 20
190.680227
 10
180.878191
 20
190.609045
 10
180.966961
 20
190.549904
 10
181.080997
 20
190.507597
 10
181.211061
 20
190.48555
 10
181.346616
 20
190.48555
 10
181.47668
 20
190.507597
 10
181.590716
 20
190.549904
 10
181.679485
 20
190.609045
 10
181.735797
 20
190.680227
 10
181.755088
 20
190.757685
  0
LINE
  5
167
330
1F
100
AcDbEntity
  8
0
  6
Continuous
 62
     7
370
    25
100
AcDbLine
 10
191.606133
 20
193.247808
 30
0.0
 11
191.606133
 21
192.729305
 31
0.0
  0
LINE
  5
168
330
1F
100
AcDbEntity
  8
0
  6
Continuous
 62
     7
370
    25
100
AcDbLine
 10
181.727851
 20
187.026694
 30
0.0
 11
191.606133
 21
192.729305
 31
0.0
  0
LINE
  5
169
330
1F
100
AcDbEntity
  8
0
  6
Continuous
 62
     7
370
    25
100
AcDbLine
 10
170.951544
 20
193.247808
 30
0.0
 11
170.951544
 21
192.729305
 31
0.0
  0
LINE
  5
16A
330
1F
100
AcDbEntity
  8
0
  6
Continuous
 62
     7
370
    25
100
AcDbLine
 10
170.951544
 20
192.729305
 30
0.0
 11
180.829825
 21
187.026694
 31
0.0
  0
ARC
  5
16B
330
1F
100
AcDbEntity
  8
0
  6
Continuous
 62
     7
370
    25
100
AcDbCircle
 10
181.278838
 20
187.772233
 30
0.0
 40
0.8486613476843085
100
AcDbArc
 50
72.585097
 51
107.414903
  0
LWPOLYLINE
  5
16C
330
1F
100
AcDbEntity
  8
0
  6
Continuous
 62
     7
370
    25
100
AcDbPolyline
 90
       12
 70
   128
 43
0.0
 10
181.755088
 20
191.522204
 10
181.735797
 20
191.599661
 10
181.679485
 20
191.670844
 10
181.590716
 20
191.729984
 10
181.47668
 20
191.772292
 10
181.346616
 20
191.794338
 10
181.211061
 20
191.794338
 10
181.080997
 20
191.772292
 10
180.966961
 20
191.729984
 10
180.878191
 20
191.670844
 10
180.82188
 20
191.599661
 10
180.802588
 20
191.522204
  0
ARC
  5
16D
330
1F
100
AcDbEntity
  8
0
  6
Continuous
 62
     7
370
    25
100
AcDbCircle
 10
189.361069
 20
192.438005
 30
0.0
 40
0.8486613476801372
100
AcDbArc
 50
72.585097
 51
107.414903
  0
ARC
  5
16E
330
1F
100
AcDbEntity
  8
0
  6
Continuous
 62
     7
370
    25
100
AcDbCircle
 10
173.196608
 20
192.438005
 30
0.0
 40
0.8486613476937745
100
AcDbArc
 50
72.585097
 51
107.414903
  0
ARC
  5
16F
330
1F
100
AcDbEntity
  8
0
  6
Continuous
 62
     7
370
    25
100
AcDbCircle
 10
191.47433
 20
193.020205
 30
0.0
 40
0.3193664418435281
100
AcDbArc
 50
294.374658
 51
354.305201
  0
ARC
  5
170
330
1F
100
AcDbEntity
  8
0
  6
Continuous
 62
     7
370
    25
100
AcDbCircle
 10
171.083347
 20
193.020205
 30
0.0
 40
0.3193664418438013
100
AcDbArc
 50
185.694799
 51
245.625342
  0
LWPOLYLINE
  5
171
330
1F
100
AcDbEntity
  8
0
  6
Continuous
 62
     7
370
    25
100
AcDbPolyline
 90
       12
 70
   128
 43
0.0
 10
181.755088
 20
195.737847
 10
181.735797
 20
195.815305
 10
181.679485
 20
195.886487
 10
181.590716
 20
195.945628
 10
181.47668
 20
195.987935
 10
181.346616
 20
196.009982
 10
181.211061
 20
196.009982
 10
181.080997
 20
195.987935
 10
180.966961
 20
195.945628
 10
180.878191
 20
195.886487
 10
180.82188
 20
195.815305
 10
180.802588
 20
195.737847
  0
ARC
  5
172
330
1F
100
AcDbEntity
  8
0
  6
Continuous
 62
     7
370
    25
100
AcDbCircle
 10
181.278838
 20
197.103778
 30
0.0
 40
0.8486613476915243
100
AcDbArc
 50
72.585097
 51
107.414903
  0
ARC
  5
173
330
1F
100
AcDbEntity
  8
0
  6
Continuous
 62
     7
370
    25
100
AcDbCircle
 10
181.296317
 20
197.453963
 30
0.0
 40
6.724864559492728
100
AcDbArc
 50
265.792599
 51
273.90725
  0
ARC
  5
174
330
1F
100
AcDbEntity
  8
0
  6
Continuous
 62
     7
370
    25
100
AcDbCircle
 10
181.296328
 20
188.498701
 30
0.0
 40
6.729066869451384
100
AcDbArc
 50
86.090772
 51
94.207808
  0
ARC
  5
175
330
1F
100
AcDbEntity
  8
0
  6
Continuous
 62
     7
370
    25
100
AcDbCircle
 10
181.296319
 20
187.862521
 30
0.0
 40
7.681966854269152
100
AcDbArc
 50
86.576245
 51
93.685023
  0
LWPOLYLINE
  5
176
330
1F
100
AcDbEntity
  8
0
  6
Continuous
 62
     7
370
    25
100
AcDbPolyline
 90
       36
 70
   128
 43
0.0
 10
185.225155
 20
178.266272
 10
184.900586
 20
178.093243
 10
184.55323
 20
177.935646
 10
184.185283
 20
177.79448
 10
183.79907
 20
177.670636
 10
183.397034
 20
177.564897
 10
182.981717
 20
177.477932
 10
182.555743
 20
177.410291
 10
182.121808
 20
177.362401
 10
181.682652
 20
177.334565
 10
181.241055
 20
177.32696
 10
180.799806
 20
177.339632
 10
180.361697
 20
177.372503
 10
179.929496
 20
177.425364
 10
179.505936
 20
177.497881
 10
179.093696
 20
177.589596
 10
178.695381
 20
177.699928
 10
178.31351
 20
177.82818
 10
177.950498
 20
177.973542
 10
177.608638
 20
178.135094
 10
177.290093
 20
178.311815
 10
176.996876
 20
178.502588
 10
176.730842
 20
178.706206
 10
176.493672
 20
178.921382
 10
176.286865
 20
179.146756
 10
176.11173
 20
179.380903
 10
175.969374
 20
179.622342
 10
175.860696
 20
179.869548
 10
175.786383
 20
180.120956
 10
175.746906
 20
180.374978
 10
175.742514
 20
180.630008
 10
175.773234
 20
180.884433
 10
175.838874
 20
181.136645
 10
175.939016
 20
181.385049
 10
176.073029
 20
181.628074
 10
176.216293
 20
181.83364
  0
LWPOLYLINE
  5
177
330
1F
100
AcDbEntity
  8
0
  6
Continuous
 62
     7
370
    25
100
AcDbPolyline
 90
       17
 70
   128
 43
0.0
 10
186.376293
 20
181.83364
 10
186.39732
 20
181.805888
 10
186.556192
 20
181.567907
 10
186.681808
 20
181.323391
 10
186.773376
 20
181.073887
 10
186.830316
 20
180.820972
 10
186.852268
 20
180.566244
 10
186.839093
 20
180.311315
 10
186.790875
 20
180.057797
 10
186.707919
 20
179.807291
 10
186.590748
 20
179.561382
 10
186.440104
 20
179.321624
 10
186.25694
 20
179.089533
 10
186.042412
 20
178.866578
 10
185.797878
 20
178.654166
 10
185.524884
 20
178.453642
 10
185.225155
 20
178.266272
  0
LWPOLYLINE
  5
178
330
1F
100
AcDbEntity
  8
0
  6
Continuous
 62
     7
370
    25
100
AcDbPolyline
 90
       31
 70
   128
 43
0.0
 10
185.225155
 20
41.899874
 10
184.900586
 20
41.726844
 10
184.55323
 20
41.569248
 10
184.185283
 20
41.428081
 10
183.79907
 20
41.304237
 10
183.397034
 20
41.198499
 10
182.981717
 20
41.111534
 10
182.555743
 20
41.043893
 10
182.121808
 20
40.996003
 10
181.682652
 20
40.968167
 10
181.241055
 20
40.960562
 10
180.799806
 20
40.973234
 10
180.361697
 20
41.006105
 10
179.929496
 20
41.058966
 10
179.505936
 20
41.131483
 10
179.093696
 20
41.223197
 10
178.695381
 20
41.33353
 10
178.31351
 20
41.461782
 10
177.950498
 20
41.607144
 10
177.608638
 20
41.768696
 10
177.290093
 20
41.945417
 10
176.996876
 20
42.13619
 10
176.730842
 20
42.339808
 10
176.493672
 20
42.554984
 10
176.286865
 20
42.780358
 10
176.11173
 20
43.014505
 10
175.969374
 20
43.255944
 10
175.860696
 20
43.503149
 10
175.786383
 20
43.754558
 10
175.746906
 20
44.00858
 10
175.740043
 20
44.167958
  0
LWPOLYLINE
  5
179
330
1F
100
AcDbEntity
  8
0
  6
Continuous
 62
     7
370
    25
100
AcDbPolyline
 90
       11
 70
   128
 43
0.0
 10
186.852543
 20
44.167958
 10
186.839093
 20
43.944917
 10
186.790875
 20
43.691398
 10
186.707919
 20
43.440892
 10
186.590748
 20
43.194983
 10
186.440104
 20
42.955226
 10
186.25694
 20
42.723135
 10
186.042412
 20
42.500179
 10
185.797878
 20
42.287768
 10
185.524884
 20
42.087244
 10
185.225155
 20
41.899874
  0
LWPOLYLINE
  5
17A
330
1F
100
AcDbEntity
  8
0
  6
Continuous
 62
     7
370
    25
100
AcDbPolyline
 90
       30
 70
   128
 43
0.0
 10
184.888395
 20
178.46068
 10
184.575218
 20
178.294431
 10
184.239041
 20
178.143895
 10
183.882223
 20
178.010126
 10
183.507267
 20
177.894062
 10
183.116802
 20
177.796518
 10
182.713567
 20
177.718178
 10
182.300392
 20
177.659592
 10
181.880173
 20
177.62117
 10
181.455859
 20
177.603182
 10
181.030426
 20
177.605754
 10
180.606857
 20
177.628868
 10
180.188125
 20
177.672362
 10
179.777165
 20
177.73593
 10
179.376861
 20
177.819128
 10
178.990021
 20
177.921371
 10
178.619357
 20
178.041943
 10
178.26747
 20
178.179996
 10
177.936828
 20
178.334564
 10
177.629751
 20
178.504562
 10
177.348391
 20
178.688798
 10
177.094723
 20
178.885978
 10
176.870526
 20
179.094721
 10
176.677373
 20
179.313562
 10
176.516618
 20
179.540966
 10
176.389389
 20
179.775338
 10
176.296579
 20
180.015034
 10
176.238838
 20
180.258372
 10
176.216571
 20
180.503646
 10
176.216293
 20
180.534356
  0
LWPOLYLINE
  5
17B
330
1F
100
AcDbEntity
  8
0
  6
Continuous
 62
     7
370
    25
100
AcDbPolyline
 90
       11
 70
   128
 43
0.0
 10
186.376293
 20
180.534356
 10
186.373786
 20
180.44224
 10
186.342626
 20
180.197289
 10
186.27607
 20
179.954702
 10
186.174585
 20
179.716181
 10
186.038881
 20
179.483399
 10
185.869912
 20
179.257988
 10
185.668862
 20
179.04153
 10
185.437142
 20
178.835544
 10
185.176376
 20
178.641473
 10
184.888395
 20
178.46068
  0
LINE
  5
17C
330
1F
100
AcDbEntity
  8
0
  6
Continuous
 62
     7
370
    25
100
AcDbLine
 10
183.060903
 20
33.583891
 30
0.0
 11
186.50868
 21
28.115424
 31
0.0
  0
SPLINE
  5
17D
330
1F
100
AcDbEntity
  8
0
  6
Continuous
 62
     7
370
    25
100
AcDbSpline
210
0.0
220
0.0
230
1.0
 70
     8
 71
     3
 72
    44
 73
    40
 74
     0
 42
0.000000001
 43
0.00000001
 40
0.0
 40
0.0
 40
0.0
 40
0.0
 40
0.0278025114345749
 40
0.0557751033425566
 40
0.0838086271787086
 40
0.1117924825253004
 40
0.1396172531866955
 40
0.1669016234686106
 40
0.1943596116494449
 40
0.2218910263605487
 40
0.2493911182265898
 40
0.2772511970959654
 40
0.3050090759310258
 40
0.3329455776191017
 40
0.3609733387364394
 40
0.3889818965945861
 40
0.4163654701770631
 40
0.4436179022655317
 40
0.4710338293750488
 40
0.4985542525245359
 40
0.5265740743678936
 40
0.5544836231292312
 40
0.5822308104626929
 40
0.6101229871255921
 40
0.6381365852749673
 40
0.6656618924650751
 40
0.6930934892845637
 40
0.7203526465776283
 40
0.7477173873373762
 40
0.7757177694321009
 40
0.8037486452345037
 40
0.8316994776258139
 40
0.8594699323120576
 40
0.8873096288985758
 40
0.9148004668600935
 40
0.9423335107072282
 40
0.9698039734895526
 40
0.9971085067425707
 40
1.0
 40
1.0
 40
1.0
 40
1.0
 10
186.5086795882787
 20
28.11542366361806
 30
0.0
 10
186.0866331054422
 20
28.00297589009701
 30
0.0
 10
185.2399582915154
 20
27.77739244942343
 30
0.0
 10
183.9266194443607
 20
27.51970249577419
 30
0.0
 10
182.5929012290346
 20
27.32408386337776
 30
0.0
 10
181.2506727745483
 20
27.19840100816158
 30
0.0
 10
179.9208688700584
 20
27.1424292146583
 30
0.0
 10
178.6098135434331
 20
27.15345448281067
 30
0.0
 10
177.3235849600977
 20
27.22720975388687
 30
0.0
 10
176.0637948732308
 20
27.36462555956501
 30
0.0
 10
174.8373215132609
 20
27.56525096999983
 30
0.0
 10
173.6564783246121
 20
27.82820898754136
 30
0.0
 10
172.5280612778839
 20
28.1524210106112
 30
0.0
 10
171.4651283439118
 20
28.53085120063236
 30
0.0
 10
170.4754204471502
 20
28.96231648281637
 30
0.0
 10
169.575845996441
 20
29.43903325332283
 30
0.0
 10
168.7733509557539
 20
29.95483516522673
 30
0.0
 10
168.0693686729421
 20
30.50587251327945
 30
0.0
 10
167.4625750767407
 20
31.08851747673344
 30
0.0
 10
166.9543646184741
 20
31.70401593384692
 30
0.0
 10
166.5529952533265
 20
32.34627013973817
 30
0.0
 10
166.264596951061
 20
33.00849443342668
 30
0.0
 10
166.0922006786626
 20
33.68333924653409
 30
0.0
 10
166.0366308013569
 20
34.3630004937948
 30
0.0
 10
166.0988820981027
 20
35.03989531352311
 30
0.0
 10
166.276559839823
 20
35.70691468932716
 30
0.0
 10
166.5648230731126
 20
36.35674155302871
 30
0.0
 10
166.9618913767225
 20
36.99025857092238
 30
0.0
 10
167.4686602734773
 20
37.60428515717432
 30
0.0
 10
168.0857213294104
 20
38.19460366522498
 30
0.0
 10
168.8098845883547
 20
38.75462403282393
 30
0.0
 10
169.6288607306738
 20
39.27422588263985
 30
0.0
 10
170.5359242772561
 20
39.75087045216809
 30
0.0
 10
171.5201116803882
 20
40.1764105352423
 30
0.0
 10
172.5757197915162
 20
40.54770075665119
 30
0.0
 10
173.6910590743741
 20
40.86467953839396
 30
0.0
 10
174.8645376588401
 20
41.11745312236137
 30
0.0
 10
175.7106798725815
 20
41.27117681201116
 30
0.0
 10
176.172107490877
 20
41.32058652811963
 30
0.0
 10
176.2162926039955
 20
41.32531787450819
 30
0.0
  0
SPLINE
  5
17E
330
1F
100
AcDbEntity
  8
0
  6
Continuous
 62
     7
370
    25
100
AcDbSpline
210
0.0
220
0.0
230
1.0
 70
     8
 71
     3
 72
    30
 73
    26
 74
     0
 42
0.000000001
 43
0.00000001
 40
0.0
 40
0.0
 40
0.0
 40
0.0
 40
0.0052593593210767
 40
0.0504601118955589
 40
0.0962525600740778
 40
0.1418770263241476
 40
0.1877950874982867
 40
0.2338631479852368
 40
0.2798996448769975
 40
0.3249088812146813
 40
0.3697025657552367
 40
0.4147649802342072
 40
0.4599991504902389
 40
0.5060541615240985
 40
0.5519279212981334
 40
0.5975348143735113
 40
0.6433800203548158
 40
0.6894248017627822
 40
0.7346669997124206
 40
0.7797551698392914
 40
0.8245599083177912
 40
0.869538189931229
 40
0.9130228782327586
 40
0.9565612770978127
 40
1.0
 40
1.0
 40
1.0
 40
1.0
 10
186.3762926039955
 20
40.60214579456014
 30
0.0
 10
186.4251666797901
 20
40.58973649763878
 30
0.0
 10
186.8940814625285
 20
40.4706774121171
 30
0.0
 10
187.7529751532191
 20
40.18401542762712
 30
0.0
 10
188.9367208109177
 20
39.74127474357702
 30
0.0
 10
190.0643585240831
 20
39.23234246978573
 30
0.0
 10
191.1275014696409
 20
38.66662103769355
 30
0.0
 10
192.1171527923526
 20
38.04597695948355
 30
0.0
 10
193.016742338473
 20
37.38161940249629
 30
0.0
 10
193.8192334270214
 20
36.68154816962396
 30
0.0
 10
194.5232167570256
 20
35.95067769148649
 30
0.0
 10
195.1300100718841
 20
35.18417238361484
 30
0.0
 10
195.6382206039619
 20
34.3819628210305
 30
0.0
 10
196.0395899576819
 20
33.55187248286605
 30
0.0
 10
196.3279882305924
 20
32.70254014654951
 30
0.0
 10
196.5003846312484
 20
31.84461823086604
 30
0.0
 10
196.5559540221697
 20
30.97823204246188
 30
0.0
 10
196.4937045411234
 20
30.11359370587423
 30
0.0
 10
196.316020138522
 20
29.25978931462515
 30
0.0
 10
196.0277815377364
 20
28.42577236331937
 30
0.0
 10
195.6306217966249
 20
27.61229313484913
 30
0.0
 10
195.1336632877642
 20
26.82918183029277
 30
0.0
 10
194.5410515200639
 20
26.08001668944986
 30
0.0
 10
193.8692153692469
 20
25.36691616915329
 30
0.0
 10
193.348469800602
 20
24.92195907955869
 30
0.0
 10
193.0883954040331
 20
24.69973549563752
 30
0.0
  0
SPLINE
  5
17F
330
1F
100
AcDbEntity
  8
0
  6
Continuous
 62
     7
370
    25
100
AcDbSpline
210
0.0
220
0.0
230
1.0
 70
     8
 71
     3
 72
    11
 73
     7
 74
     0
 42
0.000000001
 43
0.00000001
 40
0.0
 40
0.0
 40
0.0
 40
0.0
 40
0.2040847377668581
 40
0.4686331461144491
 40
0.734113986153416
 40
1.0
 40
1.0
 40
1.0
 40
1.0
 10
186.1475259900886
 20
28.68824395160384
 30
0.0
 10
186.6307634442505
 20
28.41313019991126
 30
0.0
 10
187.7404058944514
 20
27.78139543911633
 30
0.0
 10
189.4350510402543
 20
26.80578948836561
 30
0.0
 10
191.265452661295
 20
25.75144384951507
 30
0.0
 10
192.4804390391314
 20
25.0504827094593
 30
0.0
 10
193.0883954491306
 20
24.69973489365569
 30
0.0
  0
SPLINE
  5
180
330
1F
100
AcDbEntity
  8
0
  6
Continuous
 62
     7
370
    25
100
AcDbSpline
210
0.0
220
0.0
230
1.0
 70
     8
 71
     3
 72
    21
 73
    17
 74
     0
 42
0.000000001
 43
0.00000001
 40
0.0
 40
0.0
 40
0.0
 40
0.0
 40
0.0753123461889174
 40
0.1510728422107059
 40
0.2262669669876214
 40
0.3017067726474397
 40
0.3774457980003103
 40
0.4525610180101301
 40
0.5281073952640145
 40
0.6038035185599037
 40
0.6788792590364645
 40
0.7545111272642809
 40
0.8301429954920975
 40
0.9052187359686582
 40
0.9809148592645474
 40
1.0
 40
1.0
 40
1.0
 40
1.0
 10
183.0609027809664
 20
33.58389058066606
 30
0.0
 10
182.8032206889549
 20
33.48210173506941
 30
0.0
 10
182.2863231549262
 20
33.27791834432685
 30
0.0
 10
181.4771866469059
 20
33.05937896620353
 30
0.0
 10
180.6649342789108
 20
32.91387327640191
 30
0.0
 10
179.868022563114
 20
32.84086028826194
 30
0.0
 10
179.1074628285093
 20
32.83574604866235
 30
0.0
 10
178.3990815578409
 20
32.90277270714975
 30
0.0
 10
177.7629811999054
 20
33.02714719226911
 30
0.0
 10
177.2143075518752
 20
33.20400257175141
 30
0.0
 10
176.7648862052412
 20
33.43180259888236
 30
0.0
 10
176.4284835356825
 20
33.69019472429605
 30
0.0
 10
176.2092876008149
 20
33.97401678891029
 30
0.0
 10
176.1250153965642
 20
34.27614250773525
 30
0.0
 10
176.1293997831676
 20
34.50295837869596
 30
0.0
 10
176.2017285039188
 20
34.62428994422739
 30
0.0
 10
176.2162926039955
 20
34.64872124958594
 30
0.0
  0
SPLINE
  5
181
330
1F
100
AcDbEntity
  8
0
  6
Continuous
 62
     7
370
    25
100
AcDbSpline
210
0.0
220
0.0
230
1.0
 70
     8
 71
     3
 72
    12
 73
     8
 74
     0
 42
0.000000001
 43
0.00000001
 40
0.0
 40
0.0
 40
0.0
 40
0.0
 40
0.2025753823472483
 40
0.4472800465535434
 40
0.6915006231562807
 40
0.9343273874469061
 40
1.0
 40
1.0
 40
1.0
 40
1.0
 10
186.3762926039955
 20
31.66960384695569
 30
0.0
 10
186.4084012902325
 20
31.49555746462326
 30
0.0
 10
186.4792962553979
 20
31.11126854910894
 30
0.0
 10
186.4369577192608
 20
30.50788833870824
 30
0.0
 10
186.2739938561737
 20
29.88176180318738
 30
0.0
 10
186.0684523583839
 20
29.42216526699633
 30
0.0
 10
185.9060717451047
 20
29.1780121446282
 30
0.0
 10
185.8715045469109
 20
29.1260374094668
 30
0.0
  0
LINE
  5
182
330
1F
100
AcDbEntity
  8
0
  6
Continuous
 62
     7
370
    25
100
AcDbLine
 10
186.50868
 20
28.115424
 30
0.0
 11
186.50868
 21
27.078417
 31
0.0
  0
SPLINE
  5
183
330
1F
100
AcDbEntity
  8
0
  6
Continuous
 62
     7
370
    25
100
AcDbSpline
210
0.0
220
0.0
230
1.0
 70
     8
 71
     3
 72
    29
 73
    25
 74
     0
 42
0.000000001
 43
0.00000001
 40
0.0
 40
0.0
 40
0.0
 40
0.0
 40
0.0456270645110275
 40
0.0915332503075714
 40
0.1375394322869763
 40
0.1834641026596811
 40
0.2291276970784646
 40
0.2739044333788967
 40
0.3189660962800385
 40
0.3641482604186788
 40
0.4092790202273288
 40
0.4550005594072208
 40
0.5005543767764521
 40
0.5464013344419066
 40
0.5923980591482261
 40
0.638363269135165
 40
0.6833028092673693
 40
0.728027131381544
 40
0.7730197673093887
 40
0.8181838930527515
 40
0.8641675885128853
 40
0.9099703133783662
 40
0.9555065847847332
 40
1.0
 40
1.0
 40
1.0
 40
1.0
 10
186.5086795882787
 20
27.07841683252318
 30
0.0
 10
186.0866331054422
 20
26.9659690590021
 30
0.0
 10
185.2399582915154
 20
26.74038561832853
 30
0.0
 10
183.9266194443608
 20
26.4826956646793
 30
0.0
 10
182.5929012290343
 20
26.28707703228286
 30
0.0
 10
181.2506727745493
 20
26.16139417706669
 30
0.0
 10
179.9208688700545
 20
26.10542238356341
 30
0.0
 10
178.6098135434475
 20
26.11644765171571
 30
0.0
 10
177.3235849600435
 20
26.1902029227923
 30
0.0
 10
176.0637948734335
 20
26.32761872846891
 30
0.0
 10
174.8373215125011
 20
26.52824413890946
 30
0.0
 10
173.6564783274848
 20
26.79120215642934
 30
0.0
 10
172.5280612671824
 20
27.11541417958011
 30
0.0
 10
171.465128384196
 20
27.49384436929729
 30
0.0
 10
170.4754202963356
 20
27.92530965262065
 30
0.0
 10
169.5758465534871
 20
28.40202641890673
 30
0.0
 10
168.7733489324708
 20
28.91782834619499
 30
0.0
 10
168.069376208378
 20
29.46886563725694
 30
0.0
 10
167.4625467144957
 20
30.05151081473927
 30
0.0
 10
166.954471712901
 20
30.66700846423608
 30
0.0
 10
166.5525882259253
 20
31.30926573541272
 30
0.0
 10
166.2661047106122
 20
31.97147861280239
 30
0.0
 10
166.0882740569244
 20
32.6400615768403
 30
0.0
 10
166.0679410231598
 20
33.08563874055291
 30
0.0
 10
166.0578922698228
 20
33.30584665751285
 30
0.0
  0
SPLINE
  5
184
330
1F
100
AcDbEntity
  8
0
  6
Continuous
 62
     7
370
    25
100
AcDbSpline
210
0.0
220
0.0
230
1.0
 70
     8
 71
     3
 72
    17
 73
    13
 74
     0
 42
0.000000001
 43
0.00000001
 40
0.0
 40
0.0
 40
0.0
 40
0.0
 40
0.0031491957296871
 40
0.1161875186189065
 40
0.2272555272763297
 40
0.3379454030328792
 40
0.4479394640367917
 40
0.5583595673482684
 40
0.668994316911335
 40
0.7797559615140965
 40
0.8902255811338088
 40
0.9999999999999999
 40
0.9999999999999999
 40
0.9999999999999999
 40
0.9999999999999999
 10
196.5346929381683
 20
29.9666080059344
 30
0.0
 10
196.5352243053705
 20
29.95853590116775
 30
0.0
 10
196.5548287510744
 20
29.6607208704828
 30
0.0
 10
196.4851708639756
 20
29.07637878952636
 30
0.0
 10
196.3182876957373
 20
28.22283440670971
 30
0.0
 10
196.0271563685681
 20
27.38876369488734
 30
0.0
 10
195.6308740861056
 20
26.57524244076713
 30
0.0
 10
195.1273824404419
 20
25.78306285885093
 30
0.0
 10
194.5204227095164
 20
25.01559894676803
 30
0.0
 10
193.8131044426774
 20
24.28154637896765
 30
0.0
 10
193.0203132322005
 20
23.58388966163406
 30
0.0
 10
192.4207411182105
 20
23.15666279267578
 30
0.0
 10
192.1219013365115
 20
22.94372362943518
 30
0.0
  0
LINE
  5
185
330
1F
100
AcDbEntity
  8
0
  6
Continuous
 62
     7
370
    25
100
AcDbLine
 10
193.088395
 20
24.699735
 30
0.0
 11
192.121901
 21
22.943724
 31
0.0
  0
SPLINE
  5
186
330
1F
100
AcDbEntity
  8
0
  6
Continuous
 62
     7
370
    25
100
AcDbSpline
210
0.0
220
0.0
230
1.0
 70
     8
 71
     3
 72
    12
 73
     8
 74
     0
 42
0.000000001
 43
0.00000001
 40
0.0
 40
0.0
 40
0.0
 40
0.0
 40
0.2901035189768768
 40
0.5528633146624171
 40
0.7882890281205573
 40
0.9963940994390403
 40
1.0
 40
1.0
 40
1.0
 40
1.0
 10
188.5100878399732
 20
24.96691900085084
 30
0.0
 10
188.2170763790355
 20
25.14254508496062
 30
0.0
 10
187.6586712686826
 20
25.47724360686947
 30
0.0
 10
186.8625763329985
 20
25.96004376771387
 30
0.0
 10
186.1494742857234
 20
26.3989472011083
 30
0.0
 10
185.698039661286
 20
26.67841510659538
 30
0.0
 10
185.4844566159419
 20
26.81455539180186
 30
0.0
 10
185.4808188298783
 20
26.8168741584035
 30
0.0
  0
SPLINE
  5
187
330
1F
100
AcDbEntity
  8
0
  6
Continuous
 62
     7
370
    25
100
AcDbSpline
210
0.0
220
0.0
230
1.0
 70
     8
 71
     3
 72
     9
 73
     5
 74
     0
 42
0.000000001
 43
0.00000001
 40
0.0
 40
0.0
 40
0.0
 40
0.0
 40
0.5740337366398196
 40
1.0
 40
1.0
 40
1.0
 40
1.0
 10
192.1219013371667
 20
22.9437236298808
 30
0.0
 10
191.4332493002639
 20
23.33287298834169
 30
0.0
 10
190.2335775859603
 20
24.0107936986101
 30
0.0
 10
189.0249337275101
 20
24.68130965006837
 30
0.0
 10
188.5100922193928
 20
24.96692682443445
 30
0.0
  0
LINE
  5
188
330
1F
100
AcDbEntity
  8
0
  6
Continuous
 62
     7
370
    25
100
AcDbLine
 10
186.376293
 20
30.632597
 30
0.0
 11
186.402471
 21
30.452715
 31
0.0
  0
LINE
  5
189
330
1F
100
AcDbEntity
  8
0
  6
Continuous
 62
     7
370
    25
100
AcDbLine
 10
188.509868
 20
24.96705
 30
0.0
 11
185.359157
 21
26.785917
 31
0.0
  0
ENDSEC
  0
SECTION
  2
OBJECTS
  0
DICTIONARY
  5
C
330
0
100
AcDbDictionary
281
     1
  3
ACAD_DETAILVIEWSTYLE
350
1BF
  3
ACAD_GROUP
350
D
  3
ACAD_IMAGE_DICT
350
1B4
  3
ACAD_LAYOUT
350
1A
  3
ACAD_MATERIAL
350
1A6
  3
ACAD_MLEADERSTYLE
350
1BC
  3
ACAD_MLINESTYLE
350
17
  3
ACAD_PLOTSETTINGS
350
19
  3
ACAD_PLOTSTYLENAME
350
E
  3
ACAD_SCALELIST
350
47
  3
ACAD_SECTIONVIEWSTYLE
350
1C0
  3
ACAD_TABLESTYLE
350
1B0
  3
ACAD_VISUALSTYLE
350
18D
  3
ACDB_RECOMPOSE_DATA
350
1BB
  3
AcDbVariableDictionary
350
1BD
  3
HOST_DOC_SETTINGS
350
1B2
  3
MCS_STREAM_DICT
350
1AC
  0
SUN
  5
1AF
330
29
100
AcDbSun
 90
        1
290
     0
 63
     7
421
 16777215
 40
1.0
291
     1
 91
  2455826
 92
 54000000
292
     0
 70
     2
 71
   256
280
     1
  0
DICTIONARY
  5
1BF
102
{ACAD_REACTORS
330
C
102
}
330
C
100
AcDbDictionary
281
     1
  0
DICTIONARY
  5
D
102
{ACAD_REACTORS
330
C
102
}
330
C
100
AcDbDictionary
281
     1
  0
DICTIONARY
  5
1B4
102
{ACAD_REACTORS
330
C
102
}
330
C
100
AcDbDictionary
281
     1
  0
DICTIONARY
  5
1A
102
{ACAD_REACTORS
330
C
102
}
330
C
100
AcDbDictionary
281
     1
  3
Layout1
350
1E
  3
Layout2
350
26
  3
Model
350
22
  0
DICTIONARY
  5
1A6
102
{ACAD_REACTORS
330
C
102
}
330
C
100
AcDbDictionary
281
     1
  3
ByBlock
350
1A8
  3
ByLayer
350
1A7
  3
Global
350
1A9
  0
DICTIONARY
  5
1BC
102
{ACAD_REACTORS
330
C
102
}
330
C
100
AcDbDictionary
281
     1
  0
DICTIONARY
  5
17
102
{ACAD_REACTORS
330
C
102
}
330
C
100
AcDbDictionary
281
     1
  3
Standard
350
18
  0
DICTIONARY
  5
19
102
{ACAD_REACTORS
330
C
102
}
330
C
100
AcDbDictionary
281
     1
  0
ACDBDICTIONARYWDFLT
  5
E
102
{ACAD_REACTORS
330
C
102
}
330
C
100
AcDbDictionary
281
     1
  3
Normal
350
F
100
AcDbDictionaryWithDefault
340
F
  0
DICTIONARY
  5
47
102
{ACAD_REACTORS
330
C
102
}
330
C
100
AcDbDictionary
281
     1
  3
A0
350
48
  3
A1
350
49
  3
A2
350
4A
  3
A3
350
4B
  3
A4
350
4C
  3
A5
350
4D
  3
A6
350
4E
  3
A7
350
4F
  3
A8
350
50
  3
A9
350
51
  3
B0
350
52
  3
B1
350
53
  3
B2
350
54
  3
B3
350
55
  3
B4
350
56
  3
B5
350
57
  3
B6
350
58
  0
DICTIONARY
  5
1C0
102
{ACAD_REACTORS
330
C
102
}
330
C
100
AcDbDictionary
281
     1
  0
DICTIONARY
  5
1B0
102
{ACAD_REACTORS
330
C
102
}
330
C
100
AcDbDictionary
281
     1
  3
Standard
350
1B1
  0
DICTIONARY
  5
18D
102
{ACAD_REACTORS
330
C
102
}
330
C
100
AcDbDictionary
281
     1
  3
2dWireframe
350
192
  3
Basic
350
195
  3
Brighten
350
199
  3
ColorChange
350
19D
  3
Conceptual
350
197
  3
Dim
350
198
  3
EdgeColorOff
350
1A0
  3
Facepattern
350
19C
  3
Flat
350
18E
  3
FlatWithEdges
350
18F
  3
Gouraud
350
190
  3
GouraudWithEdges
350
191
  3
Hidden
350
194
  3
JitterOff
350
19E
  3
Linepattern
350
19B
  3
OverhangOff
350
19F
  3
Realistic
350
196
  3
Shaded
350
1A5
  3
Shaded with edges
350
1A4
  3
Shades of Gray
350
1A1
  3
Sketchy
350
1A2
  3
Thicken
350
19A
  3
Wireframe
350
193
  3
X-Ray
350
1A3
  0
XRECORD
  5
1BB
102
{ACAD_REACTORS
330
C
102
}
330
C
100
AcDbXrecord
280
     1
 90
        1
330
1B1
  0
DICTIONARY
  5
1BD
102
{ACAD_REACTORS
330
C
102
}
330
C
100
AcDbDictionary
281
     1
  3
MSLTSCALE
350
1BE
  0
DICTIONARY
  5
1B2
102
{ACAD_REACTORS
330
C
102
}
330
C
100
AcDbDictionary
281
     1
  3
NCDocParameters
350
1B3
  0
DICTIONARY
  5
1AC
102
{ACAD_REACTORS
330
C
102
}
330
C
100
AcDbDictionary
281
     1
  3
MC_VERSION_DATA
350
1B7
  3
MCS_DOCUMENT_ID
350
1AD
  3
MCS_PARAMS_DATA
350
1B5
  0
LAYOUT
  5
1E
102
{ACAD_REACTORS
330
1A
102
}
330
1A
100
AcDbPlotSettings
  1

  2
none_device
  4

  6

 40
0.0
 41
0.0
 42
0.0
 43
0.0
 44
0.0
 45
0.0
 46
0.0
 47
0.0
 48
0.0
 49
0.0
140
0.0
141
0.0
142
1.0
143
1.0
 70
   688
 72
     1
 73
     0
 74
     5
  7

 75
    16
 76
     0
 77
     2
 78
   300
147
1.0
148
0.0
149
0.0
100
AcDbLayout
  1
Layout1
 70
     0
 71
     1
 10
0.0
 20
0.0
 11
420.0
 21
297.0
 12
0.0
 22
0.0
 32
0.0
 14
1.000000E+20
 24
1.000000E+20
 34
1.000000E+20
 15
-1.000000E+20
 25
-1.000000E+20
 35
-1.000000E+20
146
0.0
 13
0.0
 23
0.0
 33
0.0
 16
1.0
 26
0.0
 36
0.0
 17
0.0
 27
1.0
 37
0.0
 76
     0
330
1B
  0
LAYOUT
  5
26
102
{ACAD_REACTORS
330
1A
102
}
330
1A
100
AcDbPlotSettings
  1

  2
none_device
  4

  6

 40
0.0
 41
0.0
 42
0.0
 43
0.0
 44
0.0
 45
0.0
 46
0.0
 47
0.0
 48
0.0
 49
0.0
140
0.0
141
0.0
142
1.0
143
1.0
 70
   688
 72
     1
 73
     0
 74
     5
  7

 75
    16
 76
     0
 77
     2
 78
   300
147
1.0
148
0.0
149
0.0
100
AcDbLayout
  1
Layout2
 70
     1
 71
     2
 10
0.0
 20
0.0
 11
0.0
 21
0.0
 12
0.0
 22
0.0
 32
0.0
 14
0.0
 24
0.0
 34
0.0
 15
0.0
 25
0.0
 35
0.0
146
0.0
 13
0.0
 23
0.0
 33
0.0
 16
1.0
 26
0.0
 36
0.0
 17
0.0
 27
1.0
 37
0.0
 76
     0
330
23
  0
LAYOUT
  5
22
102
{ACAD_REACTORS
330
1A
102
}
330
1A
100
AcDbPlotSettings
  1

  2
none_device
  4
Letter_(8.50_x_11.00_Inches)
  6

 40
6.35
 41
6.35
 42
6.350005
 43
6.350005
 44
215.9
 45
279.4
 46
0.0
 47
0.0
 48
0.0
 49
0.0
140
0.0
141
0.0
142
1.0
143
1.0
 70
  1712
 72
     1
 73
     0
 74
     0
  7

 75
     0
 76
     0
 77
     2
 78
   300
147
1.0
148
0.0
149
0.0
100
AcDbLayout
  1
Model
 70
     1
 71
     0
 10
0.0
 20
0.0
 11
279.4
 21
215.9
 12
0.0
 22
0.0
 32
0.0
 14
0.0
 24
0.0
 34
0.0
 15
279.4
 25
215.9
 35
0.0
146
0.0
 13
0.0
 23
0.0
 33
0.0
 16
1.0
 26
0.0
 36
0.0
 17
0.0
 27
1.0
 37
0.0
 76
     0
330
1F
331
29
  0
MATERIAL
  5
1A8
102
{ACAD_REACTORS
330
1A6
102
}
330
1A6
100
AcDbMaterial
  1
ByBlock
 72
     1
 94
      127
  0
MATERIAL
  5
1A7
102
{ACAD_REACTORS
330
1A6
102
}
330
1A6
100
AcDbMaterial
  1
ByLayer
 72
     1
 94
      127
  0
MATERIAL
  5
1A9
102
{ACAD_REACTORS
330
1A6
102
}
330
1A6
100
AcDbMaterial
  1
Global
 72
     1
 94
      127
  0
MLINESTYLE
  5
18
102
{ACAD_REACTORS
330
17
102
}
330
17
100
AcDbMlineStyle
  2
Standard
 70
     0
  3

 62
   256
 51
90.0
 52
90.0
 71
     2
 49
0.5
 62
   256
  6
BYLAYER
 49
-0.5
 62
   256
  6
BYLAYER
  0
ACDBPLACEHOLDER
  5
F
102
{ACAD_REACTORS
330
E
102
}
330
E
  0
SCALE
  5
48
102
{ACAD_REACTORS
330
47
102
}
330
47
100
AcDbScale
 70
     0
300
1:1
140
1.0
141
1.0
290
     1
  0
SCALE
  5
49
102
{ACAD_REACTORS
330
47
102
}
330
47
100
AcDbScale
 70
     0
300
1:2
140
1.0
141
2.0
290
     0
  0
SCALE
  5
4A
102
{ACAD_REACTORS
330
47
102
}
330
47
100
AcDbScale
 70
     0
300
1:4
140
1.0
141
4.0
290
     0
  0
SCALE
  5
4B
102
{ACAD_REACTORS
330
47
102
}
330
47
100
AcDbScale
 70
     0
300
1:5
140
1.0
141
5.0
290
     0
  0
SCALE
  5
4C
102
{ACAD_REACTORS
330
47
102
}
330
47
100
AcDbScale
 70
     0
300
1:8
140
1.0
141
8.0
290
     0
  0
SCALE
  5
4D
102
{ACAD_REACTORS
330
47
102
}
330
47
100
AcDbScale
 70
     0
300
1:10
140
1.0
141
10.0
290
     0
  0
SCALE
  5
4E
102
{ACAD_REACTORS
330
47
102
}
330
47
100
AcDbScale
 70
     0
300
1:16
140
1.0
141
16.0
290
     0
  0
SCALE
  5
4F
102
{ACAD_REACTORS
330
47
102
}
330
47
100
AcDbScale
 70
     0
300
1:20
140
1.0
141
20.0
290
     0
  0
SCALE
  5
50
102
{ACAD_REACTORS
330
47
102
}
330
47
100
AcDbScale
 70
     0
300
1:30
140
1.0
141
30.0
290
     0
  0
SCALE
  5
51
102
{ACAD_REACTORS
330
47
102
}
330
47
100
AcDbScale
 70
     0
300
1:40
140
1.0
141
40.0
290
     0
  0
SCALE
  5
52
102
{ACAD_REACTORS
330
47
102
}
330
47
100
AcDbScale
 70
     0
300
1:50
140
1.0
141
50.0
290
     0
  0
SCALE
  5
53
102
{ACAD_REACTORS
330
47
102
}
330
47
100
AcDbScale
 70
     0
300
1:100
140
1.0
141
100.0
290
     0
  0
SCALE
  5
54
102
{ACAD_REACTORS
330
47
102
}
330
47
100
AcDbScale
 70
     0
300
2:1
140
2.0
141
1.0
290
     0
  0
SCALE
  5
55
102
{ACAD_REACTORS
330
47
102
}
330
47
100
AcDbScale
 70
     0
300
4:1
140
4.0
141
1.0
290
     0
  0
SCALE
  5
56
102
{ACAD_REACTORS
330
47
102
}
330
47
100
AcDbScale
 70
     0
300
8:1
140
8.0
141
1.0
290
     0
  0
SCALE
  5
57
102
{ACAD_REACTORS
330
47
102
}
330
47
100
AcDbScale
 70
     0
300
10:1
140
10.0
141
1.0
290
     0
  0
SCALE
  5
58
102
{ACAD_REACTORS
330
47
102
}
330
47
100
AcDbScale
 70
     0
300
100:1
140
100.0
141
1.0
290
     0
  0
TABLESTYLE
  5
1B1
102
{ACAD_REACTORS
330
1B0
102
}
102
{ACAD_XDICTIONARY
360
1B9
102
}
330
1B0
100
AcDbTableStyle
  3
Standard
 70
     0
 71
     8
 40
1.5
 41
1.5
280
     0
281
     0
  7
Standard
140
4.5
170
     2
 62
     0
 63
   257
283
     0
 90
        4
 91
        0
  1

274
    -2
284
     1
 64
     0
275
    -2
285
     1
 65
     0
276
    -2
286
     1
 66
     0
277
    -2
287
     1
 67
     0
278
    -2
288
     1
 68
     0
279
    -2
289
     1
 69
     0
  7
Standard
140
6.0
170
     5
 62
     0
 63
   257
283
     0
 90
        4
 91
        0
  1

274
    -2
284
     1
 64
     0
275
    -2
285
     1
 65
     0
276
    -2
286
     1
 66
     0
277
    -2
287
     1
 67
     0
278
    -2
288
     1
 68
     0
279
    -2
289
     1
 69
     0
  7
Standard
140
4.5
170
     5
 62
     0
 63
   257
283
     0
 90
        4
 91
        0
  1

274
    -2
284
     1
 64
     0
275
    -2
285
     1
 65
     0
276
    -2
286
     1
 66
     0
277
    -2
287
     1
 67
     0
278
    -2
288
     1
 68
     0
279
    -2
289
     1
 69
     0
  0
VISUALSTYLE
  5
192
102
{ACAD_REACTORS
330
18D
102
}
330
18D
100
AcDbVisualStyle
  2
2dWireframe
 70
     4
177
     3
291
     0
 70
    58
 90
        0
176
     1
 90
        2
176
     1
 90
        0
176
     1
 90
        0
176
     1
 40
0.6
176
     1
 40
30.0
176
     1
 62
     7
420
 16777215
176
     1
 90
        1
176
     1
 90
        4
176
     1
 62
     7
176
     1
 62
   257
176
     1
 90
        1
176
     1
 90
        1
176
     1
 40
1.0
176
     1
 90
        0
176
     1
 62
   257
176
     1
 40
1.0
176
     1
 90
        1
176
     1
 90
        6
176
     1
 90
        2
176
     1
 62
     7
176
     1
 90
        5
176
     1
 90
        0
176
     1
 90
        0
176
     1
290
     0
176
     1
 90
        1
176
     1
 40
0.0
176
     1
 90
        0
176
     1
290
     1
176
     1
290
     1
176
     1
290
     0
176
     1
290
     0
176
     1
290
     0
176
     1
290
     0
176
     1
290
     0
176
     1
290
     0
176
     1
290
     0
176
     1
 90
       50
176
     1
 40
0.0
176
     1
 40
1.0
176
     1
 90
        0
176
     1
 62
    18
420
        0
176
     1
 90
       50
176
     1
 90
        3
176
     1
 62
     5
420
      255
176
     1
290
     0
176
     1
 90
       50
176
     1
 90
       50
176
     1
 90
       50
176
     1
290
     0
176
     1
 90
       50
176
     1
 62
   256
176
     0
 40
1.0
176
     0
 90
        2
176
     1
  1
strokes_ogs.tif
176
     1
290
     0
176
     1
 40
1.0
176
     1
 40
1.0
176
     1
  0
VISUALSTYLE
  5
195
102
{ACAD_REACTORS
330
18D
102
}
330
18D
100
AcDbVisualStyle
  2
Basic
 70
     7
177
     3
291
     1
 70
    58
 90
        1
176
     1
 90
        0
176
     1
 90
        1
176
     1
 90
        0
176
     1
 40
0.6
176
     1
 40
30.0
176
     1
 62
     7
420
 16777215
176
     1
 90
        0
176
     1
 90
        4
176
     1
 62
     7
176
     1
 62
   257
176
     1
 90
        1
176
     1
 90
        1
176
     1
 40
1.0
176
     1
 90
        8
176
     1
 62
     7
176
     1
 40
1.0
176
     1
 90
        1
176
     1
 90
        6
176
     1
 90
        2
176
     1
 62
     7
176
     1
 90
        5
176
     1
 90
        0
176
     1
 90
        0
176
     1
290
     0
176
     1
 90
        1
176
     1
 40
0.0
176
     1
 90
        0
176
     1
290
     0
176
     1
290
     1
176
     1
290
     1
176
     1
290
     0
176
     1
290
     0
176
     1
290
     0
176
     1
290
     0
176
     1
290
     0
176
     1
290
     0
176
     1
 90
       50
176
     1
 40
0.0
176
     1
 40
1.0
176
     1
 90
        0
176
     1
 62
    18
420
        0
176
     1
 90
       50
176
     1
 90
        3
176
     1
 62
     5
420
      255
176
     1
290
     0
176
     1
 90
       50
176
     1
 90
       50
176
     1
 90
       50
176
     1
290
     0
176
     1
 90
       50
176
     1
 62
   256
176
     0
 40
1.0
176
     0
 90
        2
176
     1
  1
strokes_ogs.tif
176
     1
290
     0
176
     1
 40
1.0
176
     1
 40
1.0
176
     1
  0
VISUALSTYLE
  5
199
102
{ACAD_REACTORS
330
18D
102
}
330
18D
100
AcDbVisualStyle
  2
Brighten
 70
    12
177
     3
291
     1
 70
    58
 90
        2
176
     1
 90
        2
176
     1
 90
        0
176
     1
 90
        0
176
     1
 40
0.6
176
     1
 40
30.0
176
     1
 62
     7
420
 16777215
176
     1
 90
        1
176
     1
 90
        4
176
     1
 62
     7
176
     1
 62
   257
176
     1
 90
        1
176
     1
 90
        1
176
     1
 40
1.0
176
     1
 90
        8
176
     1
 62
     7
176
     1
 40
1.0
176
     1
 90
        1
176
     1
 90
        6
176
     1
 90
        2
176
     1
 62
     7
176
     1
 90
        5
176
     1
 90
        0
176
     1
 90
        0
176
     1
290
     0
176
     1
 90
        1
176
     1
 40
50.0
176
     1
 90
        0
176
     1
290
     0
176
     1
290
     1
176
     1
290
     1
176
     1
290
     0
176
     1
290
     0
176
     1
290
     0
176
     1
290
     0
176
     1
290
     0
176
     1
290
     0
176
     1
 90
       50
176
     1
 40
0.0
176
     1
 40
1.0
176
     1
 90
        0
176
     1
 62
    18
420
        0
176
     1
 90
       50
176
     1
 90
        3
176
     1
 62
     5
420
      255
176
     1
290
     0
176
     1
 90
       50
176
     1
 90
       50
176
     1
 90
       50
176
     1
290
     0
176
     1
 90
       50
176
     1
 62
   256
176
     0
 40
1.0
176
     0
 90
        2
176
     1
  1
strokes_ogs.tif
176
     1
290
     0
176
     1
 40
1.0
176
     1
 40
1.0
176
     1
  0
VISUALSTYLE
  5
19D
102
{ACAD_REACTORS
330
18D
102
}
330
18D
100
AcDbVisualStyle
  2
ColorChange
 70
    16
177
     3
291
     1
 70
    58
 90
        2
176
     1
 90
        2
176
     1
 90
        3
176
     1
 90
        0
176
     1
 40
0.6
176
     1
 40
30.0
176
     1
 62
     8
420
  8421504
176
     1
 90
        1
176
     1
 90
        4
176
     1
 62
     7
176
     1
 62
   257
176
     1
 90
        1
176
     1
 90
        1
176
     1
 40
1.0
176
     1
 90
        8
176
     1
 62
     8
420
  8421504
176
     1
 40
1.0
176
     1
 90
        1
176
     1
 90
        6
176
     1
 90
        2
176
     1
 62
     7
176
     1
 90
        5
176
     1
 90
        0
176
     1
 90
        0
176
     1
290
     0
176
     1
 90
        1
176
     1
 40
0.0
176
     1
 90
        0
176
     1
290
     0
176
     1
290
     1
176
     1
290
     1
176
     1
290
     0
176
     1
290
     0
176
     1
290
     0
176
     1
290
     0
176
     1
290
     0
176
     1
290
     0
176
     1
 90
       50
176
     1
 40
0.0
176
     1
 40
1.0
176
     1
 90
        0
176
     1
 62
    18
420
        0
176
     1
 90
       50
176
     1
 90
        3
176
     1
 62
     5
420
      255
176
     1
290
     0
176
     1
 90
       50
176
     1
 90
       50
176
     1
 90
       50
176
     1
290
     0
176
     1
 90
       50
176
     1
 62
   256
176
     0
 40
1.0
176
     0
 90
        2
176
     1
  1
strokes_ogs.tif
176
     1
290
     0
176
     1
 40
1.0
176
     1
 40
1.0
176
     1
  0
VISUALSTYLE
  5
197
102
{ACAD_REACTORS
330
18D
102
}
330
18D
100
AcDbVisualStyle
  2
Conceptual
 70
     9
177
     3
291
     0
 70
    58
 90
        3
176
     1
 90
        2
176
     1
 90
        0
176
     1
 90
        0
176
     1
 40
0.6
176
     1
 40
30.0
176
     1
 62
     7
420
 16777215
176
     1
 90
        2
176
     1
 90
        2
176
     1
 62
     7
176
     1
 62
   257
176
     1
 90
        1
176
     1
 90
        1
176
     1
 40
179.0
176
     1
 90
        8
176
     1
 62
     7
176
     1
 40
1.0
176
     1
 90
        1
176
     1
 90
        6
176
     1
 90
        2
176
     1
 62
     7
176
     1
 90
        3
176
     1
 90
        0
176
     1
 90
        0
176
     1
290
     0
176
     1
 90
        1
176
     1
 40
0.0
176
     1
 90
        0
176
     1
290
     0
176
     1
290
     1
176
     1
290
     1
176
     1
290
     0
176
     1
290
     0
176
     1
290
     0
176
     1
290
     0
176
     1
290
     0
176
     1
290
     0
176
     1
 90
       50
176
     1
 40
0.0
176
     1
 40
1.0
176
     1
 90
        0
176
     1
 62
    18
420
        0
176
     1
 90
       50
176
     1
 90
        3
176
     1
 62
     5
420
      255
176
     1
290
     0
176
     1
 90
       50
176
     1
 90
       50
176
     1
 90
       50
176
     1
290
     0
176
     1
 90
       50
176
     1
 62
   256
176
     0
 40
1.0
176
     0
 90
        2
176
     1
  1
strokes_ogs.tif
176
     1
290
     0
176
     1
 40
1.0
176
     1
 40
1.0
176
     1
  0
VISUALSTYLE
  5
198
102
{ACAD_REACTORS
330
18D
102
}
330
18D
100
AcDbVisualStyle
  2
Dim
 70
    11
177
     3
291
     1
 70
    58
 90
        2
176
     1
 90
        2
176
     1
 90
        0
176
     1
 90
        0
176
     1
 40
0.6
176
     1
 40
30.0
176
     1
 62
     7
420
 16777215
176
     1
 90
        1
176
     1
 90
        4
176
     1
 62
     7
176
     1
 62
   257
176
     1
 90
        1
176
     1
 90
        1
176
     1
 40
1.0
176
     1
 90
        8
176
     1
 62
     7
176
     1
 40
1.0
176
     1
 90
        1
176
     1
 90
        6
176
     1
 90
        2
176
     1
 62
     7
176
     1
 90
        5
176
     1
 90
        0
176
     1
 90
        0
176
     1
290
     0
176
     1
 90
        1
176
     1
 40
-50.0
176
     1
 90
        0
176
     1
290
     0
176
     1
290
     1
176
     1
290
     1
176
     1
290
     0
176
     1
290
     0
176
     1
290
     0
176
     1
290
     0
176
     1
290
     0
176
     1
290
     0
176
     1
 90
       50
176
     1
 40
0.0
176
     1
 40
1.0
176
     1
 90
        0
176
     1
 62
    18
420
        0
176
     1
 90
       50
176
     1
 90
        3
176
     1
 62
     5
420
      255
176
     1
290
     0
176
     1
 90
       50
176
     1
 90
       50
176
     1
 90
       50
176
     1
290
     0
176
     1
 90
       50
176
     1
 62
   256
176
     0
 40
1.0
176
     0
 90
        2
176
     1
  1
strokes_ogs.tif
176
     1
290
     0
176
     1
 40
1.0
176
     1
 40
1.0
176
     1
  0
VISUALSTYLE
  5
1A0
102
{ACAD_REACTORS
330
18D
102
}
330
18D
100
AcDbVisualStyle
  2
EdgeColorOff
 70
    22
177
     3
291
     1
 70
    58
 90
        2
176
     0
 90
        2
176
     0
 90
        0
176
     0
 90
        0
176
     0
 40
0.6
176
     0
 40
30.0
176
     0
 62
     7
420
 16777215
176
     0
 90
        1
176
     0
 90
        4
176
     0
 62
     7
176
     0
 62
   257
176
     0
 90
        1
176
     0
 90
        1
176
     0
 40
1.0
176
     0
 90
        8
176
     2
 62
     7
176
     0
 40
1.0
176
     0
 90
        1
176
     0
 90
        6
176
     0
 90
        2
176
     0
 62
     7
176
     0
 90
        5
176
     0
 90
        0
176
     0
 90
        0
176
     0
290
     0
176
     0
 90
        1
176
     0
 40
0.0
176
     0
 90
        0
176
     0
290
     0
176
     0
290
     1
176
     0
290
     1
176
     0
290
     0
176
     0
290
     0
176
     0
290
     0
176
     0
290
     0
176
     0
290
     0
176
     0
290
     0
176
     0
 90
       50
176
     0
 40
0.0
176
     0
 40
1.0
176
     0
 90
        0
176
     0
 62
    18
420
        0
176
     0
 90
       50
176
     0
 90
        3
176
     0
 62
     5
420
      255
176
     0
290
     0
176
     0
 90
       50
176
     0
 90
       50
176
     0
 90
       50
176
     0
290
     0
176
     0
 90
       50
176
     0
 62
   256
176
     0
 40
1.0
176
     0
 90
        2
176
     0
  1
strokes_ogs.tif
176
     0
290
     0
176
     0
 40
1.0
176
     0
 40
1.0
176
     0
  0
VISUALSTYLE
  5
19C
102
{ACAD_REACTORS
330
18D
102
}
330
18D
100
AcDbVisualStyle
  2
Facepattern
 70
    15
177
     3
291
     1
 70
    58
 90
        2
176
     1
 90
        2
176
     1
 90
        0
176
     1
 90
        0
176
     1
 40
0.6
176
     1
 40
30.0
176
     1
 62
     7
420
 16777215
176
     1
 90
        1
176
     1
 90
        4
176
     1
 62
     7
176
     1
 62
   257
176
     1
 90
        1
176
     1
 90
        1
176
     1
 40
1.0
176
     1
 90
        8
176
     1
 62
     7
176
     1
 40
1.0
176
     1
 90
        1
176
     1
 90
        6
176
     1
 90
        2
176
     1
 62
     7
176
     1
 90
        5
176
     1
 90
        0
176
     1
 90
        0
176
     1
290
     0
176
     1
 90
        1
176
     1
 40
0.0
176
     1
 90
        0
176
     1
290
     0
176
     1
290
     1
176
     1
290
     1
176
     1
290
     0
176
     1
290
     0
176
     1
290
     0
176
     1
290
     0
176
     1
290
     0
176
     1
290
     0
176
     1
 90
       50
176
     1
 40
0.0
176
     1
 40
1.0
176
     1
 90
        0
176
     1
 62
    18
420
        0
176
     1
 90
       50
176
     1
 90
        3
176
     1
 62
     5
420
      255
176
     1
290
     0
176
     1
 90
       50
176
     1
 90
       50
176
     1
 90
       50
176
     1
290
     0
176
     1
 90
       50
176
     1
 62
   256
176
     0
 40
1.0
176
     0
 90
        2
176
     1
  1
strokes_ogs.tif
176
     1
290
     0
176
     1
 40
1.0
176
     1
 40
1.0
176
     1
  0
VISUALSTYLE
  5
18E
102
{ACAD_REACTORS
330
18D
102
}
330
18D
100
AcDbVisualStyle
  2
Flat
 70
     0
177
     3
291
     1
 70
    58
 90
        2
176
     1
 90
        1
176
     1
 90
        1
176
     1
 90
        2
176
     1
 40
0.6
176
     1
 40
30.0
176
     1
 62
     7
420
 16777215
176
     1
 90
        0
176
     1
 90
        0
176
     1
 62
     7
176
     1
 62
   257
176
     1
 90
        1
176
     1
 90
        1
176
     1
 40
1.0
176
     1
 90
        8
176
     1
 62
     7
176
     1
 40
1.0
176
     1
 90
        1
176
     1
 90
        6
176
     1
 90
        2
176
     1
 62
     7
176
     1
 90
        5
176
     1
 90
        0
176
     1
 90
        0
176
     1
290
     0
176
     1
 90
       13
176
     1
 40
0.0
176
     1
 90
        0
176
     1
290
     0
176
     1
290
     1
176
     1
290
     1
176
     1
290
     0
176
     1
290
     0
176
     1
290
     0
176
     1
290
     0
176
     1
290
     0
176
     1
290
     0
176
     1
 90
       50
176
     1
 40
0.0
176
     1
 40
1.0
176
     1
 90
        0
176
     1
 62
    18
420
        0
176
     1
 90
       50
176
     1
 90
        3
176
     1
 62
     5
420
      255
176
     1
290
     0
176
     1
 90
       50
176
     1
 90
       50
176
     1
 90
       50
176
     1
290
     0
176
     1
 90
       50
176
     1
 62
   256
176
     0
 40
1.0
176
     0
 90
        2
176
     1
  1
strokes_ogs.tif
176
     1
290
     0
176
     1
 40
1.0
176
     1
 40
1.0
176
     1
  0
VISUALSTYLE
  5
18F
102
{ACAD_REACTORS
330
18D
102
}
330
18D
100
AcDbVisualStyle
  2
FlatWithEdges
 70
     1
177
     3
291
     1
 70
    58
 90
        2
176
     1
 90
        1
176
     1
 90
        1
176
     1
 90
        2
176
     1
 40
0.6
176
     1
 40
30.0
176
     1
 62
     7
420
 16777215
176
     1
 90
        1
176
     1
 90
        0
176
     1
 62
     7
176
     1
 62
   257
176
     1
 90
        1
176
     1
 90
        1
176
     1
 40
1.0
176
     1
 90
        0
176
     1
 62
   257
176
     1
 40
1.0
176
     1
 90
        1
176
     1
 90
        6
176
     1
 90
        2
176
     1
 62
     7
176
     1
 90
        5
176
     1
 90
        0
176
     1
 90
        0
176
     1
290
     0
176
     1
 90
       13
176
     1
 40
0.0
176
     1
 90
        0
176
     1
290
     0
176
     1
290
     1
176
     1
290
     1
176
     1
290
     0
176
     1
290
     0
176
     1
290
     0
176
     1
290
     0
176
     1
290
     0
176
     1
290
     0
176
     1
 90
       50
176
     1
 40
0.0
176
     1
 40
1.0
176
     1
 90
        0
176
     1
 62
    18
420
        0
176
     1
 90
       50
176
     1
 90
        3
176
     1
 62
     5
420
      255
176
     1
290
     0
176
     1
 90
       50
176
     1
 90
       50
176
     1
 90
       50
176
     1
290
     0
176
     1
 90
       50
176
     1
 62
   256
176
     0
 40
1.0
176
     0
 90
        2
176
     1
  1
strokes_ogs.tif
176
     1
290
     0
176
     1
 40
1.0
176
     1
 40
1.0
176
     1
  0
VISUALSTYLE
  5
190
102
{ACAD_REACTORS
330
18D
102
}
330
18D
100
AcDbVisualStyle
  2
Gouraud
 70
     2
177
     3
291
     1
 70
    58
 90
        2
176
     1
 90
        2
176
     1
 90
        1
176
     1
 90
        2
176
     1
 40
0.6
176
     1
 40
30.0
176
     1
 62
     7
420
 16777215
176
     1
 90
        0
176
     1
 90
        0
176
     1
 62
     7
176
     1
 62
   257
176
     1
 90
        1
176
     1
 90
        1
176
     1
 40
1.0
176
     1
 90
        0
176
     1
 62
     7
176
     1
 40
1.0
176
     1
 90
        1
176
     1
 90
        6
176
     1
 90
        2
176
     1
 62
     7
176
     1
 90
        5
176
     1
 90
        0
176
     1
 90
        0
176
     1
290
     0
176
     1
 90
       13
176
     1
 40
0.0
176
     1
 90
        0
176
     1
290
     0
176
     1
290
     1
176
     1
290
     1
176
     1
290
     0
176
     1
290
     0
176
     1
290
     0
176
     1
290
     0
176
     1
290
     0
176
     1
290
     0
176
     1
 90
       50
176
     1
 40
0.0
176
     1
 40
1.0
176
     1
 90
        0
176
     1
 62
    18
420
        0
176
     1
 90
       50
176
     1
 90
        3
176
     1
 62
     5
420
      255
176
     1
290
     0
176
     1
 90
       50
176
     1
 90
       50
176
     1
 90
       50
176
     1
290
     0
176
     1
 90
       50
176
     1
 62
   256
176
     0
 40
1.0
176
     0
 90
        2
176
     1
  1
strokes_ogs.tif
176
     1
290
     0
176
     1
 40
1.0
176
     1
 40
1.0
176
     1
  0
VISUALSTYLE
  5
191
102
{ACAD_REACTORS
330
18D
102
}
330
18D
100
AcDbVisualStyle
  2
GouraudWithEdges
 70
     3
177
     3
291
     1
 70
    58
 90
        2
176
     1
 90
        2
176
     1
 90
        1
176
     1
 90
        2
176
     1
 40
0.6
176
     1
 40
30.0
176
     1
 62
     7
420
 16777215
176
     1
 90
        1
176
     1
 90
        0
176
     1
 62
     7
176
     1
 62
   257
176
     1
 90
        1
176
     1
 90
        1
176
     1
 40
1.0
176
     1
 90
        0
176
     1
 62
   257
176
     1
 40
1.0
176
     1
 90
        1
176
     1
 90
        6
176
     1
 90
        2
176
     1
 62
     7
176
     1
 90
        5
176
     1
 90
        0
176
     1
 90
        0
176
     1
290
     0
176
     1
 90
       13
176
     1
 40
0.0
176
     1
 90
        0
176
     1
290
     0
176
     1
290
     1
176
     1
290
     1
176
     1
290
     0
176
     1
290
     0
176
     1
290
     0
176
     1
290
     0
176
     1
290
     0
176
     1
290
     0
176
     1
 90
       50
176
     1
 40
0.0
176
     1
 40
1.0
176
     1
 90
        0
176
     1
 62
    18
420
        0
176
     1
 90
       50
176
     1
 90
        3
176
     1
 62
     5
420
      255
176
     1
290
     0
176
     1
 90
       50
176
     1
 90
       50
176
     1
 90
       50
176
     1
290
     0
176
     1
 90
       50
176
     1
 62
   256
176
     0
 40
1.0
176
     0
 90
        2
176
     1
  1
strokes_ogs.tif
176
     1
290
     0
176
     1
 40
1.0
176
     1
 40
1.0
176
     1
  0
VISUALSTYLE
  5
194
102
{ACAD_REACTORS
330
18D
102
}
330
18D
100
AcDbVisualStyle
  2
Hidden
 70
     6
177
     3
291
     0
 70
    58
 90
        1
176
     1
 90
        2
176
     1
 90
        2
176
     1
 90
        0
176
     1
 40
0.6
176
     1
 40
30.0
176
     1
 62
     7
420
 16777215
176
     1
 90
        2
176
     1
 90
        2
176
     1
 62
     7
176
     1
 62
   257
176
     1
 90
        2
176
     1
 90
        1
176
     1
 40
40.0
176
     1
 90
        0
176
     1
 62
   257
176
     1
 40
1.0
176
     1
 90
        1
176
     1
 90
        6
176
     1
 90
        2
176
     1
 62
     7
176
     1
 90
        3
176
     1
 90
        0
176
     1
 90
        0
176
     1
290
     0
176
     1
 90
        1
176
     1
 40
0.0
176
     1
 90
        0
176
     1
290
     0
176
     1
290
     1
176
     1
290
     1
176
     1
290
     0
176
     1
290
     0
176
     1
290
     0
176
     1
290
     0
176
     1
290
     0
176
     1
290
     0
176
     1
 90
       50
176
     1
 40
0.0
176
     1
 40
1.0
176
     1
 90
        0
176
     1
 62
    18
420
        0
176
     1
 90
       50
176
     1
 90
        3
176
     1
 62
     5
420
      255
176
     1
290
     0
176
     1
 90
       50
176
     1
 90
       50
176
     1
 90
       50
176
     1
290
     0
176
     1
 90
       50
176
     1
 62
   256
176
     0
 40
1.0
176
     0
 90
        2
176
     1
  1
strokes_ogs.tif
176
     1
290
     0
176
     1
 40
1.0
176
     1
 40
1.0
176
     1
  0
VISUALSTYLE
  5
19E
102
{ACAD_REACTORS
330
18D
102
}
330
18D
100
AcDbVisualStyle
  2
JitterOff
 70
    20
177
     3
291
     1
 70
    58
 90
        2
176
     0
 90
        2
176
     0
 90
        0
176
     0
 90
        0
176
     0
 40
0.6
176
     0
 40
30.0
176
     0
 62
     7
420
 16777215
176
     0
 90
        1
176
     0
 90
        4
176
     0
 62
     7
176
     0
 62
   257
176
     0
 90
        1
176
     0
 90
        1
176
     0
 40
1.0
176
     0
 90
       10
176
     2
 62
     7
176
     0
 40
1.0
176
     0
 90
        1
176
     0
 90
        6
176
     0
 90
        2
176
     0
 62
     7
176
     0
 90
        5
176
     0
 90
        0
176
     0
 90
        0
176
     0
290
     0
176
     0
 90
        1
176
     0
 40
0.0
176
     0
 90
        0
176
     0
290
     0
176
     0
290
     1
176
     0
290
     1
176
     0
290
     0
176
     0
290
     0
176
     0
290
     0
176
     0
290
     0
176
     0
290
     0
176
     0
290
     0
176
     0
 90
       50
176
     0
 40
0.0
176
     0
 40
1.0
176
     0
 90
        0
176
     0
 62
    18
420
        0
176
     0
 90
       50
176
     0
 90
        3
176
     0
 62
     5
420
      255
176
     0
290
     0
176
     0
 90
       50
176
     0
 90
       50
176
     0
 90
       50
176
     0
290
     0
176
     0
 90
       50
176
     0
 62
   256
176
     0
 40
1.0
176
     0
 90
        2
176
     0
  1
strokes_ogs.tif
176
     0
290
     0
176
     0
 40
1.0
176
     0
 40
1.0
176
     0
  0
VISUALSTYLE
  5
19B
102
{ACAD_REACTORS
330
18D
102
}
330
18D
100
AcDbVisualStyle
  2
Linepattern
 70
    14
177
     3
291
     1
 70
    58
 90
        2
176
     1
 90
        2
176
     1
 90
        0
176
     1
 90
        0
176
     1
 40
0.6
176
     1
 40
30.0
176
     1
 62
     7
420
 16777215
176
     1
 90
        1
176
     1
 90
        4
176
     1
 62
     7
176
     1
 62
   257
176
     1
 90
        7
176
     1
 90
        7
176
     1
 40
1.0
176
     1
 90
        8
176
     1
 62
     7
176
     1
 40
1.0
176
     1
 90
        1
176
     1
 90
        6
176
     1
 90
        2
176
     1
 62
     7
176
     1
 90
        5
176
     1
 90
        0
176
     1
 90
        0
176
     1
290
     0
176
     1
 90
        1
176
     1
 40
0.0
176
     1
 90
        0
176
     1
290
     0
176
     1
290
     1
176
     1
290
     1
176
     1
290
     0
176
     1
290
     0
176
     1
290
     0
176
     1
290
     0
176
     1
290
     0
176
     1
290
     0
176
     1
 90
       50
176
     1
 40
0.0
176
     1
 40
1.0
176
     1
 90
        0
176
     1
 62
    18
420
        0
176
     1
 90
       50
176
     1
 90
        3
176
     1
 62
     5
420
      255
176
     1
290
     0
176
     1
 90
       50
176
     1
 90
       50
176
     1
 90
       50
176
     1
290
     0
176
     1
 90
       50
176
     1
 62
   256
176
     0
 40
1.0
176
     0
 90
        2
176
     1
  1
strokes_ogs.tif
176
     1
290
     0
176
     1
 40
1.0
176
     1
 40
1.0
176
     1
  0
VISUALSTYLE
  5
19F
102
{ACAD_REACTORS
330
18D
102
}
330
18D
100
AcDbVisualStyle
  2
OverhangOff
 70
    21
177
     3
291
     1
 70
    58
 90
        2
176
     0
 90
        2
176
     0
 90
        0
176
     0
 90
        0
176
     0
 40
0.6
176
     0
 40
30.0
176
     0
 62
     7
420
 16777215
176
     0
 90
        1
176
     0
 90
        4
176
     0
 62
     7
176
     0
 62
   257
176
     0
 90
        1
176
     0
 90
        1
176
     0
 40
1.0
176
     0
 90
        9
176
     2
 62
     7
176
     0
 40
1.0
176
     0
 90
        1
176
     0
 90
        6
176
     0
 90
        2
176
     0
 62
     7
176
     0
 90
        5
176
     0
 90
        0
176
     0
 90
        0
176
     0
290
     0
176
     0
 90
        1
176
     0
 40
0.0
176
     0
 90
        0
176
     0
290
     0
176
     0
290
     1
176
     0
290
     1
176
     0
290
     0
176
     0
290
     0
176
     0
290
     0
176
     0
290
     0
176
     0
290
     0
176
     0
290
     0
176
     0
 90
       50
176
     0
 40
0.0
176
     0
 40
1.0
176
     0
 90
        0
176
     0
 62
    18
420
        0
176
     0
 90
       50
176
     0
 90
        3
176
     0
 62
     5
420
      255
176
     0
290
     0
176
     0
 90
       50
176
     0
 90
       50
176
     0
 90
       50
176
     0
290
     0
176
     0
 90
       50
176
     0
 62
   256
176
     0
 40
1.0
176
     0
 90
        2
176
     0
  1
strokes_ogs.tif
176
     0
290
     0
176
     0
 40
1.0
176
     0
 40
1.0
176
     0
  0
VISUALSTYLE
  5
196
102
{ACAD_REACTORS
330
18D
102
}
330
18D
100
AcDbVisualStyle
  2
Realistic
 70
     8
177
     3
291
     0
 70
    58
 90
        2
176
     1
 90
        3
176
     1
 90
        0
176
     1
 90
        2
176
     1
 40
0.6
176
     1
 40
30.0
176
     1
 62
     7
420
 16777215
176
     1
 90
        0
176
     1
 90
        0
176
     1
 62
     7
176
     1
 62
   257
176
     1
 90
        1
176
     1
 90
        1
176
     1
 40
1.0
176
     1
 90
        8
176
     1
 62
   257
176
     1
 40
1.0
176
     1
 90
        1
176
     1
 90
        6
176
     1
 90
        2
176
     1
 62
     7
176
     1
 90
        3
176
     1
 90
        0
176
     1
 90
        0
176
     1
290
     0
176
     1
 90
       13
176
     1
 40
0.0
176
     1
 90
        0
176
     1
290
     0
176
     1
290
     1
176
     1
290
     1
176
     1
290
     0
176
     1
290
     0
176
     1
290
     0
176
     1
290
     0
176
     1
290
     0
176
     1
290
     0
176
     1
 90
       50
176
     1
 40
0.0
176
     1
 40
1.0
176
     1
 90
        0
176
     1
 62
    18
420
        0
176
     1
 90
       50
176
     1
 90
        3
176
     1
 62
     5
420
      255
176
     1
290
     0
176
     1
 90
       50
176
     1
 90
       50
176
     1
 90
       50
176
     1
290
     0
176
     1
 90
       50
176
     1
 62
   256
176
     0
 40
1.0
176
     0
 90
        2
176
     1
  1
strokes_ogs.tif
176
     1
290
     0
176
     1
 40
1.0
176
     1
 40
1.0
176
     1
  0
VISUALSTYLE
  5
1A5
102
{ACAD_REACTORS
330
18D
102
}
330
18D
100
AcDbVisualStyle
  2
Shaded
 70
    27
177
     3
291
     0
 70
    58
 90
        2
176
     1
 90
        2
176
     1
 90
        1
176
     1
 90
        2
176
     1
 40
0.6
176
     1
 40
30.0
176
     1
 62
     7
420
 16777215
176
     1
 90
        0
176
     1
 90
        4
176
     1
 62
     7
176
     1
 62
   257
176
     1
 90
        1
176
     1
 90
        1
176
     1
 40
1.0
176
     1
 90
        8
176
     1
 62
   257
176
     1
 40
1.0
176
     1
 90
        1
176
     1
 90
        6
176
     1
 90
        2
176
     1
 62
     8
420
  7895160
176
     1
 90
        3
176
     1
 90
        0
176
     1
 90
        0
176
     1
290
     0
176
     1
 90
        5
176
     1
 40
0.0
176
     1
 90
        0
176
     1
290
     0
176
     1
290
     1
176
     1
290
     1
176
     1
290
     0
176
     1
290
     0
176
     1
290
     0
176
     1
290
     0
176
     1
290
     0
176
     1
290
     0
176
     1
 90
       50
176
     1
 40
0.0
176
     1
 40
1.0
176
     1
 90
        0
176
     1
 62
    18
420
        0
176
     1
 90
       50
176
     1
 90
        3
176
     1
 62
     5
420
      255
176
     1
290
     0
176
     1
 90
       50
176
     1
 90
       50
176
     1
 90
       50
176
     1
290
     0
176
     1
 90
       50
176
     1
 62
   256
176
     0
 40
1.0
176
     0
 90
        2
176
     1
  1
strokes_ogs.tif
176
     1
290
     0
176
     1
 40
1.0
176
     1
 40
1.0
176
     1
  0
VISUALSTYLE
  5
1A4
102
{ACAD_REACTORS
330
18D
102
}
330
18D
100
AcDbVisualStyle
  2
Shaded with edges
 70
    26
177
     3
291
     0
 70
    58
 90
        2
176
     1
 90
        2
176
     1
 90
        1
176
     1
 90
        2
176
     1
 40
0.6
176
     1
 40
30.0
176
     1
 62
     7
420
 16777215
176
     1
 90
        1
176
     1
 90
       10
176
     1
 62
     7
176
     1
 62
   257
176
     1
 90
        2
176
     1
 90
        1
176
     1
 40
1.0
176
     1
 90
        8
176
     1
 62
   257
176
     1
 40
1.0
176
     1
 90
        1
176
     1
 90
        6
176
     1
 90
        2
176
     1
 62
     7
176
     1
 90
        3
176
     1
 90
        0
176
     1
 90
        0
176
     1
290
     0
176
     1
 90
        5
176
     1
 40
0.0
176
     1
 90
        0
176
     1
290
     0
176
     1
290
     1
176
     1
290
     1
176
     1
290
     0
176
     1
290
     0
176
     1
290
     0
176
     1
290
     0
176
     1
290
     0
176
     1
290
     0
176
     1
 90
       50
176
     1
 40
0.0
176
     1
 40
1.0
176
     1
 90
        0
176
     1
 62
    18
420
        0
176
     1
 90
       50
176
     1
 90
        3
176
     1
 62
     5
420
      255
176
     1
290
     0
176
     1
 90
       50
176
     1
 90
       50
176
     1
 90
       50
176
     1
290
     0
176
     1
 90
       50
176
     1
 62
   256
176
     0
 40
1.0
176
     0
 90
        2
176
     1
  1
strokes_ogs.tif
176
     1
290
     0
176
     1
 40
1.0
176
     1
 40
1.0
176
     1
  0
VISUALSTYLE
  5
1A1
102
{ACAD_REACTORS
330
18D
102
}
330
18D
100
AcDbVisualStyle
  2
Shades of Gray
 70
    23
177
     3
291
     0
 70
    58
 90
        2
176
     1
 90
        2
176
     1
 90
        3
176
     1
 90
        0
176
     1
 40
0.6
176
     1
 40
30.0
176
     1
 62
     7
420
 16777215
176
     1
 90
        2
176
     1
 90
        2
176
     1
 62
     7
176
     1
 62
     7
176
     1
 90
        1
176
     1
 90
        1
176
     1
 40
40.0
176
     1
 90
        8
176
     1
 62
     7
176
     1
 40
1.0
176
     1
 90
        1
176
     1
 90
        6
176
     1
 90
        2
176
     1
 62
     7
176
     1
 90
        3
176
     1
 90
        0
176
     1
 90
        0
176
     1
290
     0
176
     1
 90
        1
176
     1
 40
0.0
176
     1
 90
        0
176
     1
290
     0
176
     1
290
     1
176
     1
290
     1
176
     1
290
     0
176
     1
290
     0
176
     1
290
     0
176
     1
290
     0
176
     1
290
     0
176
     1
290
     0
176
     1
 90
       50
176
     1
 40
0.0
176
     1
 40
1.0
176
     1
 90
        0
176
     1
 62
    18
420
        0
176
     1
 90
       50
176
     1
 90
        3
176
     1
 62
     5
420
      255
176
     1
290
     0
176
     1
 90
       50
176
     1
 90
       50
176
     1
 90
       50
176
     1
290
     0
176
     1
 90
       50
176
     1
 62
   256
176
     0
 40
1.0
176
     0
 90
        2
176
     1
  1
strokes_ogs.tif
176
     1
290
     0
176
     1
 40
1.0
176
     1
 40
1.0
176
     1
  0
VISUALSTYLE
  5
1A2
102
{ACAD_REACTORS
330
18D
102
}
330
18D
100
AcDbVisualStyle
  2
Sketchy
 70
    24
177
     3
291
     0
 70
    58
 90
        1
176
     1
 90
        2
176
     1
 90
        2
176
     1
 90
        0
176
     1
 40
0.6
176
     1
 40
30.0
176
     1
 62
     7
420
 16777215
176
     1
 90
        2
176
     1
 90
        2
176
     1
 62
     7
176
     1
 62
     7
176
     1
 90
        1
176
     1
 90
        1
176
     1
 40
40.0
176
     1
 90
       11
176
     1
 62
     7
176
     1
 40
1.0
176
     1
 90
        1
176
     1
 90
        6
176
     1
 90
        2
176
     1
 62
     7
176
     1
 90
        6
176
     1
 90
        0
176
     1
 90
        0
176
     1
290
     0
176
     1
 90
        1
176
     1
 40
0.0
176
     1
 90
        0
176
     1
290
     0
176
     1
290
     1
176
     1
290
     1
176
     1
290
     0
176
     1
290
     0
176
     1
290
     0
176
     1
290
     0
176
     1
290
     0
176
     1
290
     0
176
     1
 90
       50
176
     1
 40
0.0
176
     1
 40
1.0
176
     1
 90
        0
176
     1
 62
    18
420
        0
176
     1
 90
       50
176
     1
 90
        3
176
     1
 62
     5
420
      255
176
     1
290
     0
176
     1
 90
       50
176
     1
 90
       50
176
     1
 90
       50
176
     1
290
     0
176
     1
 90
       50
176
     1
 62
   256
176
     0
 40
1.0
176
     0
 90
        2
176
     1
  1
strokes_ogs.tif
176
     1
290
     0
176
     1
 40
1.0
176
     1
 40
1.0
176
     1
  0
VISUALSTYLE
  5
19A
102
{ACAD_REACTORS
330
18D
102
}
330
18D
100
AcDbVisualStyle
  2
Thicken
 70
    13
177
     3
291
     1
 70
    58
 90
        2
176
     1
 90
        2
176
     1
 90
        0
176
     1
 90
        0
176
     1
 40
0.6
176
     1
 40
30.0
176
     1
 62
     7
420
 16777215
176
     1
 90
        1
176
     1
 90
        4
176
     1
 62
     7
176
     1
 62
   257
176
     1
 90
        1
176
     1
 90
        1
176
     1
 40
1.0
176
     1
 90
       12
176
     1
 62
     7
176
     1
 40
1.0
176
     1
 90
        1
176
     1
 90
        6
176
     1
 90
        2
176
     1
 62
     7
176
     1
 90
        5
176
     1
 90
        0
176
     1
 90
        0
176
     1
290
     0
176
     1
 90
        1
176
     1
 40
0.0
176
     1
 90
        0
176
     1
290
     0
176
     1
290
     1
176
     1
290
     1
176
     1
290
     0
176
     1
290
     0
176
     1
290
     0
176
     1
290
     0
176
     1
290
     0
176
     1
290
     0
176
     1
 90
       50
176
     1
 40
0.0
176
     1
 40
1.0
176
     1
 90
        0
176
     1
 62
    18
420
        0
176
     1
 90
       50
176
     1
 90
        3
176
     1
 62
     5
420
      255
176
     1
290
     0
176
     1
 90
       50
176
     1
 90
       50
176
     1
 90
       50
176
     1
290
     0
176
     1
 90
       50
176
     1
 62
   256
176
     0
 40
1.0
176
     0
 90
        2
176
     1
  1
strokes_ogs.tif
176
     1
290
     0
176
     1
 40
1.0
176
     1
 40
1.0
176
     1
  0
VISUALSTYLE
  5
193
102
{ACAD_REACTORS
330
18D
102
}
330
18D
100
AcDbVisualStyle
  2
Wireframe
 70
     5
177
     3
291
     0
 70
    58
 90
        0
176
     1
 90
        2
176
     1
 90
        0
176
     1
 90
        0
176
     1
 40
0.6
176
     1
 40
30.0
176
     1
 62
     7
420
 16777215
176
     1
 90
        1
176
     1
 90
        4
176
     1
 62
     7
176
     1
 62
   257
176
     1
 90
        1
176
     1
 90
        1
176
     1
 40
1.0
176
     1
 90
        0
176
     1
 62
   257
176
     1
 40
1.0
176
     1
 90
        1
176
     1
 90
        6
176
     1
 90
        2
176
     1
 62
     7
176
     1
 90
        3
176
     1
 90
        0
176
     1
 90
        0
176
     1
290
     0
176
     1
 90
        1
176
     1
 40
0.0
176
     1
 90
        0
176
     1
290
     0
176
     1
290
     1
176
     1
290
     1
176
     1
290
     0
176
     1
290
     0
176
     1
290
     0
176
     1
290
     0
176
     1
290
     0
176
     1
290
     0
176
     1
 90
       50
176
     1
 40
0.0
176
     1
 40
1.0
176
     1
 90
        0
176
     1
 62
    18
420
        0
176
     1
 90
       50
176
     1
 90
        3
176
     1
 62
     5
420
      255
176
     1
290
     0
176
     1
 90
       50
176
     1
 90
       50
176
     1
 90
       50
176
     1
290
     0
176
     1
 90
       50
176
     1
 62
   256
176
     0
 40
1.0
176
     0
 90
        2
176
     1
  1
strokes_ogs.tif
176
     1
290
     0
176
     1
 40
1.0
176
     1
 40
1.0
176
     1
  0
VISUALSTYLE
  5
1A3
102
{ACAD_REACTORS
330
18D
102
}
330
18D
100
AcDbVisualStyle
  2
X-Ray
 70
    25
177
     3
291
     0
 70
    58
 90
        2
176
     1
 90
        2
176
     1
 90
        1
176
     1
 90
        1
176
     1
 40
0.5
176
     1
 40
30.0
176
     1
 62
     7
420
 16777215
176
     1
 90
        1
176
     1
 90
        0
176
     1
 62
     7
176
     1
 62
   257
176
     1
 90
        1
176
     1
 90
        1
176
     1
 40
1.0
176
     1
 90
        8
176
     1
 62
     7
176
     1
 40
1.0
176
     1
 90
        1
176
     1
 90
        6
176
     1
 90
        2
176
     1
 62
     7
176
     1
 90
        3
176
     1
 90
        0
176
     1
 90
        0
176
     1
290
     0
176
     1
 90
       13
176
     1
 40
0.0
176
     1
 90
        0
176
     1
290
     0
176
     1
290
     1
176
     1
290
     1
176
     1
290
     0
176
     1
290
     0
176
     1
290
     0
176
     1
290
     0
176
     1
290
     0
176
     1
290
     0
176
     1
 90
       50
176
     1
 40
0.0
176
     1
 40
1.0
176
     1
 90
        0
176
     1
 62
    18
420
        0
176
     1
 90
       50
176
     1
 90
        3
176
     1
 62
     5
420
      255
176
     1
290
     0
176
     1
 90
       50
176
     1
 90
       50
176
     1
 90
       50
176
     1
290
     0
176
     1
 90
       50
176
     1
 62
   256
176
     0
 40
1.0
176
     0
 90
        2
176
     1
  1
strokes_ogs.tif
176
     1
290
     0
176
     1
 40
1.0
176
     1
 40
1.0
176
     1
  0
DICTIONARYVAR
  5
1BE
102
{ACAD_REACTORS
330
1BD
102
}
330
1BD
100
DictionaryVariables
280
     0
  1
0
  0
CSACDOCUMENTOPTIONS
  5
1B3
102
{ACAD_REACTORS
330
1B2
102
}
330
1B2
  0
XRECORD
  5
1B7
102
{ACAD_REACTORS
330
1AC
102
}
330
1AC
100
AcDbXrecord
280
     1
300
MC_VERSION_DATA
 90
       95
310
0600000002000000570000001C000000E404000000000000000000007801936764E5D8CFFA9993818115C460606066E0646662626666706006F218793899F8DE3171E725E6E53B3BBA2878E6951050AF75FEFFFFFF520036E40F2657000000
  0
XRECORD
  5
1AD
102
{ACAD_REACTORS
330
1AC
102
}
330
1AC
100
AcDbXrecord
280
     1
300
MCS_DOCUMENT_ID
 90
       60
310
0600000002000000150000001C000000E404000000000000000000007801E30DF81E324DD76FB7D72AA16BDBCC5D9FADFB0F04006CD20C1315000000
  0
XRECORD
  5
1B5
102
{ACAD_REACTORS
330
1AC
102
}
330
1AC
100
AcDbXrecord
280
     1
300
MCS_PARAMS_DATA
 90
     3313
310
0600000002000000F64B00001C000000E404000000000000000000007801C55C5B6C5CC519DE9D595FD6B9DF494B53970A1A6F4A58DF92A6426A1A1210527090E23EF0543976A2BA75E25CAC160A6DA92AF5A55255A96AD556551F4A49A0CF15A03EC0438190865E482021147221409310B6900B3826B1FB7F7366CEFC73E6
310
1CAFBDDE3D9B07D8FF3F73CEF7DFE6FB67E6ECBA757EA3143929F767A4FCCE8636299AA49C90529036BB402C105929F279912F89C6DEAF6FD8BC69AB14A46C51EAC2B9898909BA39945F872C1FCD848A834A91A13B1AD51D6D5266E8A9FAF627E9AABE92BD45CA6F03BD81A3CFC24D59D990C96408C7E066656E0232E13A03
310
14B0AB01724443F05CC3F08780DFC8F19B03FC710A073DC8486413411B49060E3311A05C24C45064703B01D7CCE196A818E5C59C9268B967CBD6DED68ED59DC52EEB78BEF08E09F8223D745649346F1DE9DB35D0B777C089FC5FC3C8EB60BF1A286CF47FE3467F17CC59C5CD990B0CD948C1A77FB9F5CA0E4F479188EA541E
310
3C25A2E22BC99C8892456878B2821857F6B05492C2AD881B41409C21325211340605C9C6DC6006EC49AC088A0CCBB25B1159B72248E415019155047D5453031360047082A7405D92B72AB0F03379693EAB50870260AC609E2C6F6510BB3D081DFE4EF5EFECD71494A7B3590EC7F12C5B25CB32539229914732934ECE22AF1D
310
D259AC8B7B7649E437DE7BDFA69EADF76EE95186E95A7ED74C032DBFA66A9BF1CEF341B19B78E45DDED9EF56FE29189043E4814BF734E1FF34659991678231F23A51010DA578E8294D435524988818E84710A7B2643B4F7C134F5CC6936D1E4176D01398C4D0A83AE0A6BDC86B0BB5C3E1E8299D70A5A945AC12322FE697C4
310
9C8DC3BBBE34D2BA77FBEEA1BEFEED79D15C120DF70F0FEE1A093EF60C8FF47F4BCAB3B0ED666EDB17F5733E2B445B5E2C298985C507BB8BEBBA3A3A3774178B1D777FA5B36B9D327BBE1ED84C030BC74C9EDAB5B64D88BC405AEF1E1CD9D73A34B88F70838775AD5DDBD1B9B6BBABBB73A0ABA37F5D7BE0E757F57D1DB80F
310
037BFBB60D6D6F1DDED1DA3B3CB47D6FDF2EF8A0AD5933506CEF2FF6F7ADD9D6B56D5DFF9A60D6A95222FF670B51F8295953F8455019945B7EE9315C7A8AFEC352DE9D4B4A5050256AA6D1B42D5F0C265BEED4473538E9811F770DEFDCDD3732B86D706870E4A1D69DC303E45F6349C807B6EFCB8B8692103DC352AE816545
310
9E9E798813B5E9A692C86DD9B1A355A5424F8E0BF018466AF90D150136590E2905AA568F782650907D5A7180140B84AD0159F8156902B8F63BDA8BE1A72E29AF48322EA98B5F578631B6F5489B26184C63434803DB221A328E6B58DEAED6DB808FEB6DC068BD0DF8A4DE065CABB7018B3045EB390B3EAD7704C6EA6DC07518
310
10B79C17773A0DB6C361F03BDD064B22C8C7303844629E5064B47323116EB9039777E096BB70247238880C6E39831B9F221C81B3E543C57019D4736C30574EE2DD4AD73B12B9771099772B997713E97A974DF4CECD5D9582B938116EC00926492C777A7F676A8F441E4C882C98032C983211AE26DE8974E196022EC7174366
310
F9AE62C95769E105B5C4B012E2E82ED8CD3516C5E34D519CF0D1F6765A8551C6CC0505130A3E8ABEC46EF81CED54DC1DA04AB7BC4DB0CA082453194AB29B82400C2B438BA6322032B88FE093B3E13470C11297490C8EEF78E88158D51A8AD42283A38F61044E78707A57F8BBDFE2DF2167F36975041D1DA7FCF59430C35792
310
05112533A905D5D3CAAB4759DBB4CA160F3E9309466F934A1794E7E1154C402D3088858048DCDF7EA3E7FECD5B7A7B376D5480CBF43A7E5E49CCBE6BEB37D945B2402FC65F52AB73B67E7F3A58AE93F37A04F6B7011D680556EBCCA2819BC8A21C320F385BBDB4EE56E6E32CE2CB18E358AD7676B4C7C096B1674BAF7B1278
310
1E906198B0DF8681EA696AF34D20563061CAB731C0DB01185B8B0DCA46538BD880EB0E2C6FC3120B40E62289BC162112587895C11513E18290E892090EBF46A9321968C513E0BB89A0AE8F2431B88A7DFC9E07A7BD0A8E668E3AF3CDEA083A3A8ECFB770A00AB53712018F2859D8DB3D93C2E4D422CB77A40BB73A5DB807A7
310
0857A5727AC8838BE45965D0D3D5B29CBEEF99145F4E558AC0C3E9C23D922EDC0FD285FBA107E7958EEDE721E98018A3E3AAC64E7F5C166D7ABA81B65C437BB31D766C74A6ED6E1FBC2766B7AFDAD87156F9771BF44A2A724C461AB43EE729AAFB710D63E2111810BBA3ABC9AE6037E09AB9BF3AB40BE8309F8736AB64CAB2
310
BE7E3364E5AC569CA6976081AF5A311628A8EF68C5B3A4609E3E86AC3AA156E3E83562F4B5A292099A878C61EB3B549CF92354989982613F016CE7AD5A4D09AA1F5126387AAD451EE384D9C035A925859E39C1AA865EE9A9B8DA21CEE289167F7CF1D4C4BC7A125EC5AED5D8BB0B5A9D9144D134CFA71BF85A8D44BE568348
310
F6AA55A2F3CAEACF6982FD29118CC249D3CBF852A586F278BA70FBD3853B90085793EDE51E143F0AD06C6B4CB2242BDDBDD1419166C2865E85F9CE1648F3CBF54B2E655D5432557AB8C599EEE6E763403914E55050D879E2BFFA30F366F009F0CB378371CA9B99D05949929DD07465EA8797A3808B6B06B9536E64AF9C844C
310
903AF2F3709D3783A318A078E4F37AEBBCEC2DD1B228B722F785DC2DB9D64C476675A63353CC74E937B1FA39BFA7DB58A6AFC19E49583A4A9B6110A6BA038D3C80418F79D091B18A763C1D8524AA5361F194EC4CC4B23EDBA3192533E95398E41423EB6DCA1C239B4DBF91D13F6D762A6897D7013D496371DC8BECCAA7D45E
310
0C251095ABC98AA38E1B6540CD3DACF829EF15C38D27C2B92DA64A071D13897001094F16523EC1C9E5A99FF465029665AB5B13C49AF8984D174EA40B273D389D33BB29A272F6749622C2719C22AC925104534E7A8CF33714555C6B3CF3BE4BE0AF28994CA9B8353E0F28878DD26D8D2F007FBAAD11BD305CEB4EAB35BE08B8
310
B8D678FEB81BD9134AB6ADF10A644BBEF9C2334A81E4EAA6772450D87DD2AF49C178F020A0EBD3055FF292CC5B8AB3FC4114C86BA708ACDB15F49C43C04EBBE7FCBD0CA8A1CB2AF59CC3897035E1E39713E16AD873FE91085A131FFF19C04DBEDBF8D75406FD3B3A2842E56C8ABE82A171BC3BF89ECB0E0F287926BC7B0450
310
75E4DDA3C09F2EEF56BE2579157071BCBBE7881BD93E255BDE7D04B225A07C61BD5230DE1DBA8C1158736B225E412358525F03747D78F79897E472BCCBAF5BAF2BA0DDE3804E9B765F2F035A65DA3D910857134A7A2311AE52DA8D6E0E9C1341735A873DD47F12A16BE2E99BE9C275792B70532835F1AEDB838B7404B509F7
310
74C449519D9AA19EB28205FF5B08785CE3F9307262735AC933693C270155C7C6730AF8E9359ED3808B6B3CA387DDC6734EC9B6F1C897238DE72006D89713F9C2E58B91C6F3388D608DE70CA0A7DA7866D30F8008DC16BEAA2D26A2AAB848F4108A0CF46D0F54D7A73989E2C56D75B6B8431D2F6EAB64C5CD94644C04869974
310
1626C5B6A280378D1BEE62BCE2C3917700E714386FAA719B1D7E7D464DF7DD444F8317374E8CAA75BEF65E19D0F8F0523EC21D7470DCC60B8CAEF29753FC38EF4760CFDBF99B4673F680D0869F6742513F06849341B61DF57EE3400A02734628D75C0DBC8B68A868B98655ECA330208EA3C6F1B52E3DF1E8849E2433679564
310
431A886148B568E62C4406F75F64308EFD2F9D7039EA6D259B5B2BF91AD8396F72B01004EFC5CD6C88F911E8CCDF849C077E5C64E9488747967101058B73015D99FA9B900B808B63FFB117DCC85E50324556799F2F34BC086EC70CD18A4318C0D9FF2AB6807CDB718046B0A4BE0FE8B4D9FFA207EA504E3D7E65FA014C7226
310
B329B0E8D703AAFEBAA304E869379E693123CD68457958A4FF2F11AE86ECFF6119D078F6E7138AD87FF2370F86D6E1E34789702D76FED2134932CCA824CB8C811832A3160D33426421BD940847AF6F0C11D33DEECB1CFE9B7175D1F926045DE5BD8DBFBDBE9C081764D0049324E6DDB40A8607F34A225C4D16463974B5B836
310
F3B3A32E193EACE499B49986C93A780A6DA631A981D7A6CD34012EAECDFCF23937B23F51B26D337F80CCDBCC36A5C0ECD07DE7E7A7236D663D8D6033A419D0536D33E07F56B8C4CA7C0D48229F9610695A461A0883CE7B494E8DD95B004DF38E8247AB09FE45AC1A52EDAC32A0861DD8DA85D8A76276989D08579353913989
310
700119397510D9BB4CAB9DF096393711B4263ECE4B176E7EBA700B3C389DB3F0B5335AA6A7234288EA142D784A9083AFB414616018456CF64C3293C4CD2F49D3E5A5F0410CEE3E0F2E6A6FEA11580893E29AEE529C2FC11C4DF48D4AA628982DB44A422820F8563073C8F989CF2240392BED74F7768B819FDEDE6E09E0E29A
310
EE0AFA030B3CB273954C91D5916E83CC9BEE074FAB1E6B73B11CFB6CBEB73B4C23589D2D05F4CC9AAE2E4C768646F0614DBB4BD40606BDCC4B726A4DF72640A7DD749797013521AB4ED3C5971C1BF2225712D922FD192CAA82F186C253F467B664EED8B163100EA1787299890C1D4314EEF90B040C236113FD72905624B8F0
310
99FF03A92412CEF64B0000
  0
DICTIONARY
  5
1B9
330
1B1
100
AcDbDictionary
280
     1
281
     1
  3
ACAD_ROUNDTRIP_2008_TABLESTYLE_CELLSTYLEMAP
360
1BA
  0
CELLSTYLEMAP
  5
1BA
102
{ACAD_REACTORS
330
1B9
102
}
330
1B9
100
AcDbCellStyleMap
 90
        3
300
CELLSTYLE
  1
TABLEFORMAT_BEGIN
 90
        5
170
     1
 91
        0
 92
        0
 62
   257
 93
        1
300
CONTENTFORMAT
  1
CONTENTFORMAT_BEGIN
 90
        0
 91
        0
 92
        4
 93
        0
300

 40
0.0
140
1.0
 94
        5
 62
     0
340
11
144
6.0
309
CONTENTFORMAT_END
171
     1
301
MARGIN
  1
CELLMARGIN_BEGIN
 40
1.5
 40
1.5
 40
1.5
 40
1.5
 40
4.5
 40
4.5
309
CELLMARGIN_END
 94
        6
 95
        1
302
GRIDFORMAT
  1
GRIDFORMAT_BEGIN
 90
        0
 91
        1
 62
     0
 92
       -2
340
14
 93
        0
 40
1.125
309
GRIDFORMAT_END
 95
        2
302
GRIDFORMAT
  1
GRIDFORMAT_BEGIN
 90
        0
 91
        1
 62
     0
 92
       -2
340
14
 93
        0
 40
1.125
309
GRIDFORMAT_END
 95
        4
302
GRIDFORMAT
  1
GRIDFORMAT_BEGIN
 90
        0
 91
        1
 62
     0
 92
       -2
340
14
 93
        0
 40
1.125
309
GRIDFORMAT_END
 95
        8
302
GRIDFORMAT
  1
GRIDFORMAT_BEGIN
 90
        0
 91
        1
 62
     0
 92
       -2
340
14
 93
        0
 40
1.125
309
GRIDFORMAT_END
 95
       16
302
GRIDFORMAT
  1
GRIDFORMAT_BEGIN
 90
        0
 91
        1
 62
     0
 92
       -2
340
14
 93
        0
 40
1.125
309
GRIDFORMAT_END
 95
       32
302
GRIDFORMAT
  1
GRIDFORMAT_BEGIN
 90
        0
 91
        1
 62
     0
 92
       -2
340
14
 93
        0
 40
1.125
309
GRIDFORMAT_END
309
TABLEFORMAT_END
  1
CELLSTYLE_BEGIN
 90
        1
 91
        1
300
_TITLE
309
CELLSTYLE_END
300
CELLSTYLE
  1
TABLEFORMAT_BEGIN
 90
        5
170
     1
 91
        0
 92
        0
 62
   257
 93
        1
300
CONTENTFORMAT
  1
CONTENTFORMAT_BEGIN
 90
        0
 91
        0
 92
        4
 93
        0
300

 40
0.0
140
1.0
 94
        5
 62
     0
340
11
144
4.5
309
CONTENTFORMAT_END
171
     1
301
MARGIN
  1
CELLMARGIN_BEGIN
 40
1.5
 40
1.5
 40
1.5
 40
1.5
 40
4.5
 40
4.5
309
CELLMARGIN_END
 94
        6
 95
        1
302
GRIDFORMAT
  1
GRIDFORMAT_BEGIN
 90
        0
 91
        1
 62
     0
 92
       -2
340
14
 93
        0
 40
1.125
309
GRIDFORMAT_END
 95
        2
302
GRIDFORMAT
  1
GRIDFORMAT_BEGIN
 90
        0
 91
        1
 62
     0
 92
       -2
340
14
 93
        0
 40
1.125
309
GRIDFORMAT_END
 95
        4
302
GRIDFORMAT
  1
GRIDFORMAT_BEGIN
 90
        0
 91
        1
 62
     0
 92
       -2
340
14
 93
        0
 40
1.125
309
GRIDFORMAT_END
 95
        8
302
GRIDFORMAT
  1
GRIDFORMAT_BEGIN
 90
        0
 91
        1
 62
     0
 92
       -2
340
14
 93
        0
 40
1.125
309
GRIDFORMAT_END
 95
       16
302
GRIDFORMAT
  1
GRIDFORMAT_BEGIN
 90
        0
 91
        1
 62
     0
 92
       -2
340
14
 93
        0
 40
1.125
309
GRIDFORMAT_END
 95
       32
302
GRIDFORMAT
  1
GRIDFORMAT_BEGIN
 90
        0
 91
        1
 62
     0
 92
       -2
340
14
 93
        0
 40
1.125
309
GRIDFORMAT_END
309
TABLEFORMAT_END
  1
CELLSTYLE_BEGIN
 90
        2
 91
        1
300
_HEADER
309
CELLSTYLE_END
300
CELLSTYLE
  1
TABLEFORMAT_BEGIN
 90
        5
170
     1
 91
        0
 92
        0
 62
   257
 93
        1
300
CONTENTFORMAT
  1
CONTENTFORMAT_BEGIN
 90
        0
 91
        0
 92
        4
 93
        0
300

 40
0.0
140
1.0
 94
        2
 62
     0
340
11
144
4.5
309
CONTENTFORMAT_END
171
     1
301
MARGIN
  1
CELLMARGIN_BEGIN
 40
1.5
 40
1.5
 40
1.5
 40
1.5
 40
4.5
 40
4.5
309
CELLMARGIN_END
 94
        6
 95
        1
302
GRIDFORMAT
  1
GRIDFORMAT_BEGIN
 90
        0
 91
        1
 62
     0
 92
       -2
340
14
 93
        0
 40
1.125
309
GRIDFORMAT_END
 95
        2
302
GRIDFORMAT
  1
GRIDFORMAT_BEGIN
 90
        0
 91
        1
 62
     0
 92
       -2
340
14
 93
        0
 40
1.125
309
GRIDFORMAT_END
 95
        4
302
GRIDFORMAT
  1
GRIDFORMAT_BEGIN
 90
        0
 91
        1
 62
     0
 92
       -2
340
14
 93
        0
 40
1.125
309
GRIDFORMAT_END
 95
        8
302
GRIDFORMAT
  1
GRIDFORMAT_BEGIN
 90
        0
 91
        1
 62
     0
 92
       -2
340
14
 93
        0
 40
1.125
309
GRIDFORMAT_END
 95
       16
302
GRIDFORMAT
  1
GRIDFORMAT_BEGIN
 90
        0
 91
        1
 62
     0
 92
       -2
340
14
 93
        0
 40
1.125
309
GRIDFORMAT_END
 95
       32
302
GRIDFORMAT
  1
GRIDFORMAT_BEGIN
 90
        0
 91
        1
 62
     0
 92
       -2
340
14
 93
        0
 40
1.125
309
GRIDFORMAT_END
309
TABLEFORMAT_END
  1
CELLSTYLE_BEGIN
 90
        3
 91
        2
300
_DATA
309
CELLSTYLE_END
  0
ENDSEC
  0
EOF
