  0
SECTION
  2
HEADER
  9
$ACADVER
  1
AC1027
  9
$ACADMAINTVER
 70
     8
  9
$DWGCODEPAGE
  3
ANSI_1252
  9
$REQUIREDVERSIONS
160
                 0
  9
$LASTSAVEDBY
  1
maika.huard
  9
$INSBASE
 10
0.0
 20
0.0
 30
0.0
  9
$EXTMIN
 10
0.0
 20
0.0
 30
0.0
  9
$EXTMAX
 10
279.4
 20
215.9
 30
0.0
  9
$LIMMIN
 10
0.0
 20
0.0
  9
$LIMMAX
 10
279.4
 20
215.9
  9
$ORTHOMODE
 70
     0
  9
$REGENMODE
 70
     1
  9
$FILLMODE
 70
     1
  9
$QTEXTMODE
 70
     0
  9
$MIRRTEXT
 70
     1
  9
$LTSCALE
 40
1.0
  9
$ATTMODE
 70
     1
  9
$TEXTSIZE
 40
3.175
  9
$TRACEWID
 40
1.0
  9
$TEXTSTYLE
  7
Standard
  9
$CLAYER
  8
0
  9
$CELTYPE
  6
ByLayer
  9
$CECOLOR
 62
   256
  9
$CELTSCALE
 40
1.0
  9
$DISPSILH
 70
     0
  9
$DIMSCALE
 40
1.0
  9
$DIMASZ
 40
3.302
  9
$DIMEXO
 40
1.27
  9
$DIMDLI
 40
3.75
  9
$DIMRND
 40
0.0
  9
$DIMDLE
 40
0.0
  9
$DIMEXE
 40
1.0
  9
$DIMTP
 40
0.0
  9
$DIMTM
 40
0.0
  9
$DIMTXT
 40
3.175
  9
$DIMCEN
 40
2.5
  9
$DIMTSZ
 40
0.0
  9
$DIMTOL
 70
     0
  9
$DIMLIM
 70
     0
  9
$DIMTIH
 70
     1
  9
$DIMTOH
 70
     1
  9
$DIMSE1
 70
     0
  9
$DIMSE2
 70
     0
  9
$DIMTAD
 70
     0
  9
$DIMZIN
 70
     0
  9
$DIMBLK
  1

  9
$DIMASO
 70
     1
  9
$DIMSHO
 70
     1
  9
$DIMPOST
  1

  9
$DIMAPOST
  1

  9
$DIMALT
 70
     0
  9
$DIMALTD
 70
     3
  9
$DIMALTF
 40
0.03937
  9
$DIMLFAC
 40
24.0
  9
$DIMTOFL
 70
     1
  9
$DIMTVP
 40
0.0
  9
$DIMTIX
 70
     0
  9
$DIMSOXD
 70
     0
  9
$DIMSAH
 70
     0
  9
$DIMBLK1
  1

  9
$DIMBLK2
  1

  9
$DIMSTYLE
  2
ISO-25
  9
$DIMCLRD
 70
     0
  9
$DIMCLRE
 70
     0
  9
$DIMCLRT
 70
     0
  9
$DIMTFAC
 40
1.0
  9
$DIMGAP
 40
1.524
  9
$DIMJUST
 70
     0
  9
$DIMSD1
 70
     0
  9
$DIMSD2
 70
     0
  9
$DIMTOLJ
 70
     0
  9
$DIMTZIN
 70
     0
  9
$DIMALTZ
 70
     0
  9
$DIMALTTZ
 70
     0
  9
$DIMUPT
 70
     0
  9
$DIMDEC
 70
     0
  9
$DIMTDEC
 70
     0
  9
$DIMALTU
 70
     2
  9
$DIMALTTD
 70
     3
  9
$DIMTXSTY
  7
Standard
  9
$DIMAUNIT
 70
     0
  9
$DIMADEC
 70
     1
  9
$DIMALTRND
 40
0.0
  9
$DIMAZIN
 70
     0
  9
$DIMDSEP
 70
    44
  9
$DIMATFIT
 70
     3
  9
$DIMFRAC
 70
     0
  9
$DIMLDRBLK
  1

  9
$DIMLUNIT
 70
     2
  9
$DIMLWD
 70
    -2
  9
$DIMLWE
 70
    -2
  9
$DIMTMOVE
 70
     0
  9
$DIMFXL
 40
1.0
  9
$DIMFXLON
 70
     0
  9
$DIMJOGANG
 40
0.785398
  9
$DIMTFILL
 70
     0
  9
$DIMTFILLCLR
 70
     0
  9
$DIMARCSYM
 70
     0
  9
$DIMLTYPE
  6

  9
$DIMLTEX1
  6

  9
$DIMLTEX2
  6

  9
$DIMTXTDIRECTION
 70
     0
  9
$LUNITS
 70
     2
  9
$LUPREC
 70
     0
  9
$SKETCHINC
 40
1.0
  9
$FILLETRAD
 40
0.0
  9
$AUNITS
 70
     0
  9
$AUPREC
 70
     1
  9
$MENU
  1
.
  9
$ELEVATION
 40
0.0
  9
$PELEVATION
 40
0.0
  9
$THICKNESS
 40
0.0
  9
$LIMCHECK
 70
     0
  9
$CHAMFERA
 40
0.0
  9
$CHAMFERB
 40
0.0
  9
$CHAMFERC
 40
0.0
  9
$CHAMFERD
 40
0.0
  9
$SKPOLY
 70
     0
  9
$TDCREATE
 40
2460516.432466632
  9
$TDUCREATE
 40
2460516.599133299
  9
$TDUPDATE
 40
2460521.369759792
  9
$TDUUPDATE
 40
2460521.536426459
  9
$TDINDWG
 40
0.0000000116
  9
$TDUSRTIMER
 40
0.0000000116
  9
$USRTIMER
 70
     1
  9
$ANGBASE
 50
0.0
  9
$ANGDIR
 70
     0
  9
$PDMODE
 70
     0
  9
$PDSIZE
 40
-1.0
  9
$PLINEWID
 40
0.0
  9
$SPLFRAME
 70
     0
  9
$SPLINETYPE
 70
     6
  9
$SPLINESEGS
 70
     8
  9
$HANDSEED
  5
1AD
  9
$SURFTAB1
 70
     6
  9
$SURFTAB2
 70
     6
  9
$SURFTYPE
 70
     6
  9
$SURFU
 70
     6
  9
$SURFV
 70
     6
  9
$UCSBASE
  2

  9
$UCSNAME
  2

  9
$UCSORG
 10
0.0
 20
0.0
 30
0.0
  9
$UCSXDIR
 10
1.0
 20
0.0
 30
0.0
  9
$UCSYDIR
 10
0.0
 20
1.0
 30
0.0
  9
$UCSORTHOREF
  2

  9
$UCSORTHOVIEW
 70
     0
  9
$UCSORGTOP
 10
0.0
 20
0.0
 30
0.0
  9
$UCSORGBOTTOM
 10
0.0
 20
0.0
 30
0.0
  9
$UCSORGLEFT
 10
0.0
 20
0.0
 30
0.0
  9
$UCSORGRIGHT
 10
0.0
 20
0.0
 30
0.0
  9
$UCSORGFRONT
 10
0.0
 20
0.0
 30
0.0
  9
$UCSORGBACK
 10
0.0
 20
0.0
 30
0.0
  9
$PUCSBASE
  2

  9
$PUCSNAME
  2

  9
$PUCSORG
 10
0.0
 20
0.0
 30
0.0
  9
$PUCSXDIR
 10
1.0
 20
0.0
 30
0.0
  9
$PUCSYDIR
 10
0.0
 20
1.0
 30
0.0
  9
$PUCSORTHOREF
  2

  9
$PUCSORTHOVIEW
 70
     0
  9
$PUCSORGTOP
 10
0.0
 20
0.0
 30
0.0
  9
$PUCSORGBOTTOM
 10
0.0
 20
0.0
 30
0.0
  9
$PUCSORGLEFT
 10
0.0
 20
0.0
 30
0.0
  9
$PUCSORGRIGHT
 10
0.0
 20
0.0
 30
0.0
  9
$PUCSORGFRONT
 10
0.0
 20
0.0
 30
0.0
  9
$PUCSORGBACK
 10
0.0
 20
0.0
 30
0.0
  9
$USERI1
 70
     0
  9
$USERI2
 70
     0
  9
$USERI3
 70
     0
  9
$USERI4
 70
     0
  9
$USERI5
 70
     0
  9
$USERR1
 40
0.0
  9
$USERR2
 40
0.0
  9
$USERR3
 40
0.0
  9
$USERR4
 40
0.0
  9
$USERR5
 40
0.0
  9
$WORLDVIEW
 70
     1
  9
$SHADEDGE
 70
     3
  9
$SHADEDIF
 70
    70
  9
$TILEMODE
 70
     1
  9
$MAXACTVP
 70
    64
  9
$PINSBASE
 10
0.0
 20
0.0
 30
0.0
  9
$PLIMCHECK
 70
     0
  9
$PEXTMIN
 10
1.000000E+20
 20
1.000000E+20
 30
1.000000E+20
  9
$PEXTMAX
 10
-1.000000E+20
 20
-1.000000E+20
 30
-1.000000E+20
  9
$PLIMMIN
 10
0.0
 20
0.0
  9
$PLIMMAX
 10
420.0
 20
297.0
  9
$UNITMODE
 70
     0
  9
$VISRETAIN
 70
     1
  9
$PLINEGEN
 70
     0
  9
$PSLTSCALE
 70
     0
  9
$TREEDEPTH
 70
  3020
  9
$CMLSTYLE
  2
Standard
  9
$CMLJUST
 70
     0
  9
$CMLSCALE
 40
20.0
  9
$PROXYGRAPHICS
 70
     1
  9
$MEASUREMENT
 70
     1
  9
$CELWEIGHT
370
    -1
  9
$ENDCAPS
280
     0
  9
$JOINSTYLE
280
     0
  9
$LWDISPLAY
290
     1
  9
$INSUNITS
 70
     4
  9
$HYPERLINKBASE
  1

  9
$STYLESHEET
  1

  9
$XEDIT
290
     1
  9
$CEPSNTYPE
380
     0
  9
$PSTYLEMODE
290
     1
  9
$FINGERPRINTGUID
  2
{c059c4f7-7b4a-4ee8-9aca-38b75e71c04a}
  9
$VERSIONGUID
  2
{FAEB1C32-E019-11D5-929B-00C0DF256EC4}
  9
$EXTNAMES
290
     1
  9
$PSVPSCALE
 40
0.0
  9
$OLESTARTUP
290
     0
  9
$SORTENTS
280
   127
  9
$INDEXCTL
280
     0
  9
$HIDETEXT
280
     1
  9
$XCLIPFRAME
280
     2
  9
$HALOGAP
280
     0
  9
$OBSCOLOR
 70
   257
  9
$OBSLTYPE
280
     0
  9
$INTERSECTIONDISPLAY
280
     0
  9
$INTERSECTIONCOLOR
 70
   257
  9
$DIMASSOC
280
     2
  9
$PROJECTNAME
  1

  9
$CAMERADISPLAY
290
     0
  9
$LENSLENGTH
 40
50.0
  9
$CAMERAHEIGHT
 40
0.0
  9
$STEPSPERSEC
 40
2.0
  9
$STEPSIZE
 40
6.0
  9
$3DDWFPREC
 40
2.0
  9
$PSOLWIDTH
 40
0.25
  9
$PSOLHEIGHT
 40
4.0
  9
$LOFTANG1
 40
1.570796
  9
$LOFTANG2
 40
1.570796
  9
$LOFTMAG1
 40
0.0
  9
$LOFTMAG2
 40
0.0
  9
$LOFTPARAM
 70
     7
  9
$LOFTNORMALS
280
     1
  9
$LATITUDE
 40
37.795
  9
$LONGITUDE
 40
-122.394
  9
$NORTHDIRECTION
 40
0.0
  9
$TIMEZONE
 70
 -8000
  9
$LIGHTGLYPHDISPLAY
280
     1
  9
$TILEMODELIGHTSYNCH
280
     1
  9
$SOLIDHIST
280
     1
  9
$SHOWHIST
280
     1
  9
$DWFFRAME
280
     2
  9
$DGNFRAME
280
     2
  9
$REALWORLDSCALE
290
     1
  9
$INTERFERECOLOR
 62
   256
  9
$CSHADOW
280
     0
  9
$SHADOWPLANELOCATION
 40
0.0
  0
ENDSEC
  0
SECTION
  2
CLASSES
  0
CLASS
  1
ACDBDICTIONARYWDFLT
  2
AcDbDictionaryWithDefault
  3
ObjectDBX Classes
 90
        0
 91
        6
280
     0
281
     0
  0
CLASS
  1
VISUALSTYLE
  2
AcDbVisualStyle
  3
ObjectDBX Classes
 90
     4095
 91
        5
280
     0
281
     0
  0
CLASS
  1
MATERIAL
  2
AcDbMaterial
  3
ObjectDBX Classes
 90
     1153
 91
        5
280
     0
281
     0
  0
CLASS
  1
SCALE
  2
AcDbScale
  3
ObjectDBX Classes
 90
     1153
 91
        5
280
     0
281
     0
  0
CLASS
  1
TABLESTYLE
  2
AcDbTableStyle
  3
ObjectDBX Classes
 90
     4095
 91
        5
280
     0
281
     0
  0
CLASS
  1
MLEADERSTYLE
  2
AcDbMLeaderStyle
  3
ACDB_MLEADERSTYLE_CLASS
 90
     4095
 91
        4
280
     0
281
     0
  0
CLASS
  1
SUN
  2
AcDbSun
  3
SCENEOE
 90
     1153
 91
        5
280
     0
281
     0
  0
CLASS
  1
ACDBPLACEHOLDER
  2
AcDbPlaceHolder
  3
ObjectDBX Classes
 90
        0
 91
        1
280
     0
281
     0
  0
CLASS
  1
LAYOUT
  2
AcDbLayout
  3
ObjectDBX Classes
 90
        0
 91
        1
280
     0
281
     0
  0
CLASS
  1
CSACDOCUMENTOPTIONS
  2
CDocDataContainer
  3
"DERU003_CSAPP"
 90
     4095
 91
        4
280
     0
281
     0
  0
CLASS
  1
CELLSTYLEMAP
  2
AcDbCellStyleMap
  3
ObjectDBX Classes
 90
     1152
 91
        4
280
     0
281
     0
  0
CLASS
  1
DICTIONARYVAR
  2
AcDbDictionaryVar
  3
ObjectDBX Classes
 90
        0
 91
        4
280
     0
281
     0
  0
ENDSEC
  0
SECTION
  2
TABLES
  0
TABLE
  2
VPORT
  5
8
330
0
100
AcDbSymbolTable
 70
     1
  0
VPORT
  5
29
330
8
100
AcDbSymbolTableRecord
100
AcDbViewportTableRecord
  2
*Active
 70
     0
 10
0.0
 20
0.0
 11
1.0
 21
1.0
 12
195.270708
 22
109.73978
 13
0.0
 23
0.0
 14
10.0
 24
10.0
 15
10.0
 25
10.0
 16
0.0
 26
0.0
 36
1.0
 17
0.0
 27
0.0
 37
0.0
 40
323.85
 41
2.019036
 42
50.0
 43
0.0
 44
0.0
 50
0.0
 51
0.0
 71
    16
 72
  2000
 73
     1
 74
     3
 75
     0
 76
     0
 77
     0
 78
     0
281
     0
 65
     1
110
0.0
120
0.0
130
0.0
111
1.0
121
0.0
131
0.0
112
0.0
122
1.0
132
0.0
 79
     0
146
0.0
 60
     3
 61
     5
292
     1
282
     1
141
0.0
142
0.0
 63
   256
361
19B
  0
ENDTAB
  0
TABLE
  2
LTYPE
  5
5
330
0
100
AcDbSymbolTable
 70
     6
  0
LTYPE
  5
14
330
5
100
AcDbSymbolTableRecord
100
AcDbLinetypeTableRecord
  2
ByBlock
 70
     0
  3

 72
    65
 73
     0
 40
0.0
  0
LTYPE
  5
15
330
5
100
AcDbSymbolTableRecord
100
AcDbLinetypeTableRecord
  2
ByLayer
 70
     0
  3

 72
    65
 73
     0
 40
0.0
  0
LTYPE
  5
16
330
5
100
AcDbSymbolTableRecord
100
AcDbLinetypeTableRecord
  2
Continuous
 70
     0
  3
Solid line
 72
    65
 73
     0
 40
0.0
  0
LTYPE
  5
5E
330
5
100
AcDbSymbolTableRecord
100
AcDbLinetypeTableRecord
  2
HIDDEN
 70
     0
  3
Hidden __ __ __ __ __ __ __ __ __ __ __ __ __ __
 72
    65
 73
     2
 40
1.905
 49
1.27
 74
     0
 49
-0.635
 74
     0
  0
LTYPE
  5
5F
330
5
100
AcDbSymbolTableRecord
100
AcDbLinetypeTableRecord
  2
PHANTOM
 70
     0
  3
Phantom ______  __  __  ______  __  __  ______
 72
    65
 73
     6
 40
12.7
 49
6.35
 74
     0
 49
-1.27
 74
     0
 49
1.27
 74
     0
 49
-1.27
 74
     0
 49
1.27
 74
     0
 49
-1.27
 74
     0
  0
LTYPE
  5
60
330
5
100
AcDbSymbolTableRecord
100
AcDbLinetypeTableRecord
  2
CENTER
 70
     0
  3
Center ____ _ ____ _ ____ _ ____ _ ____ _ ____
 72
    65
 73
     4
 40
10.16
 49
6.35
 74
     0
 49
-1.27
 74
     0
 49
1.27
 74
     0
 49
-1.27
 74
     0
  0
LTYPE
  5
61
330
5
100
AcDbSymbolTableRecord
100
AcDbLinetypeTableRecord
  2
CENTERX2
 70
     0
  3
Center (2x) ________  __  ________  __  _____
 72
    65
 73
     4
 40
20.32
 49
12.7
 74
     0
 49
-2.54
 74
     0
 49
2.54
 74
     0
 49
-2.54
 74
     0
  0
LTYPE
  5
62
330
5
100
AcDbSymbolTableRecord
100
AcDbLinetypeTableRecord
  2
DOT2
 70
     0
  3
Dot (.5x) ........................................
 72
    65
 73
     2
 40
0.635
 49
0.0
 74
     0
 49
-0.635
 74
     0
  0
ENDTAB
  0
TABLE
  2
LAYER
  5
2
330
0
100
AcDbSymbolTable
 70
     2
  0
LAYER
  5
10
330
2
100
AcDbSymbolTableRecord
100
AcDbLayerTableRecord
  2
0
 70
     0
 62
     7
  6
Continuous
370
    -3
390
F
347
195
348
0
  0
LAYER
  5
63
330
2
100
AcDbSymbolTableRecord
100
AcDbLayerTableRecord
  2
FORMAT
 70
     0
 62
     7
  6
Continuous
370
    -3
390
F
347
195
348
0
  0
ENDTAB
  0
TABLE
  2
STYLE
  5
3
330
0
100
AcDbSymbolTable
 70
     4
  0
STYLE
  5
11
330
3
100
AcDbSymbolTableRecord
100
AcDbTextStyleTableRecord
  2
Standard
 70
     0
 40
0.0
 41
1.0
 50
0.0
 71
     0
 42
3.175
  3
txt
  4

  0
STYLE
  5
87
330
3
100
AcDbSymbolTableRecord
100
AcDbTextStyleTableRecord
  2
SLDTEXTSTYLE0
 70
     0
 40
0.0
 41
0.605
 50
0.0
 71
     0
 42
3.175
  3
TXT
  4

  0
STYLE
  5
99
330
3
100
AcDbSymbolTableRecord
100
AcDbTextStyleTableRecord
  2
SLDTEXTSTYLE1
 70
     0
 40
0.0
 41
0.75
 50
0.0
 71
     0
 42
3.175
  3
TXT
  4

  0
STYLE
  5
A7
330
3
100
AcDbSymbolTableRecord
100
AcDbTextStyleTableRecord
  2
SLDTEXTSTYLE2
 70
     0
 40
0.0
 41
0.696429
 50
0.0
 71
     0
 42
3.175
  3
TXT
  4

  0
ENDTAB
  0
TABLE
  2
VIEW
  5
6
330
0
100
AcDbSymbolTable
 70
     0
  0
ENDTAB
  0
TABLE
  2
UCS
  5
7
330
0
100
AcDbSymbolTable
 70
     0
  0
ENDTAB
  0
TABLE
  2
APPID
  5
9
330
0
100
AcDbSymbolTable
 70
     6
  0
APPID
  5
12
330
9
100
AcDbSymbolTableRecord
100
AcDbRegAppTableRecord
  2
ACAD
 70
     0
  0
APPID
  5
196
330
9
100
AcDbSymbolTableRecord
100
AcDbRegAppTableRecord
  2
MCS_DIM1
 70
     0
  0
APPID
  5
197
330
9
100
AcDbSymbolTableRecord
100
AcDbRegAppTableRecord
  2
McsXdata5
 70
     0
  0
APPID
  5
19A
330
9
100
AcDbSymbolTableRecord
100
AcDbRegAppTableRecord
  2
MCS_DOCUMENT_ID
 70
     0
  0
APPID
  5
1A2
330
9
100
AcDbSymbolTableRecord
100
AcDbRegAppTableRecord
  2
MCS_PARAMS_DATA
 70
     0
  0
APPID
  5
1A4
330
9
100
AcDbSymbolTableRecord
100
AcDbRegAppTableRecord
  2
MC_VERSION_DATA
 70
     0
  0
ENDTAB
  0
TABLE
  2
DIMSTYLE
  5
A
330
0
100
AcDbSymbolTable
 70
     4
100
AcDbDimStyleTable
  0
DIMSTYLE
105
27
330
A
100
AcDbSymbolTableRecord
100
AcDbDimStyleTableRecord
  2
ISO-25
 70
     0
 41
2.5
 42
0.625
 43
3.75
 44
1.25
 73
     0
 74
     0
 77
     1
 78
     8
140
2.5
141
2.5
143
0.03937
147
0.625
171
     3
172
     1
178
     0
271
     2
272
     2
274
     3
278
    44
283
     0
284
     8
340
11
  0
DIMSTYLE
105
E2
330
A
100
AcDbSymbolTableRecord
100
AcDbDimStyleTableRecord
  2
SLDDIMSTYLE0
 70
     0
 41
3.302
 44
0.0
 45
0.0
 78
    12
 79
     3
140
2.311487
143
0.03937
144
8.0
147
0.577872
148
0.0
170
     1
171
     3
173
     1
178
     0
271
     0
272
     0
274
     3
276
     2
284
    12
340
87
  0
DIMSTYLE
105
F5
330
A
100
AcDbSymbolTableRecord
100
AcDbDimStyleTableRecord
  2
SLDDIMSTYLE1
 70
     0
 41
3.302
 44
0.0
 45
0.0
 78
    12
 79
     3
140
2.311487
143
0.03937
144
8.0
147
0.577872
148
0.0
170
     1
171
     3
172
     1
173
     1
178
     0
271
     0
272
     0
274
     3
276
     2
284
    12
289
     0
340
87
  0
DIMSTYLE
105
115
330
A
100
AcDbSymbolTableRecord
100
AcDbDimStyleTableRecord
  2
SLDDIMSTYLE2
 70
     0
 41
3.302
 44
0.0
 45
0.0
146
3.302
147
0.0
173
     1
178
     0
271
     0
272
     0
276
     2
340
11
  0
ENDTAB
  0
TABLE
  2
BLOCK_RECORD
  5
1
330
0
100
AcDbSymbolTable
 70
     5
  0
BLOCK_RECORD
  5
1F
330
1
100
AcDbSymbolTableRecord
100
AcDbBlockTableRecord
  2
*Model_Space
340
22
 70
     0
280
     1
281
     0
  0
BLOCK_RECORD
  5
1B
330
1
100
AcDbSymbolTableRecord
100
AcDbBlockTableRecord
  2
*Paper_Space
340
1E
 70
     0
280
     1
281
     0
  0
BLOCK_RECORD
  5
23
330
1
100
AcDbSymbolTableRecord
100
AcDbBlockTableRecord
  2
*Paper_Space0
340
26
 70
     0
280
     1
281
     0
  0
BLOCK_RECORD
  5
B9
330
1
100
AcDbSymbolTableRecord
100
AcDbBlockTableRecord
  2
SW_BROKEN_VIEW_0
340
0
102
{BLKREFS
331
0
102
}
 70
     0
280
     1
281
     0
  0
BLOCK_RECORD
  5
E3
330
1
100
AcDbSymbolTableRecord
100
AcDbBlockTableRecord
  2
_D
340
0
 70
     0
280
     1
281
     0
  0
BLOCK_RECORD
  5
F6
330
1
100
AcDbSymbolTableRecord
100
AcDbBlockTableRecord
  2
_D_1
340
0
 70
     0
280
     1
281
     0
  0
BLOCK_RECORD
  5
103
330
1
100
AcDbSymbolTableRecord
100
AcDbBlockTableRecord
  2
_D_2
340
0
 70
     0
280
     1
281
     0
  0
ENDTAB
  0
ENDSEC
  0
SECTION
  2
BLOCKS
  0
BLOCK
  5
20
330
1F
100
AcDbEntity
  8
0
100
AcDbBlockBegin
  2
*Model_Space
 70
     0
 10
0.0
 20
0.0
 30
0.0
  3
*Model_Space
  1
*Model_Space
  0
ENDBLK
  5
21
330
1F
100
AcDbEntity
  8
0
100
AcDbBlockEnd
  0
BLOCK
  5
1C
330
1B
100
AcDbEntity
 67
     1
  8
0
100
AcDbBlockBegin
  2
*Paper_Space
 70
     0
 10
0.0
 20
0.0
 30
0.0
  3
*Paper_Space
  1
*Paper_Space
  0
ENDBLK
  5
1D
330
1B
100
AcDbEntity
 67
     1
  8
0
100
AcDbBlockEnd
  0
BLOCK
  5
24
330
23
100
AcDbEntity
  8
0
100
AcDbBlockBegin
  2
*Paper_Space0
 70
     0
 10
0.0
 20
0.0
 30
0.0
  3
*Paper_Space0
  1
*Paper_Space0
  0
ENDBLK
  5
25
330
23
100
AcDbEntity
  8
0
100
AcDbBlockEnd
  0
BLOCK
  5
BA
330
B9
100
AcDbEntity
  8
0
100
AcDbBlockBegin
  2
SW_BROKEN_VIEW_0
 70
     0
 10
0.0
 20
0.0
 30
0.0
  3
SW_BROKEN_VIEW_0
  1
SW_BROKEN_VIEW_0
  0
LINE
  5
BC
330
B9
100
AcDbEntity
  8
0
  6
Continuous
 62
     0
100
AcDbLine
 10
0.0
 20
0.0
 30
0.0
 11
133.576423
 21
0.0
 31
0.0
  0
ENDBLK
  5
BB
330
B9
100
AcDbEntity
  8
0
100
AcDbBlockEnd
  0
BLOCK
  5
E4
330
E3
100
AcDbEntity
  8
0
100
AcDbBlockBegin
  2
_D
 70
     0
 10
0.0
 20
0.0
 30
0.0
  3
_D
  1
_D
  0
SOLID
  5
E6
330
E3
100
AcDbEntity
  8
FORMAT
100
AcDbTrace
 10
39.365203
 20
45.72075
 30
0.0
 11
39.873203
 21
49.02275
 31
0.0
 12
38.857203
 22
49.02275
 32
0.0
 13
38.857203
 23
49.02275
 33
0.0
  0
SOLID
  5
E7
330
E3
100
AcDbEntity
  8
FORMAT
100
AcDbTrace
 10
39.365203
 20
164.79239
 30
0.0
 11
38.857203
 21
161.49039
 31
0.0
 12
39.873203
 22
161.49039
 32
0.0
 13
39.873203
 23
161.49039
 33
0.0
  0
LINE
  5
E8
330
E3
100
AcDbEntity
  8
FORMAT
100
AcDbLine
 10
72.660528
 20
45.72075
 30
0.0
 11
38.365203
 21
45.72075
 31
0.0
  0
LINE
  5
E9
330
E3
100
AcDbEntity
  8
FORMAT
100
AcDbLine
 10
39.365203
 20
45.72075
 30
0.0
 11
39.365203
 21
77.977939
 31
0.0
  0
LINE
  5
EA
330
E3
100
AcDbEntity
  8
FORMAT
100
AcDbLine
 10
39.365203
 20
164.79239
 30
0.0
 11
39.365203
 21
119.619572
 31
0.0
  0
LINE
  5
EB
330
E3
100
AcDbEntity
  8
FORMAT
100
AcDbLine
 10
39.365203
 20
77.977939
 30
0.0
 11
40.952703
 21
78.771689
 31
0.0
  0
LINE
  5
EC
330
E3
100
AcDbEntity
  8
FORMAT
100
AcDbLine
 10
40.952703
 20
78.771689
 30
0.0
 11
37.777703
 21
80.359189
 31
0.0
  0
LINE
  5
ED
330
E3
100
AcDbEntity
  8
FORMAT
100
AcDbLine
 10
37.777703
 20
80.359189
 30
0.0
 11
39.365203
 21
81.152939
 31
0.0
  0
LINE
  5
EE
330
E3
100
AcDbEntity
  8
FORMAT
100
AcDbLine
 10
39.365203
 20
81.152939
 30
0.0
 11
39.365203
 21
101.870442
 31
0.0
  0
MTEXT
  5
EF
330
E3
100
AcDbEntity
  8
FORMAT
100
AcDbMText
 10
28.252701
 20
119.139339
 30
0.0
 40
2.38125
 41
0.0
 46
0.0
 71
     1
 72
     1
  1
Sous le niveau
  7
SLDTEXTSTYLE0
 73
     1
 44
1.0
  0
MTEXT
  5
F0
330
E3
100
AcDbEntity
  8
FORMAT
100
AcDbMText
 10
26.905531
 20
115.589512
 30
0.0
 40
2.38125
 41
0.0
 46
0.0
 71
     1
 72
     1
  1
du gel et jusqu'à
  7
SLDTEXTSTYLE0
 73
     1
 44
1.0
  0
MTEXT
  5
F1
330
E3
100
AcDbEntity
  8
FORMAT
100
AcDbMText
 10
26.817338
 20
112.039686
 30
0.0
 40
2.38125
 41
0.0
 46
0.0
 71
     1
 72
     1
  1
l'obtention de la
  7
SLDTEXTSTYLE0
 73
     1
 44
1.0
  0
MTEXT
  5
F2
330
E3
100
AcDbEntity
  8
FORMAT
100
AcDbMText
 10
26.224231
 20
108.48986
 30
0.0
 40
2.38125
 41
0.0
 46
0.0
 71
     1
 72
     1
  1
capacité portante
  7
SLDTEXTSTYLE0
 73
     1
 44
1.0
  0
MTEXT
  5
F3
330
E3
100
AcDbEntity
  8
FORMAT
100
AcDbMText
 10
33.279786
 20
104.940033
 30
0.0
 40
2.38125
 41
0.0
 46
0.0
 71
     1
 72
     1
  1
requise.
  7
SLDTEXTSTYLE0
 73
     1
 44
1.0
  0
ENDBLK
  5
E5
330
E3
100
AcDbEntity
  8
0
100
AcDbBlockEnd
  0
BLOCK
  5
F7
330
F6
100
AcDbEntity
  8
0
100
AcDbBlockBegin
  2
_D_1
 70
     0
 10
0.0
 20
0.0
 30
0.0
  3
_D_1
  1
_D_1
  0
SOLID
  5
F9
330
F6
100
AcDbEntity
  8
0
  6
Continuous
 62
     7
370
    18
100
AcDbTrace
 10
39.365203
 20
164.79239
 30
0.0
 11
38.857203
 21
161.49039
 31
0.0
 12
39.873203
 22
161.49039
 32
0.0
 13
39.873203
 23
161.49039
 33
0.0
  0
SOLID
  5
FA
330
F6
100
AcDbEntity
  8
0
  6
Continuous
 62
     7
370
    18
100
AcDbTrace
 10
39.365203
 20
187.473445
 30
0.0
 11
39.873203
 21
190.775445
 31
0.0
 12
38.857203
 22
190.775445
 32
0.0
 13
38.857203
 23
190.775445
 33
0.0
  0
LINE
  5
FB
330
F6
100
AcDbEntity
  8
0
  6
Continuous
 62
     7
370
     0
100
AcDbLine
 10
51.130059
 20
187.473445
 30
0.0
 11
38.365203
 21
187.473445
 31
0.0
  0
LINE
  5
FC
330
F6
100
AcDbEntity
  8
0
  6
Continuous
 62
     7
370
     0
100
AcDbLine
 10
39.365203
 20
164.79239
 30
0.0
 11
39.365203
 21
158.44239
 31
0.0
  0
LINE
  5
FD
330
F6
100
AcDbEntity
  8
0
  6
Continuous
 62
     7
370
     0
100
AcDbLine
 10
39.365203
 20
187.473445
 30
0.0
 11
39.365203
 21
193.823445
 31
0.0
  0
MTEXT
  5
FE
330
F6
100
AcDbEntity
  8
0
  6
Continuous
 62
     7
370
    18
100
AcDbMText
 10
36.102009
 20
184.784813
 30
0.0
 40
2.38125
 41
0.0
 46
0.0
 71
     1
 72
     1
  1
min.
  7
SLDTEXTSTYLE0
 73
     1
 44
1.0
  0
MTEXT
  5
FF
330
F6
100
AcDbEntity
  8
0
  6
Continuous
 62
     7
370
    18
100
AcDbMText
 10
33.456175
 20
181.234987
 30
0.0
 40
2.38125
 41
0.0
 46
0.0
 71
     1
 72
     1
  1
152 mm
  7
SLDTEXTSTYLE0
 73
     1
 44
1.0
  0
MTEXT
  5
100
330
F6
100
AcDbEntity
  8
0
  6
Continuous
 62
     7
370
    18
100
AcDbMText
 10
36.670862
 20
177.68516
 30
0.0
 40
2.38125
 41
0.0
 46
0.0
 71
     1
 72
     1
  1
(6'')
  7
SLDTEXTSTYLE0
 73
     1
 44
1.0
  0
MTEXT
  5
101
330
F6
100
AcDbEntity
  8
0
  6
Continuous
 62
     7
370
    18
100
AcDbMText
 10
30.457563
 20
174.135334
 30
0.0
 40
2.38125
 41
0.0
 46
0.0
 71
     1
 72
     1
  1
voir note #2
  7
SLDTEXTSTYLE0
 73
     1
 44
1.0
  0
ENDBLK
  5
F8
330
F6
100
AcDbEntity
  8
0
100
AcDbBlockEnd
  0
BLOCK
  5
104
330
103
100
AcDbEntity
  8
0
100
AcDbBlockBegin
  2
_D_2
 70
     0
 10
0.0
 20
0.0
 30
0.0
  3
_D_2
  1
_D_2
  0
SOLID
  5
106
330
103
100
AcDbEntity
  8
FORMAT
100
AcDbTrace
 10
86.987412
 20
41.635343
 30
0.0
 11
83.685412
 21
42.143343
 31
0.0
 12
83.685412
 22
41.127343
 32
0.0
 13
83.685412
 23
41.127343
 33
0.0
  0
SOLID
  5
107
330
103
100
AcDbEntity
  8
FORMAT
100
AcDbTrace
 10
42.875144
 20
41.635343
 30
0.0
 11
46.177144
 21
41.127343
 31
0.0
 12
46.177144
 22
42.143343
 32
0.0
 13
46.177144
 23
42.143343
 33
0.0
  0
LINE
  5
108
330
103
100
AcDbEntity
  8
FORMAT
100
AcDbLine
 10
86.987412
 20
70.114637
 30
0.0
 11
86.987412
 21
40.635343
 31
0.0
  0
LINE
  5
109
330
103
100
AcDbEntity
  8
FORMAT
100
AcDbLine
 10
42.875144
 20
65.291108
 30
0.0
 11
42.875144
 21
40.635343
 31
0.0
  0
LINE
  5
10A
330
103
100
AcDbEntity
  8
FORMAT
100
AcDbLine
 10
86.987412
 20
41.635343
 30
0.0
 11
94.475358
 21
41.635343
 31
0.0
  0
LINE
  5
10B
330
103
100
AcDbEntity
  8
FORMAT
100
AcDbLine
 10
42.875144
 20
41.635343
 30
0.0
 11
86.987412
 21
41.635343
 31
0.0
  0
MTEXT
  5
10C
330
103
100
AcDbEntity
  8
FORMAT
100
AcDbMText
 10
95.004327
 20
48.254762
 30
0.0
 40
2.38125
 41
0.0
 46
0.0
 71
     1
 72
     1
  1
254 à 610 mm
  7
SLDTEXTSTYLE0
 73
     1
 44
1.0
  0
MTEXT
  5
10D
330
103
100
AcDbEntity
  8
FORMAT
100
AcDbMText
 10
95.004327
 20
44.704936
 30
0.0
 40
2.38125
 41
0.0
 46
0.0
 71
     1
 72
     1
  1
(10'' à 24'')
  7
SLDTEXTSTYLE0
 73
     1
 44
1.0
  0
MTEXT
  5
10E
330
103
100
AcDbEntity
  8
FORMAT
100
AcDbMText
 10
95.004327
 20
41.15511
 30
0.0
 40
2.38125
 41
0.0
 46
0.0
 71
     1
 72
     1
  1
Selon le type de sol et la
  7
SLDTEXTSTYLE0
 73
     1
 44
1.0
  0
MTEXT
  5
10F
330
103
100
AcDbEntity
  8
FORMAT
100
AcDbMText
 10
95.004327
 20
37.605283
 30
0.0
 40
2.38125
 41
0.0
 46
0.0
 71
     1
 72
     1
  1
capacité portante requise.
  7
SLDTEXTSTYLE0
 73
     1
 44
1.0
  0
ENDBLK
  5
105
330
103
100
AcDbEntity
  8
0
100
AcDbBlockEnd
  0
ENDSEC
  0
SECTION
  2
ENTITIES
  0
LINE
  5
137
330
1F
100
AcDbEntity
  8
0
  6
Continuous
 62
     7
370
    25
100
AcDbLine
 10
195.138651
 20
192.978438
 30
0.0
 11
195.138651
 21
194.015445
 31
0.0
  0
LINE
  5
138
330
1F
100
AcDbEntity
  8
0
  6
Continuous
 62
     7
370
    25
100
AcDbLine
 10
167.453934
 20
194.015445
 30
0.0
 11
167.453934
 21
192.978438
 31
0.0
  0
LINE
  5
139
330
1F
100
AcDbEntity
  8
0
  6
Continuous
 62
     7
370
    25
100
AcDbLine
 10
173.755033
 20
180.534356
 30
0.0
 11
173.755033
 21
44.167958
 31
0.0
  0
LINE
  5
13A
330
1F
100
AcDbEntity
  8
0
  6
Continuous
 62
     7
370
    25
100
AcDbLine
 10
188.837553
 20
44.167958
 30
0.0
 11
188.837553
 21
180.534356
 31
0.0
  0
LINE
  5
13B
330
1F
100
AcDbEntity
  8
0
  6
Continuous
 62
     7
370
    25
100
AcDbLine
 10
199.076293
 20
33.207247
 30
0.0
 11
199.076293
 21
34.244254
 31
0.0
  0
LINE
  5
13C
330
1F
100
AcDbEntity
  8
0
  6
Continuous
 62
     7
370
    25
100
AcDbLine
 10
163.516293
 20
37.583416
 30
0.0
 11
163.516293
 21
36.546409
 31
0.0
  0
LINE
  5
13D
330
1F
100
AcDbEntity
  8
0
  6
Continuous
 62
     7
370
    25
100
AcDbLine
 10
188.360668
 20
33.536049
 30
0.0
 11
188.360668
 21
42.644399
 31
0.0
  0
LINE
  5
13E
330
1F
100
AcDbEntity
  8
0
  6
Continuous
 62
     7
370
    25
100
AcDbLine
 10
188.360668
 20
180.479675
 30
0.0
 11
188.360668
 21
188.761909
 31
0.0
  0
LINE
  5
13F
330
1F
100
AcDbEntity
  8
0
  6
Continuous
 62
     7
370
    25
100
AcDbLine
 10
174.231918
 20
188.761909
 30
0.0
 11
174.231918
 21
180.479675
 31
0.0
  0
LINE
  5
140
330
1F
100
AcDbEntity
  8
0
  6
Continuous
 62
     7
370
    25
100
AcDbLine
 10
174.231918
 20
42.644399
 30
0.0
 11
174.231918
 21
37.171075
 31
0.0
  0
LINE
  5
141
330
1F
100
AcDbEntity
  8
0
  6
Continuous
 62
     7
370
    25
100
AcDbLine
 10
174.231918
 20
28.370001
 30
0.0
 11
174.231918
 21
20.450801
 31
0.0
  0
LWPOLYLINE
  5
142
330
1F
100
AcDbEntity
  8
0
  6
Continuous
 62
     7
370
    25
100
AcDbPolyline
 90
       91
 70
   128
 43
0.0
 10
176.188772
 20
191.066936
 10
176.557496
 20
190.868441
 10
176.949307
 20
190.685278
 10
177.362297
 20
190.518339
 10
177.794452
 20
190.368437
 10
178.243668
 20
190.236303
 10
178.707756
 20
190.122581
 10
179.184455
 20
190.027825
 10
179.671443
 20
189.952496
 10
180.166347
 20
189.896961
 10
180.666756
 20
189.861491
 10
181.170232
 20
189.846259
 10
181.674322
 20
189.851338
 10
182.17657
 20
189.876705
 10
182.67453
 20
189.922235
 10
183.165775
 20
189.987707
 10
183.647912
 20
190.072802
 10
184.118592
 20
190.177104
 10
184.575523
 20
190.300107
 10
185.016477
 20
190.441211
 10
185.439307
 20
190.599727
 10
185.841952
 20
190.774885
 10
186.222452
 20
190.965831
 10
186.578952
 20
191.171634
 10
186.909715
 20
191.391291
 10
187.21313
 20
191.623734
 10
187.487719
 20
191.867828
 10
187.732144
 20
192.122386
 10
187.945214
 20
192.386166
 10
188.125891
 20
192.657884
 10
188.273296
 20
192.936216
 10
188.386708
 20
193.219806
 10
188.465578
 20
193.507272
 10
188.509519
 20
193.797213
 10
188.518317
 20
194.088218
 10
188.491931
 20
194.378869
 10
188.430489
 20
194.667749
 10
188.334289
 20
194.953451
 10
188.203801
 20
195.234583
 10
188.039661
 20
195.509775
 10
187.842667
 20
195.777688
 10
187.61378
 20
196.037015
 10
187.354115
 20
196.286492
 10
187.064937
 20
196.524906
 10
186.747654
 20
196.751094
 10
186.403813
 20
196.963954
 10
186.035089
 20
197.162449
 10
185.643278
 20
197.345612
 10
185.230288
 20
197.512551
 10
184.798133
 20
197.662453
 10
184.348917
 20
197.794587
 10
183.884829
 20
197.908309
 10
183.40813
 20
198.003065
 10
182.921142
 20
198.078394
 10
182.426238
 20
198.133929
 10
181.925829
 20
198.169399
 10
181.422354
 20
198.184631
 10
180.918263
 20
198.179552
 10
180.416015
 20
198.154185
 10
179.918055
 20
198.108655
 10
179.42681
 20
198.043183
 10
178.944673
 20
197.958089
 10
178.473993
 20
197.853786
 10
178.017062
 20
197.730783
 10
177.576108
 20
197.589679
 10
177.153278
 20
197.431163
 10
176.750633
 20
197.256005
 10
176.370133
 20
197.065059
 10
176.013633
 20
196.859256
 10
175.68287
 20
196.639599
 10
175.379455
 20
196.407156
 10
175.104866
 20
196.163062
 10
174.860441
 20
195.908504
 10
174.647371
 20
195.644724
 10
174.466694
 20
195.373006
 10
174.31929
 20
195.094674
 10
174.205877
 20
194.811084
 10
174.127008
 20
194.523618
 10
174.083067
 20
194.233677
 10
174.074268
 20
193.942672
 10
174.100654
 20
193.652021
 10
174.162096
 20
193.363141
 10
174.258296
 20
193.077439
 10
174.388784
 20
192.796307
 10
174.552924
 20
192.521115
 10
174.749918
 20
192.253202
 10
174.978805
 20
191.993876
 10
175.23847
 20
191.744398
 10
175.527648
 20
191.505984
 10
175.844931
 20
191.279796
 10
176.188772
 20
191.066936
  0
LINE
  5
143
330
1F
100
AcDbEntity
  8
0
  6
Continuous
 62
     7
370
    25
100
AcDbLine
 10
182.194318
 20
186.239158
 30
0.0
 11
194.766677
 21
193.497026
 31
0.0
  0
ARC
  5
144
330
1F
100
AcDbEntity
  8
0
  6
Continuous
 62
     7
370
    25
100
AcDbCircle
 10
181.296293
 20
187.962819
 30
0.0
 40
1.943568596407954
100
AcDbArc
 50
242.480539
 51
297.519461
  0
LINE
  5
145
330
1F
100
AcDbEntity
  8
0
  6
Continuous
 62
     7
370
    25
100
AcDbLine
 10
167.825908
 20
193.497026
 30
0.0
 11
180.398267
 21
186.239158
 31
0.0
  0
LWPOLYLINE
  5
146
330
1F
100
AcDbEntity
  8
0
  6
Continuous
 62
     7
370
    25
100
AcDbPolyline
 90
       10
 70
   128
 43
0.0
 10
167.825908
 20
194.533864
 10
167.683611
 20
194.435966
 10
167.572923
 20
194.32529
 10
167.497208
 20
194.2052
 10
167.458767
 20
194.079344
 10
167.458767
 20
193.951546
 10
167.497208
 20
193.82569
 10
167.572923
 20
193.7056
 10
167.683611
 20
193.594924
 10
167.825908
 20
193.497026
  0
LINE
  5
147
330
1F
100
AcDbEntity
  8
0
  6
Continuous
 62
     7
370
    25
100
AcDbLine
 10
180.398267
 20
201.791732
 30
0.0
 11
167.825908
 21
194.533864
 31
0.0
  0
ARC
  5
148
330
1F
100
AcDbEntity
  8
0
  6
Continuous
 62
     7
370
    25
100
AcDbCircle
 10
181.296293
 20
200.068071
 30
0.0
 40
1.943568596408067
100
AcDbArc
 50
62.480539
 51
117.519461
  0
LINE
  5
149
330
1F
100
AcDbEntity
  8
0
  6
Continuous
 62
     7
370
    25
100
AcDbLine
 10
194.766677
 20
194.533864
 30
0.0
 11
182.194318
 21
201.791732
 31
0.0
  0
LWPOLYLINE
  5
14A
330
1F
100
AcDbEntity
  8
0
  6
Continuous
 62
     7
370
    25
100
AcDbPolyline
 90
       10
 70
   128
 43
0.0
 10
194.766677
 20
193.497026
 10
194.908974
 20
193.594924
 10
195.019662
 20
193.7056
 10
195.095377
 20
193.82569
 10
195.133818
 20
193.951546
 10
195.133818
 20
194.079344
 10
195.095377
 20
194.2052
 10
195.019662
 20
194.32529
 10
194.908974
 20
194.435966
 10
194.766677
 20
194.533864
  0
LINE
  5
14B
330
1F
100
AcDbEntity
  8
0
  6
Continuous
 62
     7
370
    25
100
AcDbLine
 10
180.398267
 20
186.239158
 30
0.0
 11
180.398267
 21
185.202151
 31
0.0
  0
LINE
  5
14C
330
1F
100
AcDbEntity
  8
0
  6
Continuous
 62
     7
370
    25
100
AcDbLine
 10
182.194318
 20
186.239158
 30
0.0
 11
182.194318
 21
185.202151
 31
0.0
  0
ARC
  5
14D
330
1F
100
AcDbEntity
  8
0
  6
Continuous
 62
     7
370
    25
100
AcDbCircle
 10
181.296293
 20
186.925812
 30
0.0
 40
1.94356859640803
100
AcDbArc
 50
242.480539
 51
297.519461
  0
LINE
  5
14E
330
1F
100
AcDbEntity
  8
0
  6
Continuous
 62
     7
370
    25
100
AcDbLine
 10
167.825908
 20
193.497026
 30
0.0
 11
167.825908
 21
192.460019
 31
0.0
  0
LINE
  5
14F
330
1F
100
AcDbEntity
  8
0
  6
Continuous
 62
     7
370
    25
100
AcDbLine
 10
167.825908
 20
192.460019
 30
0.0
 11
180.398267
 21
185.202151
 31
0.0
  0
LINE
  5
150
330
1F
100
AcDbEntity
  8
0
  6
Continuous
 62
     7
370
    25
100
AcDbLine
 10
194.766677
 20
193.497026
 30
0.0
 11
194.766677
 21
192.460019
 31
0.0
  0
LINE
  5
151
330
1F
100
AcDbEntity
  8
0
  6
Continuous
 62
     7
370
    25
100
AcDbLine
 10
182.194318
 20
185.202151
 30
0.0
 11
194.766677
 21
192.460019
 31
0.0
  0
LWPOLYLINE
  5
152
330
1F
100
AcDbEntity
  8
0
  6
Continuous
 62
     7
370
    25
100
AcDbPolyline
 90
       43
 70
   128
 43
0.0
 10
188.463358
 20
193.496942
 10
188.430489
 20
193.630742
 10
188.334289
 20
193.916444
 10
188.203801
 20
194.197576
 10
188.039661
 20
194.472768
 10
187.842667
 20
194.740681
 10
187.61378
 20
195.000008
 10
187.354115
 20
195.249486
 10
187.064937
 20
195.487899
 10
186.747654
 20
195.714087
 10
186.403813
 20
195.926947
 10
186.035089
 20
196.125442
 10
185.643278
 20
196.308606
 10
185.230288
 20
196.475545
 10
184.798133
 20
196.625446
 10
184.348917
 20
196.75758
 10
183.884829
 20
196.871302
 10
183.40813
 20
196.966058
 10
182.921142
 20
197.041387
 10
182.426238
 20
197.096922
 10
181.925829
 20
197.132392
 10
181.422354
 20
197.147624
 10
180.918263
 20
197.142545
 10
180.416015
 20
197.117178
 10
179.918055
 20
197.071648
 10
179.42681
 20
197.006176
 10
178.944673
 20
196.921082
 10
178.473993
 20
196.816779
 10
178.017062
 20
196.693776
 10
177.576108
 20
196.552673
 10
177.153278
 20
196.394156
 10
176.750633
 20
196.218998
 10
176.370133
 20
196.028052
 10
176.013633
 20
195.822249
 10
175.68287
 20
195.602592
 10
175.379455
 20
195.370149
 10
175.104866
 20
195.126055
 10
174.860441
 20
194.871497
 10
174.647371
 20
194.607717
 10
174.466694
 20
194.335999
 10
174.31929
 20
194.057667
 10
174.205877
 20
193.774078
 10
174.129227
 20
193.496942
  0
ARC
  5
153
330
1F
100
AcDbEntity
  8
0
  6
Continuous
 62
     7
370
    25
100
AcDbCircle
 10
194.519175
 20
193.030264
 30
0.0
 40
0.6216399424103587
100
AcDbArc
 50
293.462125
 51
355.217734
  0
ARC
  5
154
330
1F
100
AcDbEntity
  8
0
  6
Continuous
 62
     7
370
    25
100
AcDbCircle
 10
168.088764
 20
193.041281
 30
0.0
 40
0.6379331062712181
100
AcDbArc
 50
185.653377
 51
245.666764
  0
LWPOLYLINE
  5
155
330
1F
100
AcDbEntity
  8
0
  6
Continuous
 62
     7
370
    25
100
AcDbPolyline
 90
       35
 70
   128
 43
0.0
 10
186.292009
 20
177.65039
 10
185.927172
 20
177.454142
 10
185.539265
 20
177.27324
 10
185.130219
 20
177.108584
 10
184.702072
 20
176.960995
 10
184.256959
 20
176.831209
 10
183.797095
 20
176.719871
 10
183.324772
 20
176.627537
 10
182.842344
 20
176.554666
 10
182.352213
 20
176.501623
 10
181.856822
 20
176.46867
 10
181.358638
 20
176.455972
 10
180.860144
 20
176.463592
 10
180.363823
 20
176.491493
 10
179.872147
 20
176.539535
 10
179.387566
 20
176.607479
 10
178.912494
 20
176.694986
 10
178.449298
 20
176.801621
 10
178.000286
 20
176.926853
 10
177.567694
 20
177.070057
 10
177.153678
 20
177.230519
 10
176.760301
 20
177.407442
 10
176.389521
 20
177.599942
 10
176.043187
 20
177.807062
 10
175.723023
 20
178.027768
 10
175.430625
 20
178.260963
 10
175.16745
 20
178.505483
 10
174.934808
 20
178.760111
 10
174.733859
 20
179.023579
 10
174.565603
 20
179.294573
 10
174.43088
 20
179.571743
 10
174.330359
 20
179.853709
 10
174.264543
 20
180.139067
 10
174.233758
 20
180.426393
 10
174.231918
 20
180.589038
  0
LWPOLYLINE
  5
156
330
1F
100
AcDbEntity
  8
0
  6
Continuous
 62
     7
370
    25
100
AcDbPolyline
 90
       13
 70
   128
 43
0.0
 10
188.360668
 20
180.589038
 10
188.361028
 20
180.498365
 10
188.339032
 20
180.210769
 10
188.281949
 20
179.924786
 10
188.190065
 20
179.64184
 10
188.063835
 20
179.36334
 10
187.903891
 20
179.090674
 10
187.711027
 20
178.8252
 10
187.486206
 20
178.568241
 10
187.230547
 20
178.321078
 10
186.945324
 20
178.084941
 10
186.631958
 20
177.861006
 10
186.292009
 20
177.65039
  0
LWPOLYLINE
  5
157
330
1F
100
AcDbEntity
  8
0
  6
Continuous
 62
     7
370
    25
100
AcDbPolyline
 90
       41
 70
   128
 43
0.0
 10
186.628769
 20
177.455983
 10
186.252436
 20
177.253084
 10
185.852996
 20
177.065484
 10
185.432311
 20
176.894057
 10
184.992341
 20
176.739603
 10
184.535139
 20
176.602841
 10
184.062836
 20
176.484411
 10
183.577633
 20
176.384863
 10
183.081795
 20
176.304661
 10
182.577631
 20
176.244181
 10
182.067493
 20
176.203704
 10
181.55376
 20
176.183417
 10
181.038826
 20
176.183417
 10
180.525092
 20
176.203704
 10
180.014954
 20
176.244181
 10
179.510791
 20
176.304661
 10
179.014952
 20
176.384863
 10
178.52975
 20
176.484411
 10
178.057446
 20
176.602841
 10
177.600244
 20
176.739603
 10
177.160274
 20
176.894057
 10
176.739589
 20
177.065484
 10
176.340149
 20
177.253084
 10
175.963817
 20
177.455983
 10
175.612347
 20
177.673235
 10
175.287378
 20
177.903827
 10
174.990426
 20
178.146684
 10
174.722874
 20
178.400673
 10
174.485971
 20
178.66461
 10
174.280821
 20
178.937265
 10
174.10838
 20
179.217366
 10
173.969453
 20
179.503608
 10
173.864686
 20
179.794655
 10
173.794569
 20
180.089152
 10
173.759429
 20
180.385724
 10
173.759429
 20
180.682989
 10
173.794569
 20
180.979561
 10
173.864686
 20
181.274057
 10
173.969453
 20
181.565105
 10
174.10838
 20
181.851346
 10
174.231918
 20
182.057916
  0
LWPOLYLINE
  5
158
330
1F
100
AcDbEntity
  8
0
  6
Continuous
 62
     7
370
    25
100
AcDbPolyline
 90
       18
 70
   128
 43
0.0
 10
188.360668
 20
182.057916
 10
188.484205
 20
181.851346
 10
188.623133
 20
181.565105
 10
188.727899
 20
181.274057
 10
188.798016
 20
180.979561
 10
188.833156
 20
180.682989
 10
188.833156
 20
180.385724
 10
188.798016
 20
180.089152
 10
188.727899
 20
179.794655
 10
188.623133
 20
179.503608
 10
188.484205
 20
179.217366
 10
188.311764
 20
178.937265
 10
188.106614
 20
178.66461
 10
187.869711
 20
178.400673
 10
187.602159
 20
178.146684
 10
187.305207
 20
177.903827
 10
186.980238
 20
177.673235
 10
186.628769
 20
177.455983
  0
LWPOLYLINE
  5
159
330
1F
100
AcDbEntity
  8
0
  6
Continuous
 62
     7
370
    25
100
AcDbPolyline
 90
       36
 70
   128
 43
0.0
 10
186.628769
 20
41.089585
 10
186.252436
 20
40.886686
 10
185.852996
 20
40.699085
 10
185.432311
 20
40.527659
 10
184.992341
 20
40.373204
 10
184.535139
 20
40.236443
 10
184.062836
 20
40.118012
 10
183.577633
 20
40.018464
 10
183.081795
 20
39.938263
 10
182.577631
 20
39.877783
 10
182.067493
 20
39.837305
 10
181.55376
 20
39.817019
 10
181.038826
 20
39.817019
 10
180.525092
 20
39.837305
 10
180.014954
 20
39.877783
 10
179.510791
 20
39.938263
 10
179.014952
 20
40.018464
 10
178.52975
 20
40.118012
 10
178.057446
 20
40.236443
 10
177.600244
 20
40.373204
 10
177.160274
 20
40.527659
 10
176.739589
 20
40.699085
 10
176.340149
 20
40.886686
 10
175.963817
 20
41.089585
 10
175.612347
 20
41.306837
 10
175.287378
 20
41.537429
 10
174.990426
 20
41.780285
 10
174.722874
 20
42.034274
 10
174.485971
 20
42.298212
 10
174.280821
 20
42.570867
 10
174.10838
 20
42.850968
 10
173.969453
 20
43.13721
 10
173.864686
 20
43.428257
 10
173.794569
 20
43.722753
 10
173.759429
 20
44.019325
 10
173.755033
 20
44.167958
  0
LWPOLYLINE
  5
15A
330
1F
100
AcDbEntity
  8
0
  6
Continuous
 62
     7
370
    25
100
AcDbPolyline
 90
       13
 70
   128
 43
0.0
 10
188.837553
 20
44.167958
 10
188.833156
 20
44.019325
 10
188.798016
 20
43.722753
 10
188.727899
 20
43.428257
 10
188.623133
 20
43.13721
 10
188.484205
 20
42.850968
 10
188.311764
 20
42.570867
 10
188.106614
 20
42.298212
 10
187.869711
 20
42.034274
 10
187.602159
 20
41.780285
 10
187.305207
 20
41.537429
 10
186.980238
 20
41.306837
 10
186.628769
 20
41.089585
  0
LINE
  5
15B
330
1F
100
AcDbEntity
  8
0
  6
Continuous
 62
     7
370
    25
100
AcDbLine
 10
183.739599
 20
35.748067
 30
0.0
 11
187.377411
 21
29.978189
 31
0.0
  0
SPLINE
  5
15C
330
1F
100
AcDbEntity
  8
0
  6
Continuous
 62
     7
370
    25
100
AcDbSpline
210
0.0
220
0.0
230
1.0
 70
     8
 71
     3
 72
    45
 73
    41
 74
     0
 42
0.000000001
 43
0.00000001
 40
0.0
 40
0.0
 40
0.0
 40
0.0
 40
0.0239000212098897
 40
0.0479343649363868
 40
0.0720384610702549
 40
0.0961465938570626
 40
0.1201929809310278
 40
0.1441128551035248
 40
0.172273554654455
 40
0.2006127711448798
 40
0.2290274810928151
 40
0.2574099868353358
 40
0.2861645753543059
 40
0.3148140770410942
 40
0.3436472436192425
 40
0.3725742391313828
 40
0.4014814910726521
 40
0.4297441951833931
 40
0.4578720539011888
 40
0.4861680239749999
 40
0.5145714331433394
 40
0.5386776710046852
 40
0.5627181577738574
 40
0.5866282228536374
 40
0.6105187044186005
 40
0.6345466627425042
 40
0.6586483704797998
 40
0.6870568010963567
 40
0.7153688825906918
 40
0.7435036565993531
 40
0.7717469964974657
 40
0.7958264903569993
 40
0.8199409417351938
 40
0.844024463930673
 40
0.8680116801624179
 40
0.891871597877025
 40
0.9158341264493141
 40
0.9442071177974876
 40
0.972623502707107
 40
1.0
 40
1.0
 40
1.0
 40
1.0
 10
187.3774107523259
 20
29.97818858287204
 30
0.0
 10
186.9679743330332
 20
29.87222363798343
 30
0.0
 10
186.1468003864385
 20
29.65969820571924
 30
0.0
 10
184.8780697616849
 20
29.40592738296816
 30
0.0
 10
183.5887111975383
 20
29.20165622054941
 30
0.0
 10
182.2861183384849
 20
29.05340377096252
 30
0.0
 10
180.9816468789317
 20
28.96085432430001
 30
0.0
 10
179.6055309313547
 20
28.92251062925602
 30
0.0
 10
178.1620799029738
 20
28.94889309138768
 30
0.0
 10
176.6614759527658
 20
29.05034266709072
 30
0.0
 10
175.1917084401258
 20
29.226139440354
 30
0.0
 10
173.7608124703661
 20
29.47573925325862
 30
0.0
 10
172.3831643043924
 20
29.797929285744
 30
0.0
 10
171.0667084337644
 20
30.1914468326204
 30
0.0
 10
169.8266074567561
 20
30.64859011573166
 30
0.0
 10
168.6719403866493
 20
31.1677264350857
 30
0.0
 10
167.6224292626795
 20
31.73953954656857
 30
0.0
 10
166.6861847018449
 20
32.35666540275329
 30
0.0
 10
165.8648914898844
 20
33.01451409037401
 30
0.0
 10
165.1569628180503
 20
33.70958406983937
 30
0.0
 10
164.5973595273474
 20
34.40202184444695
 30
0.0
 10
164.1716466566622
 20
35.07980547191186
 30
0.0
 10
163.8631035570228
 20
35.73324899953364
 30
0.0
 10
163.6486924198926
 20
36.39691516143259
 30
0.0
 10
163.5283802006823
 20
37.06776019199319
 30
0.0
 10
163.5029396175571
 20
37.74214149452138
 30
0.0
 10
163.5776253906013
 20
38.45737519813896
 30
0.0
 10
163.7732718642448
 20
39.20656819093126
 30
0.0
 10
164.1095859020712
 20
39.98004858147786
 30
0.0
 10
164.5728140441616
 20
40.73412999597126
 30
0.0
 10
165.1306570809636
 20
41.42448503094051
 30
0.0
 10
165.7606646221662
 20
42.05246361973697
 30
0.0
 10
166.4403839226092
 20
42.61897759929842
 30
0.0
 10
167.1994658439204
 20
43.15444138191711
 30
0.0
 10
168.0315289693652
 20
43.65492767854145
 30
0.0
 10
168.9330908117763
 20
44.11939294939364
 30
0.0
 10
169.9592798073907
 20
44.56945903048294
 30
0.0
 10
171.1228503766959
 20
44.99251787874576
 30
0.0
 10
172.4065926969451
 20
45.37592709543301
 30
0.0
 10
173.3111725957934
 20
45.57442708787641
 30
0.0
 10
173.7550326039955
 20
45.67182722730713
 30
0.0
  0
SPLINE
  5
15D
330
1F
100
AcDbEntity
  8
0
  6
Continuous
 62
     7
370
    25
100
AcDbSpline
210
0.0
220
0.0
230
1.0
 70
     8
 71
     3
 72
    30
 73
    26
 74
     0
 42
0.000000001
 43
0.00000001
 40
0.0
 40
0.0
 40
0.0
 40
0.0
 40
0.047067830082715
 40
0.0947004022029051
 40
0.1426383349984498
 40
0.1907322674869103
 40
0.2387933743760388
 40
0.2857828580530716
 40
0.3325481482005007
 40
0.3795929397639463
 40
0.4268163592307535
 40
0.4668953150893998
 40
0.5068649533873368
 40
0.5466177529913965
 40
0.5863379931048206
 40
0.6262868016487422
 40
0.6663582257372765
 40
0.713589993848223
 40
0.7606615722091653
 40
0.8074383596976122
 40
0.8543956484951436
 40
0.8907946061653169
 40
0.9272498356960815
 40
0.9636789704362425
 40
1.0
 40
1.0
 40
1.0
 40
1.0
 10
188.8375526039955
 20
44.7413615498664
 30
0.0
 10
189.2961617436351
 20
44.57890344266466
 30
0.0
 10
190.2188826317976
 20
44.25203797922407
 30
0.0
 10
191.5251520888628
 20
43.67402232909394
 30
0.0
 10
192.7661731747033
 20
43.03033492137588
 30
0.0
 10
193.9205923857855
 20
42.32181681047689
 30
0.0
 10
194.9701696451258
 20
41.56241532081378
 30
0.0
 10
195.9063968903122
 20
40.76100566801395
 30
0.0
 10
196.7276946916905
 20
39.92333195198322
 30
0.0
 10
197.4356221259175
 20
39.04440022077627
 30
0.0
 10
197.9952257395379
 20
38.17574234876609
 30
0.0
 10
198.4209385371348
 20
37.33101993752383
 30
0.0
 10
198.7294816530907
 20
36.52114595380475
 30
0.0
 10
198.9438927936617
 20
35.7037275565633
 30
0.0
 10
199.0642049828949
 20
34.87962250556091
 30
0.0
 10
199.0896456832351
 20
34.04899667288343
 30
0.0
 10
199.0149594434041
 20
33.16692506171091
 30
0.0
 10
198.8193150172803
 20
32.24142108312744
 30
0.0
 10
198.482993133932
 20
31.28376786386365
 30
0.0
 10
198.0197940683805
 20
30.34967267515258
 30
0.0
 10
197.4770113646489
 20
29.50938601300201
 30
0.0
 10
196.8872963525145
 20
28.75936733702675
 30
0.0
 10
196.278535404083
 20
28.09772988351315
 30
0.0
 10
195.6075990853624
 20
27.45925069445568
 30
0.0
 10
195.1073019892955
 20
27.05773159038853
 30
0.0
 10
194.8575251566138
 20
26.85727036272296
 30
0.0
  0
SPLINE
  5
15E
330
1F
100
AcDbEntity
  8
0
  6
Continuous
 62
     7
370
    25
100
AcDbSpline
210
0.0
220
0.0
230
1.0
 70
     8
 71
     3
 72
    10
 73
     6
 74
     0
 42
0.000000001
 43
0.00000001
 40
0.0
 40
0.0
 40
0.0
 40
0.0
 40
0.3322388369922815
 40
0.6658849257915372
 40
0.9999999999999999
 40
0.9999999999999999
 40
0.9999999999999999
 40
0.9999999999999999
 10
187.1876269971345
 20
31.27190143996999
 30
0.0
 10
188.0465122014299
 20
30.77962802091669
 30
0.0
 10
189.7679205584515
 20
29.79299607841722
 30
0.0
 10
192.3143423776767
 20
28.32450319214401
 30
0.0
 10
194.0094005594974
 20
27.34657974855067
 30
0.0
 10
194.8575248913405
 20
26.85727461667583
 30
0.0
  0
SPLINE
  5
15F
330
1F
100
AcDbEntity
  8
0
  6
Continuous
 62
     7
370
    25
100
AcDbSpline
210
0.0
220
0.0
230
1.0
 70
     8
 71
     3
 72
    23
 73
    19
 74
     0
 42
0.000000001
 43
0.00000001
 40
0.0
 40
0.0
 40
0.0
 40
0.0
 40
0.063476254525428
 40
0.1273682737900529
 40
0.1910933027409112
 40
0.2543974816153451
 40
0.3181820446551316
 40
0.3820501519162788
 40
0.445440409619548
 40
0.5090111945650614
 40
0.57291517688335
 40
0.6365689187569471
 40
0.699901799687517
 40
0.7637340741602353
 40
0.8275663486329533
 40
0.8908992295635233
 40
0.95455297143712
 40
1.0
 40
1.0
 40
1.0
 40
1.0
 10
183.7395990028783
 20
35.74806706227699
 30
0.0
 10
183.4433723470464
 20
35.64716186408741
 30
0.0
 10
182.8489787728512
 20
35.44469054617588
 30
0.0
 10
181.9199494676777
 20
35.22526143708374
 30
0.0
 10
180.9838943598098
 20
35.07272164431321
 30
0.0
 10
180.052238415409
 20
34.99531622579617
 30
0.0
 10
179.1420925321933
 20
34.98349520735852
 30
0.0
 10
178.2685108826821
 20
35.03895386172881
 30
0.0
 10
177.4470720499106
 20
35.16191366514704
 30
0.0
 10
176.691446050812
 20
35.34295213907964
 30
0.0
 10
176.0140376047008
 20
35.57642150454257
 30
0.0
 10
175.4277881190695
 20
35.85895453495826
 30
0.0
 10
174.9415744211436
 20
36.18461119092542
 30
0.0
 10
174.564269664798
 20
36.53922071887443
 30
0.0
 10
174.3012288237917
 20
36.91816322686642
 30
0.0
 10
174.1621609522387
 20
37.31579353094386
 30
0.0
 10
174.1319249289043
 20
37.67914349958834
 30
0.0
 10
174.2025133032525
 20
37.90479674902741
 30
0.0
 10
174.2319176039955
 20
37.9987948906678
 30
0.0
  0
SPLINE
  5
160
330
1F
100
AcDbEntity
  8
0
  6
Continuous
 62
     7
370
    25
100
AcDbSpline
210
0.0
220
0.0
230
1.0
 70
     8
 71
     3
 72
    14
 73
    10
 74
     0
 42
0.000000001
 43
0.00000001
 40
0.0
 40
0.0
 40
0.0
 40
0.0
 40
0.0650590421086097
 40
0.242775356080488
 40
0.4211903219796261
 40
0.5986750266376833
 40
0.7756557132267514
 40
0.887753870067296
 40
0.9999999999999999
 40
0.9999999999999999
 40
0.9999999999999999
 40
0.9999999999999999
 10
188.3606676039955
 20
34.94328707845285
 30
0.0
 10
188.3797490307372
 20
34.86149920152039
 30
0.0
 10
188.4509535861931
 20
34.55629825939467
 30
0.0
 10
188.4487934847313
 20
34.01733423304965
 30
0.0
 10
188.3528837026329
 20
33.33889047864892
 30
0.0
 10
188.1287048969762
 20
32.6746213207304
 30
0.0
 10
187.8306759753054
 20
32.1133546593522
 30
0.0
 10
187.5097503312455
 20
31.64576013946167
 30
0.0
 10
187.2950818790252
 20
31.39646671976615
 30
0.0
 10
187.1876768573644
 20
31.2717377953929
 30
0.0
  0
LINE
  5
161
330
1F
100
AcDbEntity
  8
0
  6
Continuous
 62
     7
370
    25
100
AcDbLine
 10
187.377411
 20
29.978189
 30
0.0
 11
187.377411
 21
28.941182
 31
0.0
  0
SPLINE
  5
162
330
1F
100
AcDbEntity
  8
0
  6
Continuous
 62
     7
370
    25
100
AcDbSpline
210
0.0
220
0.0
230
1.0
 70
     8
 71
     3
 72
    31
 73
    27
 74
     0
 42
0.000000001
 43
0.00000001
 40
0.0
 40
0.0
 40
0.0
 40
0.0
 40
0.0380011963974397
 40
0.0762159665105413
 40
0.1145416434261276
 40
0.1528737386473628
 40
0.1911076577649111
 40
0.2291404205080239
 40
0.2739161244677081
 40
0.3189756715762508
 40
0.3641552537960758
 40
0.4092836311100961
 40
0.4550036225712246
 40
0.5005565252539185
 40
0.5464014563639761
 40
0.5923955761177204
 40
0.6383583034593969
 40
0.6832961953634666
 40
0.7280196821749383
 40
0.7730104671867116
 40
0.8181720810900615
 40
0.8565011633669146
 40
0.8947257009596817
 40
0.9327428671786099
 40
0.9707288954756854
 40
0.9999999999999999
 40
0.9999999999999999
 40
0.9999999999999999
 40
0.9999999999999999
 10
187.3774107523259
 20
28.94118175177715
 30
0.0
 10
186.9679743330332
 20
28.83521680688854
 30
0.0
 10
186.1468003864385
 20
28.62269137462434
 30
0.0
 10
184.8780697616849
 20
28.36892055187326
 30
0.0
 10
183.5887111975383
 20
28.16464938945451
 30
0.0
 10
182.286118338485
 20
28.01639693986761
 30
0.0
 10
180.9816468789313
 20
27.92384749320513
 30
0.0
 10
179.6055309313561
 20
27.88550379816111
 30
0.0
 10
178.1620799029673
 20
27.9118862602928
 30
0.0
 10
176.6614759527899
 20
28.01333583599573
 30
0.0
 10
175.1917084400355
 20
28.18913260925945
 30
0.0
 10
173.7608124707045
 20
28.43873242216242
 30
0.0
 10
172.3831643031132
 20
28.76092245465409
 30
0.0
 10
171.0667084385301
 20
29.15444000150695
 30
0.0
 10
169.8266074388172
 20
29.61158328470658
 30
0.0
 10
168.6719404538074
 20
30.13071960372939
 30
0.0
 10
167.6224290146234
 20
30.70253271643919
 30
0.0
 10
166.6861856028498
 20
31.31965856815135
 30
0.0
 10
165.8648881341836
 20
31.97750727234076
 30
0.0
 10
165.1569754480008
 20
32.67257718958387
 30
0.0
 10
164.5973152285602
 20
33.36501518577993
 30
0.0
 10
164.1717842282803
 20
34.04279810533544
 30
0.0
 10
163.8625900724508
 20
34.6962441671178
 30
0.0
 10
163.6505974558413
 20
35.35990091520652
 30
0.0
 10
163.5313753011989
 20
35.97830379189758
 30
0.0
 10
163.5268344988922
 20
36.37420478534885
 30
0.0
 10
163.5248582876954
 20
36.54650560868853
 30
0.0
  0
SPLINE
  5
163
330
1F
100
AcDbEntity
  8
0
  6
Continuous
 62
     7
370
    25
100
AcDbSpline
210
0.0
220
0.0
230
1.0
 70
     8
 71
     3
 72
    17
 73
    13
 74
     0
 42
0.000000001
 43
0.00000001
 40
0.0
 40
0.0
 40
0.0
 40
0.0
 40
0.0219149398309088
 40
0.1159229412911537
 40
0.2267291885493905
 40
0.3371596288929783
 40
0.4468984866087369
 40
0.5570608023800537
 40
0.6680256784179207
 40
0.7791157640698122
 40
0.8899080401424118
 40
1.0
 40
1.0
 40
1.0
 40
1.0
 10
199.0677269202956
 20
33.20715055637732
 30
0.0
 10
199.0703313047508
 20
33.14241776364048
 30
0.0
 10
199.0841076558895
 20
32.80000223387196
 30
0.0
 10
199.0090893694143
 20
32.12983633846783
 30
0.0
 10
198.8209891338161
 20
31.20443681276999
 30
0.0
 10
198.4825501334212
 20
30.24675796783961
 30
0.0
 10
198.0199064569556
 20
29.31265580154376
 30
0.0
 10
197.4315398270962
 20
28.40203723486466
 30
0.0
 10
196.7205427772785
 20
27.51900513266663
 30
0.0
 10
195.8900270990842
 20
26.67389330524913
 30
0.0
 10
194.9588018984698
 20
25.87167630033947
 30
0.0
 10
194.2543663436672
 20
25.38141578013994
 30
0.0
 10
193.9032652771063
 20
25.13706270857612
 30
0.0
  0
LINE
  5
164
330
1F
100
AcDbEntity
  8
0
  6
Continuous
 62
     7
370
    25
100
AcDbLine
 10
194.857525
 20
26.857275
 30
0.0
 11
193.903265
 21
25.137063
 31
0.0
  0
LINE
  5
165
330
1F
100
AcDbEntity
  8
0
  6
Continuous
 62
     7
370
    25
100
AcDbLine
 10
186.926152
 20
30.693924
 30
0.0
 11
187.187654
 21
31.271891
 31
0.0
  0
LINE
  5
166
330
1F
100
AcDbEntity
  8
0
  6
Continuous
 62
     7
370
    25
100
AcDbLine
 10
188.360668
 20
33.90628
 30
0.0
 11
188.39323
 21
33.75251
 31
0.0
  0
SPLINE
  5
167
330
1F
100
AcDbEntity
  8
0
  6
Continuous
 62
     7
370
    25
100
AcDbSpline
210
0.0
220
0.0
230
1.0
 70
     8
 71
     3
 72
    14
 73
    10
 74
     0
 42
0.000000001
 43
0.00000001
 40
0.0
 40
0.0
 40
0.0
 40
0.0
 40
0.1480974593829596
 40
0.2864875788974577
 40
0.4151704783420422
 40
0.5341463068382981
 40
0.6434152532501417
 40
0.7685587021918266
 40
1.0
 40
1.0
 40
1.0
 40
1.0
 10
190.1162937018786
 20
27.28032696614626
 30
0.0
 10
189.9794973591088
 20
27.36122209086511
 30
0.0
 10
189.7148712594751
 20
27.51770990991262
 30
0.0
 10
189.3313869622223
 20
27.74495252053852
 30
0.0
 10
188.9748063737303
 20
27.95664289227666
 30
0.0
 10
188.6451294672694
 20
28.15279358652653
 30
0.0
 10
188.31872956265
 20
28.34754176642498
 30
0.0
 10
187.8884627596697
 20
28.60495955281552
 30
0.0
 10
187.5591545689149
 20
28.80402077946992
 30
0.0
 10
187.3454171173223
 20
28.93322145072719
 30
0.0
  0
SPLINE
  5
168
330
1F
100
AcDbEntity
  8
0
  6
Continuous
 62
     7
370
    25
100
AcDbSpline
210
0.0
220
0.0
230
1.0
 70
     8
 71
     3
 72
     9
 73
     5
 74
     0
 42
0.000000001
 43
0.00000001
 40
0.0
 40
0.0
 40
0.0
 40
0.0
 40
0.4999997400682495
 40
0.9999999999999999
 40
0.9999999999999999
 40
0.9999999999999999
 40
0.9999999999999999
 10
193.9032652772111
 20
25.13706270864573
 30
0.0
 10
193.2739846441904
 20
25.49532240500253
 30
0.0
 10
192.0154227238686
 20
26.21184217020865
 30
0.0
 10
190.750522131748
 20
26.9235009089536
 30
0.0
 10
190.1180715068999
 20
27.27933046330876
 30
0.0
  0
LINE
  5
169
330
1F
100
AcDbEntity
  8
0
  6
Continuous
 62
     7
370
    25
100
AcDbLine
 10
190.117171
 20
27.27982
 30
0.0
 11
187.280895
 21
28.917168
 31
0.0
  0
ELLIPSE
  5
16A
330
1F
100
AcDbEntity
  8
0
  6
Continuous
 62
     7
370
    25
100
AcDbEllipse
 10
181.296293
 20
24.529641
 30
0.0
 11
7.064374986192377
 21
4.078839772333643
 31
0.0
210
0.0
220
0.0
230
1.0
 40
0.00007
 41
0.275441055783455
 42
3.926950184490932
  0
ELLIPSE
  5
16B
330
1F
100
AcDbEntity
  8
0
  6
Continuous
 62
     7
370
    25
100
AcDbEllipse
 10
181.296293
 20
24.529641
 30
0.0
 11
7.064374986192377
 21
4.078839772333643
 31
0.0
210
0.0
220
0.0
230
1.0
 40
0.00007
 41
3.926950184490932
 42
6.010740983084497
  0
LWPOLYLINE
  5
16C
330
1F
100
AcDbEntity
  8
0
  6
Continuous
 62
     7
370
    25
100
AcDbPolyline
 90
       46
 70
   128
 43
0.0
 10
188.355626
 20
193.132487
 10
188.353792
 20
193.158323
 10
188.314232
 20
193.445265
 10
188.239708
 20
193.729882
 10
188.130593
 20
194.010755
 10
187.98743
 20
194.286485
 10
187.810932
 20
194.555698
 10
187.601978
 20
194.817054
 10
187.36161
 20
195.069249
 10
187.091025
 20
195.311029
 10
186.79157
 20
195.541187
 10
186.464739
 20
195.758578
 10
186.112158
 20
195.962119
 10
185.735585
 20
196.150794
 10
185.336896
 20
196.323666
 10
184.918076
 20
196.479871
 10
184.481213
 20
196.618633
 10
184.028483
 20
196.73926
 10
183.562142
 20
196.84115
 10
183.084511
 20
196.923796
 10
182.597973
 20
196.986787
 10
182.104949
 20
197.029808
 10
181.607896
 20
197.052646
 10
181.109292
 20
197.055186
 10
180.611618
 20
197.037416
 10
180.117356
 20
196.999424
 10
179.628967
 20
196.9414
 10
179.148885
 20
196.863633
 10
178.679501
 20
196.76651
 10
178.223154
 20
196.650515
 10
177.782117
 20
196.516226
 10
177.358587
 20
196.364312
 10
176.954675
 20
196.195529
 10
176.572392
 20
196.010719
 10
176.213644
 20
195.810803
 10
175.880218
 20
195.596775
 10
175.573773
 20
195.369704
 10
175.295839
 20
195.130719
 10
175.047798
 20
194.881011
 10
174.830887
 20
194.621825
 10
174.646186
 20
194.354452
 10
174.494616
 20
194.080224
 10
174.376931
 20
193.800506
 10
174.293718
 20
193.516693
 10
174.245392
 20
193.230199
 10
174.236959
 20
193.132487
  0
SPLINE
  5
16D
330
1F
100
AcDbEntity
  8
0
  6
Continuous
 62
     7
370
    25
100
AcDbSpline
210
0.0
220
0.0
230
1.0
 70
     8
 71
     3
 72
    29
 73
    25
 74
     0
 42
0.000000001
 43
0.00000001
 40
0.0
 40
0.0
 40
0.0
 40
0.0
 40
0.0460930792689802
 40
0.0921886135461432
 40
0.1382554326655759
 40
0.1843256642272988
 40
0.2309276558794494
 40
0.2775288338958822
 40
0.3245007065286897
 40
0.3714685978033191
 40
0.4178688648376587
 40
0.4642682128078399
 40
0.5100625324195576
 40
0.555860059541461
 40
0.6019249874214877
 40
0.647992381299063
 40
0.6947952999010263
 40
0.7415959793307803
 40
0.7884818600366531
 40
0.8353638983808168
 40
0.8815106890602225
 40
0.927658186053381
 40
0.9734065420120411
 40
1.0
 40
1.0
 40
1.0
 40
1.0
 10
177.3471509622141
 20
186.4859860541063
 30
0.0
 10
177.3440075301471
 20
186.4258881784363
 30
0.0
 10
177.3377204985879
 20
186.305689226165
 30
0.0
 10
177.2891316474704
 20
186.1460851743219
 30
0.0
 10
177.2131831861974
 20
186.0084468149835
 30
0.0
 10
177.1109667708435
 20
185.8967828755934
 30
0.0
 10
176.9859440534658
 20
185.8158370666054
 30
0.0
 10
176.8427444489193
 20
185.767654699867
 30
0.0
 10
176.6863452414567
 20
185.756414628741
 30
0.0
 10
176.5230528423926
 20
185.7818855551878
 30
0.0
 10
176.3587996921523
 20
185.845087434681
 30
0.0
 10
176.1991991936348
 20
185.9419061257927
 30
0.0
 10
176.0485058562745
 20
186.0707331506987
 30
0.0
 10
175.9095031989231
 20
186.2260932685396
 30
0.0
 10
175.7852528717698
 20
186.4049695758462
 30
0.0
 10
175.6768085059135
 20
186.6021486516466
 30
0.0
 10
175.5870982271762
 20
186.8121460963875
 30
0.0
 10
175.5168566631882
 20
187.0284375255195
 30
0.0
 10
175.4681663233472
 20
187.2432650633967
 30
0.0
 10
175.4410832977074
 20
187.4489699444777
 30
0.0
 10
175.4359852996052
 20
187.6390843111825
 30
0.0
 10
175.4529156872974
 20
187.8070144740513
 30
0.0
 10
175.482940632002
 20
187.9340633538122
 30
0.0
 10
175.5150282922066
 20
187.9927875877399
 30
0.0
 10
175.5268239854168
 20
188.0143751090174
 30
0.0
  0
SPLINE
  5
16E
330
1F
100
AcDbEntity
  8
0
  6
Continuous
 62
     7
370
    25
100
AcDbSpline
210
0.0
220
0.0
230
1.0
 70
     8
 71
     3
 72
    10
 73
     6
 74
     0
 42
0.000000001
 43
0.00000001
 40
0.0
 40
0.0
 40
0.0
 40
0.0
 40
0.113308742386681
 40
0.4730506562130965
 40
1.0
 40
1.0
 40
1.0
 40
1.0
 10
177.2202649799048
 20
187.0367724317576
 30
0.0
 10
177.2301134772815
 20
187.0157087036147
 30
0.0
 10
177.2712297940689
 20
186.9277701190852
 30
0.0
 10
177.3275611979651
 20
186.7387809742475
 30
0.0
 10
177.3398486723635
 20
186.580218008925
 30
0.0
 10
177.3471509622141
 20
186.4859860541063
 30
0.0
  0
SPLINE
  5
16F
330
1F
100
AcDbEntity
  8
0
  6
Continuous
 62
     7
370
    25
100
AcDbSpline
210
0.0
220
0.0
230
1.0
 70
     8
 71
     3
 72
    22
 73
    18
 74
     0
 42
0.000000001
 43
0.00000001
 40
0.0
 40
0.0
 40
0.0
 40
0.0
 40
0.0322783014912114
 40
0.1024293830931762
 40
0.1717363445788197
 40
0.2410418351167765
 40
0.3093952686152083
 40
0.3777537519696245
 40
0.4465376924091961
 40
0.5153252465114962
 40
0.5852426252827349
 40
0.6551565528303783
 40
0.72516387520894
 40
0.7951657563586756
 40
0.8640928347681311
 40
0.9330208940601104
 40
1.0
 40
1.0
 40
1.0
 40
1.0
 10
185.3747369887589
 20
193.700822359623
 30
0.0
 10
185.3606782181262
 20
193.6815157235891
 30
0.0
 10
185.3160652386188
 20
193.6202495872932
 30
0.0
 10
185.2708156505283
 20
193.4901802057612
 30
0.0
 10
185.2421810132832
 20
193.3174309290128
 30
0.0
 10
185.246582404388
 20
193.1304886730988
 30
0.0
 10
185.2828331373317
 20
192.9357724088254
 30
0.0
 10
185.3480142738049
 20
192.7378671377036
 30
0.0
 10
185.4408725328643
 20
192.5409731349849
 30
0.0
 10
185.5574490564777
 20
192.348505528093
 30
0.0
 10
185.6944131009787
 20
192.1657574444974
 30
0.0
 10
185.8465079989209
 20
191.9966608908993
 30
0.0
 10
186.0080225364331
 20
191.8470508777737
 30
0.0
 10
186.1725860439758
 20
191.7204631065862
 30
0.0
 10
186.3342967046763
 20
191.6217901422648
 30
0.0
 10
186.4885861328702
 20
191.5499712841132
 30
0.0
 10
186.5815515442733
 20
191.5283442722758
 30
0.0
 10
186.6273676727201
 20
191.5176858355808
 30
0.0
  0
SPLINE
  5
170
330
1F
100
AcDbEntity
  8
0
  6
Continuous
 62
     7
370
    25
100
AcDbSpline
210
0.0
220
0.0
230
1.0
 70
    11
 71
     3
 72
   103
 73
    99
 74
     0
 42
0.000000001
 43
0.00000001
 40
0.0
 40
0.0
 40
0.0
 40
0.0
 40
0.0312499999999988
 40
0.0312499999999988
 40
0.0468749999999905
 40
0.0468749999999905
 40
0.0624999999999822
 40
0.0624999999999822
 40
0.0937499999999656
 40
0.0937499999999656
 40
0.1093749999999573
 40
0.1093749999999573
 40
0.1249999999999491
 40
0.1249999999999491
 40
0.1562499999999215
 40
0.1562499999999215
 40
0.171874999999912
 40
0.171874999999912
 40
0.1874999999999025
 40
0.1874999999999025
 40
0.203124999999893
 40
0.203124999999893
 40
0.2187499999998835
 40
0.2187499999998835
 40
0.2499999999998645
 40
0.2499999999998645
 40
0.265624999999855
 40
0.265624999999855
 40
0.2812499999998455
 40
0.2812499999998455
 40
0.3124999999998295
 40
0.3124999999998295
 40
0.3281249999998216
 40
0.3281249999998216
 40
0.3437499999998136
 40
0.3437499999998136
 40
0.3593749999998057
 40
0.3593749999998057
 40
0.3749999999997977
 40
0.3749999999997977
 40
0.4062499999997818
 40
0.4062499999997818
 40
0.4218749999997737
 40
0.4218749999997737
 40
0.4374999999997657
 40
0.4374999999997657
 40
0.4687499999997642
 40
0.4687499999997642
 40
0.4843749999997634
 40
0.4843749999997634
 40
0.4999999999997627
 40
0.4999999999997627
 40
0.5312499999997612
 40
0.5312499999997612
 40
0.5468749999997603
 40
0.5468749999997603
 40
0.5624999999997595
 40
0.5624999999997595
 40
0.5781249999997587
 40
0.5781249999997587
 40
0.593749999999758
 40
0.593749999999758
 40
0.6249999999997693
 40
0.6249999999997693
 40
0.6406249999997695
 40
0.6406249999997695
 40
0.6562499999997697
 40
0.6562499999997697
 40
0.6874999999997787
 40
0.6874999999997787
 40
0.7031249999997863
 40
0.7031249999997863
 40
0.7187499999997938
 40
0.7343749999998014
 40
0.7343749999998014
 40
0.7499999999998089
 40
0.7499999999998089
 40
0.7812499999998238
 40
0.7812499999998238
 40
0.7968749999998298
 40
0.7968749999998298
 40
0.8124999999998358
 40
0.8124999999998358
 40
0.8437499999998537
 40
0.8437499999998537
 40
0.859374999999867
 40
0.859374999999867
 40
0.8749999999998803
 40
0.8749999999998803
 40
0.9062499999999067
 40
0.9062499999999067
 40
0.9374999999999333
 40
0.9374999999999333
 40
0.9531249999999538
 40
0.9531249999999538
 40
0.9687499999999742
 40
0.9687499999999742
 40
1.0
 40
1.0
 40
1.0
 40
1.0
 10
177.3471509622141
 20
180.7824484830842
 30
0.0
 10
177.3471509622141
 20
180.7094769806486
 30
0.0
 10
177.3397146067451
 20
180.6406424016895
 30
0.0
 10
177.3179916781497
 20
180.543384757167
 30
0.0
 10
177.3089780157495
 20
180.511973153818
 30
0.0
 10
177.2873705243478
 20
180.4512328803017
 30
0.0
 10
177.2747290348078
 20
180.4218675406422
 30
0.0
 10
177.2323303296585
 20
180.3388956391398
 30
0.0
 10
177.1979344622567
 20
180.2896684946656
 30
0.0
 10
177.1376567780426
 20
180.2250924611911
 30
0.0
 10
177.1159946177883
 20
180.2050372685588
 30
0.0
 10
177.0702755340855
 20
180.1686338490143
 30
0.0
 10
177.0463391261746
 20
180.1523505707077
 30
0.0
 10
176.9715106262625
 20
180.1091583925698
 30
0.0
 10
176.9176281530247
 20
180.0878507118299
 30
0.0
 10
176.8310902484283
 20
180.0677471726801
 30
0.0
 10
176.801408545048
 20
180.063091165742
 30
0.0
 10
176.741470489681
 20
180.0579945949474
 30
0.0
 10
176.7110720772845
 20
180.0575179758227
 30
0.0
 10
176.6494853364759
 20
180.0607022283896
 30
0.0
 10
176.6182969286767
 20
180.0643629757464
 30
0.0
 10
176.5551648930124
 20
180.0759312936359
 30
0.0
 10
176.5230346836985
 20
180.0839043663483
 30
0.0
 10
176.4271580188503
 20
180.1139857250055
 30
0.0
 10
176.3639784164507
 20
180.1420622701807
 30
0.0
 10
176.270388641416
 20
180.1960149536259
 30
0.0
 10
176.2393880314655
 20
180.2159850763074
 30
0.0
 10
176.1777837769166
 20
180.2600261570704
 30
0.0
 10
176.1475282301896
 20
180.2838608848025
 30
0.0
 10
176.0590971341031
 20
180.3600096484099
 30
0.0
 10
176.002900125334
 20
180.4171715580975
 30
0.0
 10
175.9224830185744
 20
180.5124389664012
 30
0.0
 10
175.8962447884668
 20
180.5459287101069
 30
0.0
 10
175.846113100123
 20
180.6146869715294
 30
0.0
 10
175.8220860297525
 20
180.6500972174238
 30
0.0
 10
175.7759871991071
 20
180.7229015226384
 30
0.0
 10
175.7539156353022
 20
180.7602957018002
 30
0.0
 10
175.7116580436864
 20
180.8370461473405
 30
0.0
 10
175.6914011436278
 20
180.8765526893806
 30
0.0
 10
175.6339118009396
 20
180.9970419238051
 30
0.0
 10
175.6005048165809
 20
181.0786630384784
 30
0.0
 10
175.5570179640006
 20
181.2027463852953
 30
0.0
 10
175.5436356500878
 20
181.2443853247922
 30
0.0
 10
175.519080152291
 20
181.3281988706588
 30
0.0
 10
175.5079365787788
 20
181.3703287593405
 30
0.0
 10
175.4784687845878
 20
181.4946593201121
 30
0.0
 10
175.4637734285423
 20
181.5757606956528
 30
0.0
 10
175.4488749487555
 20
181.6945730727397
 30
0.0
 10
175.4450988434467
 20
181.7339074415629
 30
0.0
 10
175.4400932631802
 20
181.8105041872462
 30
0.0
 10
175.4388567102717
 20
181.8476407796302
 30
0.0
 10
175.4388263758995
 20
181.9556545349394
 30
0.0
 10
175.4436673663314
 20
182.0231631372947
 30
0.0
 10
175.4585562275359
 20
182.1175277316727
 30
0.0
 10
175.4647747146625
 20
182.1475700606969
 30
0.0
 10
175.479537432335
 20
182.2041419240689
 30
0.0
 10
175.4881012080385
 20
182.2308008544776
 30
0.0
 10
175.507621458616
 20
182.2809409321429
 30
0.0
 10
175.5185777988169
 20
182.3044220627155
 30
0.0
 10
175.5429939882581
 20
182.3481965521941
 30
0.0
 10
175.5565286940947
 20
182.3685603791686
 30
0.0
 10
175.6002411327769
 20
182.4236683520363
 30
0.0
 10
175.6336378735598
 20
182.4528794539573
 30
0.0
 10
175.6905516702432
 20
182.4858862025403
 30
0.0
 10
175.7107111643638
 20
182.4950882433323
 30
0.0
 10
175.7533139768645
 20
182.5097161097447
 30
0.0
 10
175.7754910613739
 20
182.5150601621228
 30
0.0
 10
175.844694945217
 20
182.5254405691397
 30
0.0
 10
175.8943710219791
 20
182.5248812609825
 30
0.0
 10
175.9747795223832
 20
182.5127883211971
 30
0.0
 10
176.0026319027196
 20
182.5068296604506
 30
0.0
 10
176.0591407577285
 20
182.4913950976865
 30
0.0
 10
176.1167470662332
 20
182.4724167073872
 30
0.0
 10
176.1765937878567
 20
182.4465057216291
 30
0.0
 10
176.2376006606604
 20
182.4170964495142
 30
0.0
 10
176.2688248750372
 20
182.4005604316941
 30
0.0
 10
176.3633351761256
 20
182.3460652918126
 30
0.0
 10
176.4265751640236
 20
182.3038371831192
 30
0.0
 10
176.5216808717412
 20
182.2318805796474
 30
0.0
 10
176.5534222799195
 20
182.2064477093425
 30
0.0
 10
176.6169473750377
 20
182.152583753784
 30
0.0
 10
176.6485720601813
 20
182.1242705541888
 30
0.0
 10
176.7414041388059
 20
182.0366288758067
 30
0.0
 10
176.8012150162573
 20
181.9741101719112
 30
0.0
 10
176.8874249910249
 20
181.8739155672687
 30
0.0
 10
176.9157095333223
 20
181.8392509196374
 30
0.0
 10
176.9699535087772
 20
181.7689665058228
 30
0.0
 10
176.9959908136637
 20
181.7332763720785
 30
0.0
 10
177.0708074563295
 20
181.6245135144701
 30
0.0
 10
177.1163270569907
 20
181.5497670676916
 30
0.0
 10
177.1976253347717
 20
181.3951239155965
 30
0.0
 10
177.2320751803055
 20
181.3177263620908
 30
0.0
 10
177.274303306958
 20
181.2013847843697
 30
0.0
 10
177.2867994211457
 20
181.1625554676964
 30
0.0
 10
177.3084962086593
 20
181.0847582684398
 30
0.0
 10
177.3177074967552
 20
181.0456611220648
 30
0.0
 10
177.3397129881519
 20
180.9303422095054
 30
0.0
 10
177.3471509622141
 20
180.85541998552
 30
0.0
 10
177.3471509622141
 20
180.7824484830842
 30
0.0
  0
LWPOLYLINE
  5
171
330
1F
100
AcDbEntity
  8
0
  6
Continuous
 62
     7
370
    25
100
AcDbPolyline
 90
       54
 70
   128
 43
0.0
 10
187.319296
 20
191.713742
 10
187.444217
 20
191.933083
 10
187.561161
 20
192.198049
 10
187.643888
 20
192.467278
 10
187.691946
 20
192.739298
 10
187.705074
 20
193.012624
 10
187.683199
 20
193.285764
 10
187.626442
 20
193.557225
 10
187.535111
 20
193.825525
 10
187.409706
 20
194.089199
 10
187.250911
 20
194.346806
 10
187.059595
 20
194.596939
 10
186.836801
 20
194.838233
 10
186.583747
 20
195.069369
 10
186.301815
 20
195.289085
 10
185.992544
 20
195.496181
 10
185.657624
 20
195.689526
 10
185.298884
 20
195.868064
 10
184.918283
 20
196.030821
 10
184.5179
 20
196.176905
 10
184.099922
 20
196.305522
 10
183.666631
 20
196.415966
 10
183.220395
 20
196.507636
 10
182.763649
 20
196.580031
 10
182.29889
 20
196.632755
 10
181.828654
 20
196.665521
 10
181.355511
 20
196.678149
 10
180.882045
 20
196.67057
 10
180.410841
 20
196.642827
 10
179.944473
 20
196.595069
 10
179.485488
 20
196.527559
 10
179.036394
 20
196.440665
 10
178.599642
 20
196.334862
 10
178.177618
 20
196.210726
 10
177.772627
 20
196.068937
 10
177.386881
 20
195.910269
 10
177.022488
 20
195.735589
 10
176.681436
 20
195.545849
 10
176.365589
 20
195.342087
 10
176.076672
 20
195.125416
 10
175.816262
 20
194.897019
 10
175.585783
 20
194.658143
 10
175.386492
 20
194.410094
 10
175.219479
 20
194.154225
 10
175.085655
 20
193.891934
 10
174.985751
 20
193.624654
 10
174.920314
 20
193.353845
 10
174.8897
 20
193.080985
 10
174.894076
 20
192.807565
 10
174.933419
 20
192.535079
 10
175.007514
 20
192.265014
 10
175.115956
 20
191.998845
 10
175.258153
 20
191.738027
 10
175.273289
 20
191.713742
  0
ELLIPSE
  5
172
330
1F
100
AcDbEntity
  8
0
  6
Continuous
 62
     7
370
    25
100
AcDbEllipse
 10
181.296293
 20
24.529641
 30
0.0
 11
6.409054986225528
 21
3.700470095653857
 31
0.0
210
0.0
220
0.0
230
1.0
 40
0.00007
 41
0.0
 42
6.283185307179586
  0
SPLINE
  5
173
330
1F
100
AcDbEntity
  8
0
  6
Continuous
 62
     7
370
    25
100
AcDbSpline
210
0.0
220
0.0
230
1.0
 70
     8
 71
     3
 72
    20
 73
    16
 74
     0
 42
0.000000001
 43
0.00000001
 40
0.0
 40
0.0
 40
0.0
 40
0.0
 40
0.0382086508690045
 40
0.1238231279099042
 40
0.2081876221119713
 40
0.2925500338539762
 40
0.3755772612973765
 40
0.4586114386830398
 40
0.5422175375647041
 40
0.6258291243961822
 40
0.7110598772464773
 40
0.7962858147070272
 40
0.881732208969718
 40
0.967169916729159
 40
1.0
 40
1.0
 40
1.0
 40
1.0
 10
177.2219008531673
 20
186.0364091259807
 30
0.0
 10
177.198673713566
 20
186.0337987671367
 30
0.0
 10
177.1234013076468
 20
186.0253393531118
 30
0.0
 10
176.9882239641998
 20
186.050471220188
 30
0.0
 10
176.8239219948956
 20
186.1113896219179
 30
0.0
 10
176.6644523670485
 20
186.2081690341885
 30
0.0
 10
176.5146510388797
 20
186.3364885392271
 30
0.0
 10
176.3769290273829
 20
186.4914928360289
 30
0.0
 10
176.254175375375
 20
186.670105420795
 30
0.0
 10
176.147120436641
 20
186.8674157484758
 30
0.0
 10
176.0587300876898
 20
187.0778207872218
 30
0.0
 10
175.989152475743
 20
187.2952305609296
 30
0.0
 10
175.94213586022
 20
187.5101612951648
 30
0.0
 10
175.917416324498
 20
187.6779190213255
 30
0.0
 10
175.9161114431542
 20
187.7655326022064
 30
0.0
 10
175.915749219739
 20
187.7898533503232
 30
0.0
  0
SPLINE
  5
174
330
1F
100
AcDbEntity
  8
0
  6
Continuous
 62
     7
370
    25
100
AcDbSpline
210
0.0
220
0.0
230
1.0
 70
    11
 71
     3
 72
   103
 73
    99
 74
     0
 42
0.000000001
 43
0.00000001
 40
0.0
 40
0.0
 40
0.0
 40
0.0
 40
0.0312499999999927
 40
0.0312499999999927
 40
0.0468749999999906
 40
0.0468749999999906
 40
0.0624999999999885
 40
0.0624999999999885
 40
0.0937499999999843
 40
0.0937499999999843
 40
0.1093749999999779
 40
0.1093749999999779
 40
0.1249999999999714
 40
0.1249999999999714
 40
0.1562499999999696
 40
0.1562499999999696
 40
0.1718749999999687
 40
0.1718749999999687
 40
0.1874999999999678
 40
0.1874999999999678
 40
0.2031249999999669
 40
0.2031249999999669
 40
0.2187499999999661
 40
0.2187499999999661
 40
0.2499999999999643
 40
0.2499999999999643
 40
0.2656249999999555
 40
0.2656249999999555
 40
0.2812499999999468
 40
0.2812499999999468
 40
0.3124999999999447
 40
0.3124999999999447
 40
0.3281249999999435
 40
0.3281249999999435
 40
0.3437499999999425
 40
0.3437499999999425
 40
0.3593749999999414
 40
0.3593749999999414
 40
0.3749999999999403
 40
0.3749999999999403
 40
0.4062499999999273
 40
0.4062499999999273
 40
0.4218749999999208
 40
0.4218749999999208
 40
0.4374999999999143
 40
0.4374999999999143
 40
0.4687499999999072
 40
0.4687499999999072
 40
0.4843749999999022
 40
0.4843749999999022
 40
0.4999999999998972
 40
0.4999999999998972
 40
0.5312499999998871
 40
0.5312499999998871
 40
0.5468749999998836
 40
0.5468749999998836
 40
0.5624999999998801
 40
0.5624999999998801
 40
0.5781249999998765
 40
0.5781249999998765
 40
0.593749999999873
 40
0.593749999999873
 40
0.6249999999998747
 40
0.6249999999998747
 40
0.640624999999881
 40
0.640624999999881
 40
0.6562499999998873
 40
0.6562499999998873
 40
0.6874999999999001
 40
0.6874999999999001
 40
0.7031249999999064
 40
0.7031249999999064
 40
0.7187499999999127
 40
0.7343749999999191
 40
0.7343749999999191
 40
0.7499999999999254
 40
0.7499999999999254
 40
0.7812499999999382
 40
0.7812499999999382
 40
0.7968749999999445
 40
0.7968749999999445
 40
0.8124999999999508
 40
0.8124999999999508
 40
0.8437499999999492
 40
0.8437499999999492
 40
0.8593749999999483
 40
0.8593749999999483
 40
0.8749999999999474
 40
0.8749999999999474
 40
0.9062499999999568
 40
0.9062499999999568
 40
0.9374999999999661
 40
0.9374999999999661
 40
0.9531249999999738
 40
0.9531249999999738
 40
0.9687499999999816
 40
0.9687499999999816
 40
1.0
 40
1.0
 40
1.0
 40
1.0
 10
185.8281788554931
 20
193.5854396966799
 30
0.0
 10
185.7649535262554
 20
193.6219389023415
 30
0.0
 10
185.7014979497144
 20
193.6498604504022
 30
0.0
 10
185.6060855132291
 20
193.6794989976074
 30
0.0
 10
185.5742447929964
 20
193.6873236763535
 30
0.0
 10
185.5105307639501
 20
193.6987995792002
 30
0.0
 10
185.478608691478
 20
193.7024263223898
 30
0.0
 10
185.3849930434629
 20
193.7068354339156
 30
0.0
 10
185.3247125106542
 20
193.7013744566029
 30
0.0
 10
185.2378719626158
 20
193.6809738491207
 30
0.0
 10
185.2093907857192
 20
193.672066627452
 30
0.0
 10
185.1544565487856
 20
193.6503303339406
 30
0.0
 10
185.1280997953895
 20
193.6375668525879
 30
0.0
 10
185.0523935503813
 20
193.5938260769612
 30
0.0
 10
185.0063725794272
 20
193.5574517230163
 30
0.0
 10
184.9447613234807
 20
193.4920151286325
 30
0.0
 10
184.9255981789881
 20
193.4684789309741
 30
0.0
 10
184.8906492378647
 20
193.4188052002999
 30
0.0
 10
184.8747653519502
 20
193.3925669721673
 30
0.0
 10
184.8462219195642
 20
193.3373526851299
 30
0.0
 10
184.833562211662
 20
193.308376633331
 30
0.0
 10
184.8115937000742
 20
193.2476639903784
 30
0.0
 10
184.8022478608472
 20
193.2157305419674
 30
0.0
 10
184.7799207557075
 20
193.1173910413387
 30
0.0
 10
184.77248950623
 20
193.0485247340332
 30
0.0
 10
184.7724209672521
 20
192.940429423248
 30
0.0
 10
184.7742552093082
 20
192.9035912277203
 30
0.0
 10
184.7817555798253
 20
192.8282407186321
 30
0.0
 10
184.7873843878968
 20
192.79019112486
 30
0.0
 10
184.809564414119
 20
192.6757481508977
 30
0.0
 10
184.831401911889
 20
192.5987156944398
 30
0.0
 10
184.8744962695249
 20
192.4818353583189
 30
0.0
 10
184.8906613472356
 20
192.442541762175
 30
0.0
 10
184.9257131007989
 20
192.3651305262208
 30
0.0
 10
184.9446640141031
 20
192.3268120964219
 30
0.0
 10
184.9852779413572
 20
192.2508744668587
 30
0.0
 10
185.0069411552813
 20
192.2132553825091
 30
0.0
 10
185.0529187243432
 20
192.1386588586567
 30
0.0
 10
185.077348287194
 20
192.1015190271682
 30
0.0
 10
185.1538083294282
 20
191.9921651893928
 30
0.0
 10
185.2083427362482
 20
191.9228099187807
 30
0.0
 10
185.2948407220222
 20
191.8235758081697
 30
0.0
 10
185.3244631826608
 20
191.7913044661935
 30
0.0
 10
185.3852610123097
 20
191.72836832779
 30
0.0
 10
185.4163603591702
 20
191.6978026483004
 30
0.0
 10
185.509828434229
 20
191.6104758033801
 30
0.0
 10
185.5730126275399
 20
191.5573496325437
 30
0.0
 10
185.6688183521521
 20
191.4851567807429
 30
0.0
 10
185.7011117712417
 20
191.4622336321565
 30
0.0
 10
185.7650340894745
 20
191.4196653768952
 30
0.0
 10
185.7966038054537
 20
191.4000397856808
 30
0.0
 10
185.8901564608457
 20
191.3459980561518
 30
0.0
 10
185.9509849407839
 20
191.3163647917604
 30
0.0
 10
186.0399487980406
 20
191.2818929136032
 30
0.0
 10
186.0689129929048
 20
191.2722090687184
 30
0.0
 10
186.1249842286793
 20
191.2565599023318
 30
0.0
 10
186.1521840906774
 20
191.250558319149
 30
0.0
 10
186.2049925319418
 20
191.2421917264693
 30
0.0
 10
186.2306010145529
 20
191.2398265747671
 30
0.0
 10
186.2802740595792
 20
191.2388386353414
 30
0.0
 10
186.304410378746
 20
191.2402450711926
 30
0.0
 10
186.3731077742057
 20
191.2501056464391
 30
0.0
 10
186.4144834243015
 20
191.2640824247196
 30
0.0
 10
186.4705765701023
 20
191.2963481422285
 30
0.0
 10
186.4883307311317
 20
191.3090537424312
 30
0.0
 10
186.5215938925604
 20
191.3382312642175
 30
0.0
 10
186.5369697174209
 20
191.3545644016239
 30
0.0
 10
186.5795844119207
 20
191.4087293536303
 30
0.0
 10
186.6033470775614
 20
191.4516771439816
 30
0.0
 10
186.6323269768581
 20
191.5269795998734
 30
0.0
 10
186.6408469054081
 20
191.5539262484384
 30
0.0
 10
186.65531329827
 20
191.6103144283584
 30
0.0
 10
186.6673261396166
 20
191.6694767818637
 30
0.0
 10
186.6745929503643
 20
191.7341706071233
 30
0.0
 10
186.6794797436841
 20
191.8016915974462
 30
0.0
 10
186.6807312692899
 20
191.8370614981978
 30
0.0
 10
186.6807810421793
 20
191.9461291966608
 30
0.0
 10
186.6759798802619
 20
192.0221155607425
 30
0.0
 10
186.6616245277726
 20
192.1407984910356
 30
0.0
 10
186.6556362388194
 20
192.1811478853718
 30
0.0
 10
186.6411341279587
 20
192.2634433773385
 30
0.0
 10
186.6326722222603
 20
192.3050417525273
 30
0.0
 10
186.6039586626977
 20
192.4296287514832
 30
0.0
 10
186.5803128235555
 20
192.513024063881
 30
0.0
 10
186.5375516323974
 20
192.6383983533754
 30
0.0
 10
186.5219949506291
 20
192.6804041613436
 30
0.0
 10
186.4889379128714
 20
192.7627652772715
 30
0.0
 10
186.4713867178974
 20
192.8032985679716
 30
0.0
 10
186.4155790613967
 20
192.9229343257223
 30
0.0
 10
186.3740897142613
 20
193.000275231979
 30
0.0
 10
186.2820169564645
 20
193.148418899209
 30
0.0
 10
186.232746562352
 20
193.2171443377111
 30
0.0
 10
186.1536611441577
 20
193.3122446477816
 30
0.0
 10
186.1264317130399
 20
193.342604488862
 30
0.0
 10
186.0701249017569
 20
193.4005377522643
 30
0.0
 10
186.0409920715876
 20
193.4281334138446
 30
0.0
 10
185.9524678545332
 20
193.5049765066271
 30
0.0
 10
185.8914041847308
 20
193.5489404910184
 30
0.0
 10
185.8281788554931
 20
193.58543969668
 30
0.0
  0
SPLINE
  5
175
330
1F
100
AcDbEntity
  8
0
  6
Continuous
 62
     7
370
    25
100
AcDbSpline
210
0.0
220
0.0
230
1.0
 70
     8
 71
     3
 72
    23
 73
    19
 74
     0
 42
0.000000001
 43
0.00000001
 40
0.0
 40
0.0
 40
0.0
 40
0.0
 40
0.0313636112096514
 40
0.1016403446393364
 40
0.1708910283424719
 40
0.2401400026560792
 40
0.3082929895353687
 40
0.3764516812820667
 40
0.4450798353896454
 40
0.5137124942865944
 40
0.5836742473112727
 40
0.6536320476181978
 40
0.7237708101228069
 40
0.7939024423020709
 40
0.862702615714213
 40
0.9315039647239814
 40
0.9995588033370509
 40
1.0
 40
1.0
 40
1.0
 40
1.0
 10
177.2219008531673
 20
180.3328715549587
 30
0.0
 10
177.1986737134197
 20
180.3302611962363
 30
0.0
 10
177.1234013070263
 20
180.3218017826056
 30
0.0
 10
176.9882239705325
 20
180.3469336439031
 30
0.0
 10
176.8239219721251
 20
180.4078520698201
 30
0.0
 10
176.6644524513705
 20
180.5046313930879
 30
0.0
 10
176.514650729737
 20
180.6329512251286
 30
0.0
 10
176.3769301851945
 20
180.7879543027684
 30
0.0
 10
176.2541710209431
 20
180.966571468671
 30
0.0
 10
176.1471368181109
 20
181.1638645630788
 30
0.0
 10
176.0586676343796
 20
181.3743351201371
 30
0.0
 10
175.9893856455381
 20
181.5914992062579
 30
0.0
 10
175.941263228475
 20
181.8073489542882
 30
0.0
 10
175.9144594400429
 20
182.0136835127177
 30
0.0
 10
175.9086723849741
 20
182.2046294819674
 30
0.0
 10
175.9258282239617
 20
182.3707635723062
 30
0.0
 10
175.9451437135596
 20
182.4736504373382
 30
0.0
 10
175.963781206671
 20
182.5123615856066
 30
0.0
 10
175.9639012544918
 20
182.5126109318551
 30
0.0
  0
ENDSEC
  0
SECTION
  2
OBJECTS
  0
DICTIONARY
  5
C
330
0
100
AcDbDictionary
281
     1
  3
ACAD_DETAILVIEWSTYLE
350
1AB
  3
ACAD_GROUP
350
D
  3
ACAD_IMAGE_DICT
350
1A0
  3
ACAD_LAYOUT
350
1A
  3
ACAD_MATERIAL
350
192
  3
ACAD_MLEADERSTYLE
350
1A8
  3
ACAD_MLINESTYLE
350
17
  3
ACAD_PLOTSETTINGS
350
19
  3
ACAD_PLOTSTYLENAME
350
E
  3
ACAD_SCALELIST
350
47
  3
ACAD_SECTIONVIEWSTYLE
350
1AC
  3
ACAD_TABLESTYLE
350
19C
  3
ACAD_VISUALSTYLE
350
179
  3
ACDB_RECOMPOSE_DATA
350
1A7
  3
AcDbVariableDictionary
350
1A9
  3
HOST_DOC_SETTINGS
350
19E
  3
MCS_STREAM_DICT
350
198
  0
SUN
  5
19B
330
29
100
AcDbSun
 90
        1
290
     0
 63
     7
421
 16777215
 40
1.0
291
     1
 91
  2455826
 92
 54000000
292
     0
 70
     2
 71
   256
280
     1
  0
DICTIONARY
  5
1AB
102
{ACAD_REACTORS
330
C
102
}
330
C
100
AcDbDictionary
281
     1
  0
DICTIONARY
  5
D
102
{ACAD_REACTORS
330
C
102
}
330
C
100
AcDbDictionary
281
     1
  0
DICTIONARY
  5
1A0
102
{ACAD_REACTORS
330
C
102
}
330
C
100
AcDbDictionary
281
     1
  0
DICTIONARY
  5
1A
102
{ACAD_REACTORS
330
C
102
}
330
C
100
AcDbDictionary
281
     1
  3
Layout1
350
1E
  3
Layout2
350
26
  3
Model
350
22
  0
DICTIONARY
  5
192
102
{ACAD_REACTORS
330
C
102
}
330
C
100
AcDbDictionary
281
     1
  3
ByBlock
350
194
  3
ByLayer
350
193
  3
Global
350
195
  0
DICTIONARY
  5
1A8
102
{ACAD_REACTORS
330
C
102
}
330
C
100
AcDbDictionary
281
     1
  0
DICTIONARY
  5
17
102
{ACAD_REACTORS
330
C
102
}
330
C
100
AcDbDictionary
281
     1
  3
Standard
350
18
  0
DICTIONARY
  5
19
102
{ACAD_REACTORS
330
C
102
}
330
C
100
AcDbDictionary
281
     1
  0
ACDBDICTIONARYWDFLT
  5
E
102
{ACAD_REACTORS
330
C
102
}
330
C
100
AcDbDictionary
281
     1
  3
Normal
350
F
100
AcDbDictionaryWithDefault
340
F
  0
DICTIONARY
  5
47
102
{ACAD_REACTORS
330
C
102
}
330
C
100
AcDbDictionary
281
     1
  3
A0
350
48
  3
A1
350
49
  3
A2
350
4A
  3
A3
350
4B
  3
A4
350
4C
  3
A5
350
4D
  3
A6
350
4E
  3
A7
350
4F
  3
A8
350
50
  3
A9
350
51
  3
B0
350
52
  3
B1
350
53
  3
B2
350
54
  3
B3
350
55
  3
B4
350
56
  3
B5
350
57
  3
B6
350
58
  0
DICTIONARY
  5
1AC
102
{ACAD_REACTORS
330
C
102
}
330
C
100
AcDbDictionary
281
     1
  0
DICTIONARY
  5
19C
102
{ACAD_REACTORS
330
C
102
}
330
C
100
AcDbDictionary
281
     1
  3
Standard
350
19D
  0
DICTIONARY
  5
179
102
{ACAD_REACTORS
330
C
102
}
330
C
100
AcDbDictionary
281
     1
  3
2dWireframe
350
17E
  3
Basic
350
181
  3
Brighten
350
185
  3
ColorChange
350
189
  3
Conceptual
350
183
  3
Dim
350
184
  3
EdgeColorOff
350
18C
  3
Facepattern
350
188
  3
Flat
350
17A
  3
FlatWithEdges
350
17B
  3
Gouraud
350
17C
  3
GouraudWithEdges
350
17D
  3
Hidden
350
180
  3
JitterOff
350
18A
  3
Linepattern
350
187
  3
OverhangOff
350
18B
  3
Realistic
350
182
  3
Shaded
350
191
  3
Shaded with edges
350
190
  3
Shades of Gray
350
18D
  3
Sketchy
350
18E
  3
Thicken
350
186
  3
Wireframe
350
17F
  3
X-Ray
350
18F
  0
XRECORD
  5
1A7
102
{ACAD_REACTORS
330
C
102
}
330
C
100
AcDbXrecord
280
     1
 90
        1
330
19D
  0
DICTIONARY
  5
1A9
102
{ACAD_REACTORS
330
C
102
}
330
C
100
AcDbDictionary
281
     1
  3
MSLTSCALE
350
1AA
  0
DICTIONARY
  5
19E
102
{ACAD_REACTORS
330
C
102
}
330
C
100
AcDbDictionary
281
     1
  3
NCDocParameters
350
19F
  0
DICTIONARY
  5
198
102
{ACAD_REACTORS
330
C
102
}
330
C
100
AcDbDictionary
281
     1
  3
MC_VERSION_DATA
350
1A3
  3
MCS_DOCUMENT_ID
350
199
  3
MCS_PARAMS_DATA
350
1A1
  0
LAYOUT
  5
1E
102
{ACAD_REACTORS
330
1A
102
}
330
1A
100
AcDbPlotSettings
  1

  2
none_device
  4

  6

 40
0.0
 41
0.0
 42
0.0
 43
0.0
 44
0.0
 45
0.0
 46
0.0
 47
0.0
 48
0.0
 49
0.0
140
0.0
141
0.0
142
1.0
143
1.0
 70
   688
 72
     1
 73
     0
 74
     5
  7

 75
    16
 76
     0
 77
     2
 78
   300
147
1.0
148
0.0
149
0.0
100
AcDbLayout
  1
Layout1
 70
     0
 71
     1
 10
0.0
 20
0.0
 11
420.0
 21
297.0
 12
0.0
 22
0.0
 32
0.0
 14
1.000000E+20
 24
1.000000E+20
 34
1.000000E+20
 15
-1.000000E+20
 25
-1.000000E+20
 35
-1.000000E+20
146
0.0
 13
0.0
 23
0.0
 33
0.0
 16
1.0
 26
0.0
 36
0.0
 17
0.0
 27
1.0
 37
0.0
 76
     0
330
1B
  0
LAYOUT
  5
26
102
{ACAD_REACTORS
330
1A
102
}
330
1A
100
AcDbPlotSettings
  1

  2
none_device
  4

  6

 40
0.0
 41
0.0
 42
0.0
 43
0.0
 44
0.0
 45
0.0
 46
0.0
 47
0.0
 48
0.0
 49
0.0
140
0.0
141
0.0
142
1.0
143
1.0
 70
   688
 72
     1
 73
     0
 74
     5
  7

 75
    16
 76
     0
 77
     2
 78
   300
147
1.0
148
0.0
149
0.0
100
AcDbLayout
  1
Layout2
 70
     1
 71
     2
 10
0.0
 20
0.0
 11
0.0
 21
0.0
 12
0.0
 22
0.0
 32
0.0
 14
0.0
 24
0.0
 34
0.0
 15
0.0
 25
0.0
 35
0.0
146
0.0
 13
0.0
 23
0.0
 33
0.0
 16
1.0
 26
0.0
 36
0.0
 17
0.0
 27
1.0
 37
0.0
 76
     0
330
23
  0
LAYOUT
  5
22
102
{ACAD_REACTORS
330
1A
102
}
330
1A
100
AcDbPlotSettings
  1

  2
none_device
  4
Letter_(8.50_x_11.00_Inches)
  6

 40
6.35
 41
6.35
 42
6.350005
 43
6.350005
 44
215.9
 45
279.4
 46
0.0
 47
0.0
 48
0.0
 49
0.0
140
0.0
141
0.0
142
1.0
143
1.0
 70
  1712
 72
     1
 73
     0
 74
     0
  7

 75
     0
 76
     0
 77
     2
 78
   300
147
1.0
148
0.0
149
0.0
100
AcDbLayout
  1
Model
 70
     1
 71
     0
 10
0.0
 20
0.0
 11
279.4
 21
215.9
 12
0.0
 22
0.0
 32
0.0
 14
0.0
 24
0.0
 34
0.0
 15
279.4
 25
215.9
 35
0.0
146
0.0
 13
0.0
 23
0.0
 33
0.0
 16
1.0
 26
0.0
 36
0.0
 17
0.0
 27
1.0
 37
0.0
 76
     0
330
1F
331
29
  0
MATERIAL
  5
194
102
{ACAD_REACTORS
330
192
102
}
330
192
100
AcDbMaterial
  1
ByBlock
 72
     1
 94
      127
  0
MATERIAL
  5
193
102
{ACAD_REACTORS
330
192
102
}
330
192
100
AcDbMaterial
  1
ByLayer
 72
     1
 94
      127
  0
MATERIAL
  5
195
102
{ACAD_REACTORS
330
192
102
}
330
192
100
AcDbMaterial
  1
Global
 72
     1
 94
      127
  0
MLINESTYLE
  5
18
102
{ACAD_REACTORS
330
17
102
}
330
17
100
AcDbMlineStyle
  2
Standard
 70
     0
  3

 62
   256
 51
90.0
 52
90.0
 71
     2
 49
0.5
 62
   256
  6
BYLAYER
 49
-0.5
 62
   256
  6
BYLAYER
  0
ACDBPLACEHOLDER
  5
F
102
{ACAD_REACTORS
330
E
102
}
330
E
  0
SCALE
  5
48
102
{ACAD_REACTORS
330
47
102
}
330
47
100
AcDbScale
 70
     0
300
1:1
140
1.0
141
1.0
290
     1
  0
SCALE
  5
49
102
{ACAD_REACTORS
330
47
102
}
330
47
100
AcDbScale
 70
     0
300
1:2
140
1.0
141
2.0
290
     0
  0
SCALE
  5
4A
102
{ACAD_REACTORS
330
47
102
}
330
47
100
AcDbScale
 70
     0
300
1:4
140
1.0
141
4.0
290
     0
  0
SCALE
  5
4B
102
{ACAD_REACTORS
330
47
102
}
330
47
100
AcDbScale
 70
     0
300
1:5
140
1.0
141
5.0
290
     0
  0
SCALE
  5
4C
102
{ACAD_REACTORS
330
47
102
}
330
47
100
AcDbScale
 70
     0
300
1:8
140
1.0
141
8.0
290
     0
  0
SCALE
  5
4D
102
{ACAD_REACTORS
330
47
102
}
330
47
100
AcDbScale
 70
     0
300
1:10
140
1.0
141
10.0
290
     0
  0
SCALE
  5
4E
102
{ACAD_REACTORS
330
47
102
}
330
47
100
AcDbScale
 70
     0
300
1:16
140
1.0
141
16.0
290
     0
  0
SCALE
  5
4F
102
{ACAD_REACTORS
330
47
102
}
330
47
100
AcDbScale
 70
     0
300
1:20
140
1.0
141
20.0
290
     0
  0
SCALE
  5
50
102
{ACAD_REACTORS
330
47
102
}
330
47
100
AcDbScale
 70
     0
300
1:30
140
1.0
141
30.0
290
     0
  0
SCALE
  5
51
102
{ACAD_REACTORS
330
47
102
}
330
47
100
AcDbScale
 70
     0
300
1:40
140
1.0
141
40.0
290
     0
  0
SCALE
  5
52
102
{ACAD_REACTORS
330
47
102
}
330
47
100
AcDbScale
 70
     0
300
1:50
140
1.0
141
50.0
290
     0
  0
SCALE
  5
53
102
{ACAD_REACTORS
330
47
102
}
330
47
100
AcDbScale
 70
     0
300
1:100
140
1.0
141
100.0
290
     0
  0
SCALE
  5
54
102
{ACAD_REACTORS
330
47
102
}
330
47
100
AcDbScale
 70
     0
300
2:1
140
2.0
141
1.0
290
     0
  0
SCALE
  5
55
102
{ACAD_REACTORS
330
47
102
}
330
47
100
AcDbScale
 70
     0
300
4:1
140
4.0
141
1.0
290
     0
  0
SCALE
  5
56
102
{ACAD_REACTORS
330
47
102
}
330
47
100
AcDbScale
 70
     0
300
8:1
140
8.0
141
1.0
290
     0
  0
SCALE
  5
57
102
{ACAD_REACTORS
330
47
102
}
330
47
100
AcDbScale
 70
     0
300
10:1
140
10.0
141
1.0
290
     0
  0
SCALE
  5
58
102
{ACAD_REACTORS
330
47
102
}
330
47
100
AcDbScale
 70
     0
300
100:1
140
100.0
141
1.0
290
     0
  0
TABLESTYLE
  5
19D
102
{ACAD_REACTORS
330
19C
102
}
102
{ACAD_XDICTIONARY
360
1A5
102
}
330
19C
100
AcDbTableStyle
  3
Standard
 70
     0
 71
     8
 40
1.5
 41
1.5
280
     0
281
     0
  7
Standard
140
4.5
170
     2
 62
     0
 63
   257
283
     0
 90
        4
 91
        0
  1

274
    -2
284
     1
 64
     0
275
    -2
285
     1
 65
     0
276
    -2
286
     1
 66
     0
277
    -2
287
     1
 67
     0
278
    -2
288
     1
 68
     0
279
    -2
289
     1
 69
     0
  7
Standard
140
6.0
170
     5
 62
     0
 63
   257
283
     0
 90
        4
 91
        0
  1

274
    -2
284
     1
 64
     0
275
    -2
285
     1
 65
     0
276
    -2
286
     1
 66
     0
277
    -2
287
     1
 67
     0
278
    -2
288
     1
 68
     0
279
    -2
289
     1
 69
     0
  7
Standard
140
4.5
170
     5
 62
     0
 63
   257
283
     0
 90
        4
 91
        0
  1

274
    -2
284
     1
 64
     0
275
    -2
285
     1
 65
     0
276
    -2
286
     1
 66
     0
277
    -2
287
     1
 67
     0
278
    -2
288
     1
 68
     0
279
    -2
289
     1
 69
     0
  0
VISUALSTYLE
  5
17E
102
{ACAD_REACTORS
330
179
102
}
330
179
100
AcDbVisualStyle
  2
2dWireframe
 70
     4
177
     3
291
     0
 70
    58
 90
        0
176
     1
 90
        2
176
     1
 90
        0
176
     1
 90
        0
176
     1
 40
0.6
176
     1
 40
30.0
176
     1
 62
     7
420
 16777215
176
     1
 90
        1
176
     1
 90
        4
176
     1
 62
     7
176
     1
 62
   257
176
     1
 90
        1
176
     1
 90
        1
176
     1
 40
1.0
176
     1
 90
        0
176
     1
 62
   257
176
     1
 40
1.0
176
     1
 90
        1
176
     1
 90
        6
176
     1
 90
        2
176
     1
 62
     7
176
     1
 90
        5
176
     1
 90
        0
176
     1
 90
        0
176
     1
290
     0
176
     1
 90
        1
176
     1
 40
0.0
176
     1
 90
        0
176
     1
290
     1
176
     1
290
     1
176
     1
290
     0
176
     1
290
     0
176
     1
290
     0
176
     1
290
     0
176
     1
290
     0
176
     1
290
     0
176
     1
290
     0
176
     1
 90
       50
176
     1
 40
0.0
176
     1
 40
1.0
176
     1
 90
        0
176
     1
 62
    18
420
        0
176
     1
 90
       50
176
     1
 90
        3
176
     1
 62
     5
420
      255
176
     1
290
     0
176
     1
 90
       50
176
     1
 90
       50
176
     1
 90
       50
176
     1
290
     0
176
     1
 90
       50
176
     1
 62
   256
176
     0
 40
1.0
176
     0
 90
        2
176
     1
  1
strokes_ogs.tif
176
     1
290
     0
176
     1
 40
1.0
176
     1
 40
1.0
176
     1
  0
VISUALSTYLE
  5
181
102
{ACAD_REACTORS
330
179
102
}
330
179
100
AcDbVisualStyle
  2
Basic
 70
     7
177
     3
291
     1
 70
    58
 90
        1
176
     1
 90
        0
176
     1
 90
        1
176
     1
 90
        0
176
     1
 40
0.6
176
     1
 40
30.0
176
     1
 62
     7
420
 16777215
176
     1
 90
        0
176
     1
 90
        4
176
     1
 62
     7
176
     1
 62
   257
176
     1
 90
        1
176
     1
 90
        1
176
     1
 40
1.0
176
     1
 90
        8
176
     1
 62
     7
176
     1
 40
1.0
176
     1
 90
        1
176
     1
 90
        6
176
     1
 90
        2
176
     1
 62
     7
176
     1
 90
        5
176
     1
 90
        0
176
     1
 90
        0
176
     1
290
     0
176
     1
 90
        1
176
     1
 40
0.0
176
     1
 90
        0
176
     1
290
     0
176
     1
290
     1
176
     1
290
     1
176
     1
290
     0
176
     1
290
     0
176
     1
290
     0
176
     1
290
     0
176
     1
290
     0
176
     1
290
     0
176
     1
 90
       50
176
     1
 40
0.0
176
     1
 40
1.0
176
     1
 90
        0
176
     1
 62
    18
420
        0
176
     1
 90
       50
176
     1
 90
        3
176
     1
 62
     5
420
      255
176
     1
290
     0
176
     1
 90
       50
176
     1
 90
       50
176
     1
 90
       50
176
     1
290
     0
176
     1
 90
       50
176
     1
 62
   256
176
     0
 40
1.0
176
     0
 90
        2
176
     1
  1
strokes_ogs.tif
176
     1
290
     0
176
     1
 40
1.0
176
     1
 40
1.0
176
     1
  0
VISUALSTYLE
  5
185
102
{ACAD_REACTORS
330
179
102
}
330
179
100
AcDbVisualStyle
  2
Brighten
 70
    12
177
     3
291
     1
 70
    58
 90
        2
176
     1
 90
        2
176
     1
 90
        0
176
     1
 90
        0
176
     1
 40
0.6
176
     1
 40
30.0
176
     1
 62
     7
420
 16777215
176
     1
 90
        1
176
     1
 90
        4
176
     1
 62
     7
176
     1
 62
   257
176
     1
 90
        1
176
     1
 90
        1
176
     1
 40
1.0
176
     1
 90
        8
176
     1
 62
     7
176
     1
 40
1.0
176
     1
 90
        1
176
     1
 90
        6
176
     1
 90
        2
176
     1
 62
     7
176
     1
 90
        5
176
     1
 90
        0
176
     1
 90
        0
176
     1
290
     0
176
     1
 90
        1
176
     1
 40
50.0
176
     1
 90
        0
176
     1
290
     0
176
     1
290
     1
176
     1
290
     1
176
     1
290
     0
176
     1
290
     0
176
     1
290
     0
176
     1
290
     0
176
     1
290
     0
176
     1
290
     0
176
     1
 90
       50
176
     1
 40
0.0
176
     1
 40
1.0
176
     1
 90
        0
176
     1
 62
    18
420
        0
176
     1
 90
       50
176
     1
 90
        3
176
     1
 62
     5
420
      255
176
     1
290
     0
176
     1
 90
       50
176
     1
 90
       50
176
     1
 90
       50
176
     1
290
     0
176
     1
 90
       50
176
     1
 62
   256
176
     0
 40
1.0
176
     0
 90
        2
176
     1
  1
strokes_ogs.tif
176
     1
290
     0
176
     1
 40
1.0
176
     1
 40
1.0
176
     1
  0
VISUALSTYLE
  5
189
102
{ACAD_REACTORS
330
179
102
}
330
179
100
AcDbVisualStyle
  2
ColorChange
 70
    16
177
     3
291
     1
 70
    58
 90
        2
176
     1
 90
        2
176
     1
 90
        3
176
     1
 90
        0
176
     1
 40
0.6
176
     1
 40
30.0
176
     1
 62
     8
420
  8421504
176
     1
 90
        1
176
     1
 90
        4
176
     1
 62
     7
176
     1
 62
   257
176
     1
 90
        1
176
     1
 90
        1
176
     1
 40
1.0
176
     1
 90
        8
176
     1
 62
     8
420
  8421504
176
     1
 40
1.0
176
     1
 90
        1
176
     1
 90
        6
176
     1
 90
        2
176
     1
 62
     7
176
     1
 90
        5
176
     1
 90
        0
176
     1
 90
        0
176
     1
290
     0
176
     1
 90
        1
176
     1
 40
0.0
176
     1
 90
        0
176
     1
290
     0
176
     1
290
     1
176
     1
290
     1
176
     1
290
     0
176
     1
290
     0
176
     1
290
     0
176
     1
290
     0
176
     1
290
     0
176
     1
290
     0
176
     1
 90
       50
176
     1
 40
0.0
176
     1
 40
1.0
176
     1
 90
        0
176
     1
 62
    18
420
        0
176
     1
 90
       50
176
     1
 90
        3
176
     1
 62
     5
420
      255
176
     1
290
     0
176
     1
 90
       50
176
     1
 90
       50
176
     1
 90
       50
176
     1
290
     0
176
     1
 90
       50
176
     1
 62
   256
176
     0
 40
1.0
176
     0
 90
        2
176
     1
  1
strokes_ogs.tif
176
     1
290
     0
176
     1
 40
1.0
176
     1
 40
1.0
176
     1
  0
VISUALSTYLE
  5
183
102
{ACAD_REACTORS
330
179
102
}
330
179
100
AcDbVisualStyle
  2
Conceptual
 70
     9
177
     3
291
     0
 70
    58
 90
        3
176
     1
 90
        2
176
     1
 90
        0
176
     1
 90
        0
176
     1
 40
0.6
176
     1
 40
30.0
176
     1
 62
     7
420
 16777215
176
     1
 90
        2
176
     1
 90
        2
176
     1
 62
     7
176
     1
 62
   257
176
     1
 90
        1
176
     1
 90
        1
176
     1
 40
179.0
176
     1
 90
        8
176
     1
 62
     7
176
     1
 40
1.0
176
     1
 90
        1
176
     1
 90
        6
176
     1
 90
        2
176
     1
 62
     7
176
     1
 90
        3
176
     1
 90
        0
176
     1
 90
        0
176
     1
290
     0
176
     1
 90
        1
176
     1
 40
0.0
176
     1
 90
        0
176
     1
290
     0
176
     1
290
     1
176
     1
290
     1
176
     1
290
     0
176
     1
290
     0
176
     1
290
     0
176
     1
290
     0
176
     1
290
     0
176
     1
290
     0
176
     1
 90
       50
176
     1
 40
0.0
176
     1
 40
1.0
176
     1
 90
        0
176
     1
 62
    18
420
        0
176
     1
 90
       50
176
     1
 90
        3
176
     1
 62
     5
420
      255
176
     1
290
     0
176
     1
 90
       50
176
     1
 90
       50
176
     1
 90
       50
176
     1
290
     0
176
     1
 90
       50
176
     1
 62
   256
176
     0
 40
1.0
176
     0
 90
        2
176
     1
  1
strokes_ogs.tif
176
     1
290
     0
176
     1
 40
1.0
176
     1
 40
1.0
176
     1
  0
VISUALSTYLE
  5
184
102
{ACAD_REACTORS
330
179
102
}
330
179
100
AcDbVisualStyle
  2
Dim
 70
    11
177
     3
291
     1
 70
    58
 90
        2
176
     1
 90
        2
176
     1
 90
        0
176
     1
 90
        0
176
     1
 40
0.6
176
     1
 40
30.0
176
     1
 62
     7
420
 16777215
176
     1
 90
        1
176
     1
 90
        4
176
     1
 62
     7
176
     1
 62
   257
176
     1
 90
        1
176
     1
 90
        1
176
     1
 40
1.0
176
     1
 90
        8
176
     1
 62
     7
176
     1
 40
1.0
176
     1
 90
        1
176
     1
 90
        6
176
     1
 90
        2
176
     1
 62
     7
176
     1
 90
        5
176
     1
 90
        0
176
     1
 90
        0
176
     1
290
     0
176
     1
 90
        1
176
     1
 40
-50.0
176
     1
 90
        0
176
     1
290
     0
176
     1
290
     1
176
     1
290
     1
176
     1
290
     0
176
     1
290
     0
176
     1
290
     0
176
     1
290
     0
176
     1
290
     0
176
     1
290
     0
176
     1
 90
       50
176
     1
 40
0.0
176
     1
 40
1.0
176
     1
 90
        0
176
     1
 62
    18
420
        0
176
     1
 90
       50
176
     1
 90
        3
176
     1
 62
     5
420
      255
176
     1
290
     0
176
     1
 90
       50
176
     1
 90
       50
176
     1
 90
       50
176
     1
290
     0
176
     1
 90
       50
176
     1
 62
   256
176
     0
 40
1.0
176
     0
 90
        2
176
     1
  1
strokes_ogs.tif
176
     1
290
     0
176
     1
 40
1.0
176
     1
 40
1.0
176
     1
  0
VISUALSTYLE
  5
18C
102
{ACAD_REACTORS
330
179
102
}
330
179
100
AcDbVisualStyle
  2
EdgeColorOff
 70
    22
177
     3
291
     1
 70
    58
 90
        2
176
     0
 90
        2
176
     0
 90
        0
176
     0
 90
        0
176
     0
 40
0.6
176
     0
 40
30.0
176
     0
 62
     7
420
 16777215
176
     0
 90
        1
176
     0
 90
        4
176
     0
 62
     7
176
     0
 62
   257
176
     0
 90
        1
176
     0
 90
        1
176
     0
 40
1.0
176
     0
 90
        8
176
     2
 62
     7
176
     0
 40
1.0
176
     0
 90
        1
176
     0
 90
        6
176
     0
 90
        2
176
     0
 62
     7
176
     0
 90
        5
176
     0
 90
        0
176
     0
 90
        0
176
     0
290
     0
176
     0
 90
        1
176
     0
 40
0.0
176
     0
 90
        0
176
     0
290
     0
176
     0
290
     1
176
     0
290
     1
176
     0
290
     0
176
     0
290
     0
176
     0
290
     0
176
     0
290
     0
176
     0
290
     0
176
     0
290
     0
176
     0
 90
       50
176
     0
 40
0.0
176
     0
 40
1.0
176
     0
 90
        0
176
     0
 62
    18
420
        0
176
     0
 90
       50
176
     0
 90
        3
176
     0
 62
     5
420
      255
176
     0
290
     0
176
     0
 90
       50
176
     0
 90
       50
176
     0
 90
       50
176
     0
290
     0
176
     0
 90
       50
176
     0
 62
   256
176
     0
 40
1.0
176
     0
 90
        2
176
     0
  1
strokes_ogs.tif
176
     0
290
     0
176
     0
 40
1.0
176
     0
 40
1.0
176
     0
  0
VISUALSTYLE
  5
188
102
{ACAD_REACTORS
330
179
102
}
330
179
100
AcDbVisualStyle
  2
Facepattern
 70
    15
177
     3
291
     1
 70
    58
 90
        2
176
     1
 90
        2
176
     1
 90
        0
176
     1
 90
        0
176
     1
 40
0.6
176
     1
 40
30.0
176
     1
 62
     7
420
 16777215
176
     1
 90
        1
176
     1
 90
        4
176
     1
 62
     7
176
     1
 62
   257
176
     1
 90
        1
176
     1
 90
        1
176
     1
 40
1.0
176
     1
 90
        8
176
     1
 62
     7
176
     1
 40
1.0
176
     1
 90
        1
176
     1
 90
        6
176
     1
 90
        2
176
     1
 62
     7
176
     1
 90
        5
176
     1
 90
        0
176
     1
 90
        0
176
     1
290
     0
176
     1
 90
        1
176
     1
 40
0.0
176
     1
 90
        0
176
     1
290
     0
176
     1
290
     1
176
     1
290
     1
176
     1
290
     0
176
     1
290
     0
176
     1
290
     0
176
     1
290
     0
176
     1
290
     0
176
     1
290
     0
176
     1
 90
       50
176
     1
 40
0.0
176
     1
 40
1.0
176
     1
 90
        0
176
     1
 62
    18
420
        0
176
     1
 90
       50
176
     1
 90
        3
176
     1
 62
     5
420
      255
176
     1
290
     0
176
     1
 90
       50
176
     1
 90
       50
176
     1
 90
       50
176
     1
290
     0
176
     1
 90
       50
176
     1
 62
   256
176
     0
 40
1.0
176
     0
 90
        2
176
     1
  1
strokes_ogs.tif
176
     1
290
     0
176
     1
 40
1.0
176
     1
 40
1.0
176
     1
  0
VISUALSTYLE
  5
17A
102
{ACAD_REACTORS
330
179
102
}
330
179
100
AcDbVisualStyle
  2
Flat
 70
     0
177
     3
291
     1
 70
    58
 90
        2
176
     1
 90
        1
176
     1
 90
        1
176
     1
 90
        2
176
     1
 40
0.6
176
     1
 40
30.0
176
     1
 62
     7
420
 16777215
176
     1
 90
        0
176
     1
 90
        0
176
     1
 62
     7
176
     1
 62
   257
176
     1
 90
        1
176
     1
 90
        1
176
     1
 40
1.0
176
     1
 90
        8
176
     1
 62
     7
176
     1
 40
1.0
176
     1
 90
        1
176
     1
 90
        6
176
     1
 90
        2
176
     1
 62
     7
176
     1
 90
        5
176
     1
 90
        0
176
     1
 90
        0
176
     1
290
     0
176
     1
 90
       13
176
     1
 40
0.0
176
     1
 90
        0
176
     1
290
     0
176
     1
290
     1
176
     1
290
     1
176
     1
290
     0
176
     1
290
     0
176
     1
290
     0
176
     1
290
     0
176
     1
290
     0
176
     1
290
     0
176
     1
 90
       50
176
     1
 40
0.0
176
     1
 40
1.0
176
     1
 90
        0
176
     1
 62
    18
420
        0
176
     1
 90
       50
176
     1
 90
        3
176
     1
 62
     5
420
      255
176
     1
290
     0
176
     1
 90
       50
176
     1
 90
       50
176
     1
 90
       50
176
     1
290
     0
176
     1
 90
       50
176
     1
 62
   256
176
     0
 40
1.0
176
     0
 90
        2
176
     1
  1
strokes_ogs.tif
176
     1
290
     0
176
     1
 40
1.0
176
     1
 40
1.0
176
     1
  0
VISUALSTYLE
  5
17B
102
{ACAD_REACTORS
330
179
102
}
330
179
100
AcDbVisualStyle
  2
FlatWithEdges
 70
     1
177
     3
291
     1
 70
    58
 90
        2
176
     1
 90
        1
176
     1
 90
        1
176
     1
 90
        2
176
     1
 40
0.6
176
     1
 40
30.0
176
     1
 62
     7
420
 16777215
176
     1
 90
        1
176
     1
 90
        0
176
     1
 62
     7
176
     1
 62
   257
176
     1
 90
        1
176
     1
 90
        1
176
     1
 40
1.0
176
     1
 90
        0
176
     1
 62
   257
176
     1
 40
1.0
176
     1
 90
        1
176
     1
 90
        6
176
     1
 90
        2
176
     1
 62
     7
176
     1
 90
        5
176
     1
 90
        0
176
     1
 90
        0
176
     1
290
     0
176
     1
 90
       13
176
     1
 40
0.0
176
     1
 90
        0
176
     1
290
     0
176
     1
290
     1
176
     1
290
     1
176
     1
290
     0
176
     1
290
     0
176
     1
290
     0
176
     1
290
     0
176
     1
290
     0
176
     1
290
     0
176
     1
 90
       50
176
     1
 40
0.0
176
     1
 40
1.0
176
     1
 90
        0
176
     1
 62
    18
420
        0
176
     1
 90
       50
176
     1
 90
        3
176
     1
 62
     5
420
      255
176
     1
290
     0
176
     1
 90
       50
176
     1
 90
       50
176
     1
 90
       50
176
     1
290
     0
176
     1
 90
       50
176
     1
 62
   256
176
     0
 40
1.0
176
     0
 90
        2
176
     1
  1
strokes_ogs.tif
176
     1
290
     0
176
     1
 40
1.0
176
     1
 40
1.0
176
     1
  0
VISUALSTYLE
  5
17C
102
{ACAD_REACTORS
330
179
102
}
330
179
100
AcDbVisualStyle
  2
Gouraud
 70
     2
177
     3
291
     1
 70
    58
 90
        2
176
     1
 90
        2
176
     1
 90
        1
176
     1
 90
        2
176
     1
 40
0.6
176
     1
 40
30.0
176
     1
 62
     7
420
 16777215
176
     1
 90
        0
176
     1
 90
        0
176
     1
 62
     7
176
     1
 62
   257
176
     1
 90
        1
176
     1
 90
        1
176
     1
 40
1.0
176
     1
 90
        0
176
     1
 62
     7
176
     1
 40
1.0
176
     1
 90
        1
176
     1
 90
        6
176
     1
 90
        2
176
     1
 62
     7
176
     1
 90
        5
176
     1
 90
        0
176
     1
 90
        0
176
     1
290
     0
176
     1
 90
       13
176
     1
 40
0.0
176
     1
 90
        0
176
     1
290
     0
176
     1
290
     1
176
     1
290
     1
176
     1
290
     0
176
     1
290
     0
176
     1
290
     0
176
     1
290
     0
176
     1
290
     0
176
     1
290
     0
176
     1
 90
       50
176
     1
 40
0.0
176
     1
 40
1.0
176
     1
 90
        0
176
     1
 62
    18
420
        0
176
     1
 90
       50
176
     1
 90
        3
176
     1
 62
     5
420
      255
176
     1
290
     0
176
     1
 90
       50
176
     1
 90
       50
176
     1
 90
       50
176
     1
290
     0
176
     1
 90
       50
176
     1
 62
   256
176
     0
 40
1.0
176
     0
 90
        2
176
     1
  1
strokes_ogs.tif
176
     1
290
     0
176
     1
 40
1.0
176
     1
 40
1.0
176
     1
  0
VISUALSTYLE
  5
17D
102
{ACAD_REACTORS
330
179
102
}
330
179
100
AcDbVisualStyle
  2
GouraudWithEdges
 70
     3
177
     3
291
     1
 70
    58
 90
        2
176
     1
 90
        2
176
     1
 90
        1
176
     1
 90
        2
176
     1
 40
0.6
176
     1
 40
30.0
176
     1
 62
     7
420
 16777215
176
     1
 90
        1
176
     1
 90
        0
176
     1
 62
     7
176
     1
 62
   257
176
     1
 90
        1
176
     1
 90
        1
176
     1
 40
1.0
176
     1
 90
        0
176
     1
 62
   257
176
     1
 40
1.0
176
     1
 90
        1
176
     1
 90
        6
176
     1
 90
        2
176
     1
 62
     7
176
     1
 90
        5
176
     1
 90
        0
176
     1
 90
        0
176
     1
290
     0
176
     1
 90
       13
176
     1
 40
0.0
176
     1
 90
        0
176
     1
290
     0
176
     1
290
     1
176
     1
290
     1
176
     1
290
     0
176
     1
290
     0
176
     1
290
     0
176
     1
290
     0
176
     1
290
     0
176
     1
290
     0
176
     1
 90
       50
176
     1
 40
0.0
176
     1
 40
1.0
176
     1
 90
        0
176
     1
 62
    18
420
        0
176
     1
 90
       50
176
     1
 90
        3
176
     1
 62
     5
420
      255
176
     1
290
     0
176
     1
 90
       50
176
     1
 90
       50
176
     1
 90
       50
176
     1
290
     0
176
     1
 90
       50
176
     1
 62
   256
176
     0
 40
1.0
176
     0
 90
        2
176
     1
  1
strokes_ogs.tif
176
     1
290
     0
176
     1
 40
1.0
176
     1
 40
1.0
176
     1
  0
VISUALSTYLE
  5
180
102
{ACAD_REACTORS
330
179
102
}
330
179
100
AcDbVisualStyle
  2
Hidden
 70
     6
177
     3
291
     0
 70
    58
 90
        1
176
     1
 90
        2
176
     1
 90
        2
176
     1
 90
        0
176
     1
 40
0.6
176
     1
 40
30.0
176
     1
 62
     7
420
 16777215
176
     1
 90
        2
176
     1
 90
        2
176
     1
 62
     7
176
     1
 62
   257
176
     1
 90
        2
176
     1
 90
        1
176
     1
 40
40.0
176
     1
 90
        0
176
     1
 62
   257
176
     1
 40
1.0
176
     1
 90
        1
176
     1
 90
        6
176
     1
 90
        2
176
     1
 62
     7
176
     1
 90
        3
176
     1
 90
        0
176
     1
 90
        0
176
     1
290
     0
176
     1
 90
        1
176
     1
 40
0.0
176
     1
 90
        0
176
     1
290
     0
176
     1
290
     1
176
     1
290
     1
176
     1
290
     0
176
     1
290
     0
176
     1
290
     0
176
     1
290
     0
176
     1
290
     0
176
     1
290
     0
176
     1
 90
       50
176
     1
 40
0.0
176
     1
 40
1.0
176
     1
 90
        0
176
     1
 62
    18
420
        0
176
     1
 90
       50
176
     1
 90
        3
176
     1
 62
     5
420
      255
176
     1
290
     0
176
     1
 90
       50
176
     1
 90
       50
176
     1
 90
       50
176
     1
290
     0
176
     1
 90
       50
176
     1
 62
   256
176
     0
 40
1.0
176
     0
 90
        2
176
     1
  1
strokes_ogs.tif
176
     1
290
     0
176
     1
 40
1.0
176
     1
 40
1.0
176
     1
  0
VISUALSTYLE
  5
18A
102
{ACAD_REACTORS
330
179
102
}
330
179
100
AcDbVisualStyle
  2
JitterOff
 70
    20
177
     3
291
     1
 70
    58
 90
        2
176
     0
 90
        2
176
     0
 90
        0
176
     0
 90
        0
176
     0
 40
0.6
176
     0
 40
30.0
176
     0
 62
     7
420
 16777215
176
     0
 90
        1
176
     0
 90
        4
176
     0
 62
     7
176
     0
 62
   257
176
     0
 90
        1
176
     0
 90
        1
176
     0
 40
1.0
176
     0
 90
       10
176
     2
 62
     7
176
     0
 40
1.0
176
     0
 90
        1
176
     0
 90
        6
176
     0
 90
        2
176
     0
 62
     7
176
     0
 90
        5
176
     0
 90
        0
176
     0
 90
        0
176
     0
290
     0
176
     0
 90
        1
176
     0
 40
0.0
176
     0
 90
        0
176
     0
290
     0
176
     0
290
     1
176
     0
290
     1
176
     0
290
     0
176
     0
290
     0
176
     0
290
     0
176
     0
290
     0
176
     0
290
     0
176
     0
290
     0
176
     0
 90
       50
176
     0
 40
0.0
176
     0
 40
1.0
176
     0
 90
        0
176
     0
 62
    18
420
        0
176
     0
 90
       50
176
     0
 90
        3
176
     0
 62
     5
420
      255
176
     0
290
     0
176
     0
 90
       50
176
     0
 90
       50
176
     0
 90
       50
176
     0
290
     0
176
     0
 90
       50
176
     0
 62
   256
176
     0
 40
1.0
176
     0
 90
        2
176
     0
  1
strokes_ogs.tif
176
     0
290
     0
176
     0
 40
1.0
176
     0
 40
1.0
176
     0
  0
VISUALSTYLE
  5
187
102
{ACAD_REACTORS
330
179
102
}
330
179
100
AcDbVisualStyle
  2
Linepattern
 70
    14
177
     3
291
     1
 70
    58
 90
        2
176
     1
 90
        2
176
     1
 90
        0
176
     1
 90
        0
176
     1
 40
0.6
176
     1
 40
30.0
176
     1
 62
     7
420
 16777215
176
     1
 90
        1
176
     1
 90
        4
176
     1
 62
     7
176
     1
 62
   257
176
     1
 90
        7
176
     1
 90
        7
176
     1
 40
1.0
176
     1
 90
        8
176
     1
 62
     7
176
     1
 40
1.0
176
     1
 90
        1
176
     1
 90
        6
176
     1
 90
        2
176
     1
 62
     7
176
     1
 90
        5
176
     1
 90
        0
176
     1
 90
        0
176
     1
290
     0
176
     1
 90
        1
176
     1
 40
0.0
176
     1
 90
        0
176
     1
290
     0
176
     1
290
     1
176
     1
290
     1
176
     1
290
     0
176
     1
290
     0
176
     1
290
     0
176
     1
290
     0
176
     1
290
     0
176
     1
290
     0
176
     1
 90
       50
176
     1
 40
0.0
176
     1
 40
1.0
176
     1
 90
        0
176
     1
 62
    18
420
        0
176
     1
 90
       50
176
     1
 90
        3
176
     1
 62
     5
420
      255
176
     1
290
     0
176
     1
 90
       50
176
     1
 90
       50
176
     1
 90
       50
176
     1
290
     0
176
     1
 90
       50
176
     1
 62
   256
176
     0
 40
1.0
176
     0
 90
        2
176
     1
  1
strokes_ogs.tif
176
     1
290
     0
176
     1
 40
1.0
176
     1
 40
1.0
176
     1
  0
VISUALSTYLE
  5
18B
102
{ACAD_REACTORS
330
179
102
}
330
179
100
AcDbVisualStyle
  2
OverhangOff
 70
    21
177
     3
291
     1
 70
    58
 90
        2
176
     0
 90
        2
176
     0
 90
        0
176
     0
 90
        0
176
     0
 40
0.6
176
     0
 40
30.0
176
     0
 62
     7
420
 16777215
176
     0
 90
        1
176
     0
 90
        4
176
     0
 62
     7
176
     0
 62
   257
176
     0
 90
        1
176
     0
 90
        1
176
     0
 40
1.0
176
     0
 90
        9
176
     2
 62
     7
176
     0
 40
1.0
176
     0
 90
        1
176
     0
 90
        6
176
     0
 90
        2
176
     0
 62
     7
176
     0
 90
        5
176
     0
 90
        0
176
     0
 90
        0
176
     0
290
     0
176
     0
 90
        1
176
     0
 40
0.0
176
     0
 90
        0
176
     0
290
     0
176
     0
290
     1
176
     0
290
     1
176
     0
290
     0
176
     0
290
     0
176
     0
290
     0
176
     0
290
     0
176
     0
290
     0
176
     0
290
     0
176
     0
 90
       50
176
     0
 40
0.0
176
     0
 40
1.0
176
     0
 90
        0
176
     0
 62
    18
420
        0
176
     0
 90
       50
176
     0
 90
        3
176
     0
 62
     5
420
      255
176
     0
290
     0
176
     0
 90
       50
176
     0
 90
       50
176
     0
 90
       50
176
     0
290
     0
176
     0
 90
       50
176
     0
 62
   256
176
     0
 40
1.0
176
     0
 90
        2
176
     0
  1
strokes_ogs.tif
176
     0
290
     0
176
     0
 40
1.0
176
     0
 40
1.0
176
     0
  0
VISUALSTYLE
  5
182
102
{ACAD_REACTORS
330
179
102
}
330
179
100
AcDbVisualStyle
  2
Realistic
 70
     8
177
     3
291
     0
 70
    58
 90
        2
176
     1
 90
        3
176
     1
 90
        0
176
     1
 90
        2
176
     1
 40
0.6
176
     1
 40
30.0
176
     1
 62
     7
420
 16777215
176
     1
 90
        0
176
     1
 90
        0
176
     1
 62
     7
176
     1
 62
   257
176
     1
 90
        1
176
     1
 90
        1
176
     1
 40
1.0
176
     1
 90
        8
176
     1
 62
   257
176
     1
 40
1.0
176
     1
 90
        1
176
     1
 90
        6
176
     1
 90
        2
176
     1
 62
     7
176
     1
 90
        3
176
     1
 90
        0
176
     1
 90
        0
176
     1
290
     0
176
     1
 90
       13
176
     1
 40
0.0
176
     1
 90
        0
176
     1
290
     0
176
     1
290
     1
176
     1
290
     1
176
     1
290
     0
176
     1
290
     0
176
     1
290
     0
176
     1
290
     0
176
     1
290
     0
176
     1
290
     0
176
     1
 90
       50
176
     1
 40
0.0
176
     1
 40
1.0
176
     1
 90
        0
176
     1
 62
    18
420
        0
176
     1
 90
       50
176
     1
 90
        3
176
     1
 62
     5
420
      255
176
     1
290
     0
176
     1
 90
       50
176
     1
 90
       50
176
     1
 90
       50
176
     1
290
     0
176
     1
 90
       50
176
     1
 62
   256
176
     0
 40
1.0
176
     0
 90
        2
176
     1
  1
strokes_ogs.tif
176
     1
290
     0
176
     1
 40
1.0
176
     1
 40
1.0
176
     1
  0
VISUALSTYLE
  5
191
102
{ACAD_REACTORS
330
179
102
}
330
179
100
AcDbVisualStyle
  2
Shaded
 70
    27
177
     3
291
     0
 70
    58
 90
        2
176
     1
 90
        2
176
     1
 90
        1
176
     1
 90
        2
176
     1
 40
0.6
176
     1
 40
30.0
176
     1
 62
     7
420
 16777215
176
     1
 90
        0
176
     1
 90
        4
176
     1
 62
     7
176
     1
 62
   257
176
     1
 90
        1
176
     1
 90
        1
176
     1
 40
1.0
176
     1
 90
        8
176
     1
 62
   257
176
     1
 40
1.0
176
     1
 90
        1
176
     1
 90
        6
176
     1
 90
        2
176
     1
 62
     8
420
  7895160
176
     1
 90
        3
176
     1
 90
        0
176
     1
 90
        0
176
     1
290
     0
176
     1
 90
        5
176
     1
 40
0.0
176
     1
 90
        0
176
     1
290
     0
176
     1
290
     1
176
     1
290
     1
176
     1
290
     0
176
     1
290
     0
176
     1
290
     0
176
     1
290
     0
176
     1
290
     0
176
     1
290
     0
176
     1
 90
       50
176
     1
 40
0.0
176
     1
 40
1.0
176
     1
 90
        0
176
     1
 62
    18
420
        0
176
     1
 90
       50
176
     1
 90
        3
176
     1
 62
     5
420
      255
176
     1
290
     0
176
     1
 90
       50
176
     1
 90
       50
176
     1
 90
       50
176
     1
290
     0
176
     1
 90
       50
176
     1
 62
   256
176
     0
 40
1.0
176
     0
 90
        2
176
     1
  1
strokes_ogs.tif
176
     1
290
     0
176
     1
 40
1.0
176
     1
 40
1.0
176
     1
  0
VISUALSTYLE
  5
190
102
{ACAD_REACTORS
330
179
102
}
330
179
100
AcDbVisualStyle
  2
Shaded with edges
 70
    26
177
     3
291
     0
 70
    58
 90
        2
176
     1
 90
        2
176
     1
 90
        1
176
     1
 90
        2
176
     1
 40
0.6
176
     1
 40
30.0
176
     1
 62
     7
420
 16777215
176
     1
 90
        1
176
     1
 90
       10
176
     1
 62
     7
176
     1
 62
   257
176
     1
 90
        2
176
     1
 90
        1
176
     1
 40
1.0
176
     1
 90
        8
176
     1
 62
   257
176
     1
 40
1.0
176
     1
 90
        1
176
     1
 90
        6
176
     1
 90
        2
176
     1
 62
     7
176
     1
 90
        3
176
     1
 90
        0
176
     1
 90
        0
176
     1
290
     0
176
     1
 90
        5
176
     1
 40
0.0
176
     1
 90
        0
176
     1
290
     0
176
     1
290
     1
176
     1
290
     1
176
     1
290
     0
176
     1
290
     0
176
     1
290
     0
176
     1
290
     0
176
     1
290
     0
176
     1
290
     0
176
     1
 90
       50
176
     1
 40
0.0
176
     1
 40
1.0
176
     1
 90
        0
176
     1
 62
    18
420
        0
176
     1
 90
       50
176
     1
 90
        3
176
     1
 62
     5
420
      255
176
     1
290
     0
176
     1
 90
       50
176
     1
 90
       50
176
     1
 90
       50
176
     1
290
     0
176
     1
 90
       50
176
     1
 62
   256
176
     0
 40
1.0
176
     0
 90
        2
176
     1
  1
strokes_ogs.tif
176
     1
290
     0
176
     1
 40
1.0
176
     1
 40
1.0
176
     1
  0
VISUALSTYLE
  5
18D
102
{ACAD_REACTORS
330
179
102
}
330
179
100
AcDbVisualStyle
  2
Shades of Gray
 70
    23
177
     3
291
     0
 70
    58
 90
        2
176
     1
 90
        2
176
     1
 90
        3
176
     1
 90
        0
176
     1
 40
0.6
176
     1
 40
30.0
176
     1
 62
     7
420
 16777215
176
     1
 90
        2
176
     1
 90
        2
176
     1
 62
     7
176
     1
 62
     7
176
     1
 90
        1
176
     1
 90
        1
176
     1
 40
40.0
176
     1
 90
        8
176
     1
 62
     7
176
     1
 40
1.0
176
     1
 90
        1
176
     1
 90
        6
176
     1
 90
        2
176
     1
 62
     7
176
     1
 90
        3
176
     1
 90
        0
176
     1
 90
        0
176
     1
290
     0
176
     1
 90
        1
176
     1
 40
0.0
176
     1
 90
        0
176
     1
290
     0
176
     1
290
     1
176
     1
290
     1
176
     1
290
     0
176
     1
290
     0
176
     1
290
     0
176
     1
290
     0
176
     1
290
     0
176
     1
290
     0
176
     1
 90
       50
176
     1
 40
0.0
176
     1
 40
1.0
176
     1
 90
        0
176
     1
 62
    18
420
        0
176
     1
 90
       50
176
     1
 90
        3
176
     1
 62
     5
420
      255
176
     1
290
     0
176
     1
 90
       50
176
     1
 90
       50
176
     1
 90
       50
176
     1
290
     0
176
     1
 90
       50
176
     1
 62
   256
176
     0
 40
1.0
176
     0
 90
        2
176
     1
  1
strokes_ogs.tif
176
     1
290
     0
176
     1
 40
1.0
176
     1
 40
1.0
176
     1
  0
VISUALSTYLE
  5
18E
102
{ACAD_REACTORS
330
179
102
}
330
179
100
AcDbVisualStyle
  2
Sketchy
 70
    24
177
     3
291
     0
 70
    58
 90
        1
176
     1
 90
        2
176
     1
 90
        2
176
     1
 90
        0
176
     1
 40
0.6
176
     1
 40
30.0
176
     1
 62
     7
420
 16777215
176
     1
 90
        2
176
     1
 90
        2
176
     1
 62
     7
176
     1
 62
     7
176
     1
 90
        1
176
     1
 90
        1
176
     1
 40
40.0
176
     1
 90
       11
176
     1
 62
     7
176
     1
 40
1.0
176
     1
 90
        1
176
     1
 90
        6
176
     1
 90
        2
176
     1
 62
     7
176
     1
 90
        6
176
     1
 90
        0
176
     1
 90
        0
176
     1
290
     0
176
     1
 90
        1
176
     1
 40
0.0
176
     1
 90
        0
176
     1
290
     0
176
     1
290
     1
176
     1
290
     1
176
     1
290
     0
176
     1
290
     0
176
     1
290
     0
176
     1
290
     0
176
     1
290
     0
176
     1
290
     0
176
     1
 90
       50
176
     1
 40
0.0
176
     1
 40
1.0
176
     1
 90
        0
176
     1
 62
    18
420
        0
176
     1
 90
       50
176
     1
 90
        3
176
     1
 62
     5
420
      255
176
     1
290
     0
176
     1
 90
       50
176
     1
 90
       50
176
     1
 90
       50
176
     1
290
     0
176
     1
 90
       50
176
     1
 62
   256
176
     0
 40
1.0
176
     0
 90
        2
176
     1
  1
strokes_ogs.tif
176
     1
290
     0
176
     1
 40
1.0
176
     1
 40
1.0
176
     1
  0
VISUALSTYLE
  5
186
102
{ACAD_REACTORS
330
179
102
}
330
179
100
AcDbVisualStyle
  2
Thicken
 70
    13
177
     3
291
     1
 70
    58
 90
        2
176
     1
 90
        2
176
     1
 90
        0
176
     1
 90
        0
176
     1
 40
0.6
176
     1
 40
30.0
176
     1
 62
     7
420
 16777215
176
     1
 90
        1
176
     1
 90
        4
176
     1
 62
     7
176
     1
 62
   257
176
     1
 90
        1
176
     1
 90
        1
176
     1
 40
1.0
176
     1
 90
       12
176
     1
 62
     7
176
     1
 40
1.0
176
     1
 90
        1
176
     1
 90
        6
176
     1
 90
        2
176
     1
 62
     7
176
     1
 90
        5
176
     1
 90
        0
176
     1
 90
        0
176
     1
290
     0
176
     1
 90
        1
176
     1
 40
0.0
176
     1
 90
        0
176
     1
290
     0
176
     1
290
     1
176
     1
290
     1
176
     1
290
     0
176
     1
290
     0
176
     1
290
     0
176
     1
290
     0
176
     1
290
     0
176
     1
290
     0
176
     1
 90
       50
176
     1
 40
0.0
176
     1
 40
1.0
176
     1
 90
        0
176
     1
 62
    18
420
        0
176
     1
 90
       50
176
     1
 90
        3
176
     1
 62
     5
420
      255
176
     1
290
     0
176
     1
 90
       50
176
     1
 90
       50
176
     1
 90
       50
176
     1
290
     0
176
     1
 90
       50
176
     1
 62
   256
176
     0
 40
1.0
176
     0
 90
        2
176
     1
  1
strokes_ogs.tif
176
     1
290
     0
176
     1
 40
1.0
176
     1
 40
1.0
176
     1
  0
VISUALSTYLE
  5
17F
102
{ACAD_REACTORS
330
179
102
}
330
179
100
AcDbVisualStyle
  2
Wireframe
 70
     5
177
     3
291
     0
 70
    58
 90
        0
176
     1
 90
        2
176
     1
 90
        0
176
     1
 90
        0
176
     1
 40
0.6
176
     1
 40
30.0
176
     1
 62
     7
420
 16777215
176
     1
 90
        1
176
     1
 90
        4
176
     1
 62
     7
176
     1
 62
   257
176
     1
 90
        1
176
     1
 90
        1
176
     1
 40
1.0
176
     1
 90
        0
176
     1
 62
   257
176
     1
 40
1.0
176
     1
 90
        1
176
     1
 90
        6
176
     1
 90
        2
176
     1
 62
     7
176
     1
 90
        3
176
     1
 90
        0
176
     1
 90
        0
176
     1
290
     0
176
     1
 90
        1
176
     1
 40
0.0
176
     1
 90
        0
176
     1
290
     0
176
     1
290
     1
176
     1
290
     1
176
     1
290
     0
176
     1
290
     0
176
     1
290
     0
176
     1
290
     0
176
     1
290
     0
176
     1
290
     0
176
     1
 90
       50
176
     1
 40
0.0
176
     1
 40
1.0
176
     1
 90
        0
176
     1
 62
    18
420
        0
176
     1
 90
       50
176
     1
 90
        3
176
     1
 62
     5
420
      255
176
     1
290
     0
176
     1
 90
       50
176
     1
 90
       50
176
     1
 90
       50
176
     1
290
     0
176
     1
 90
       50
176
     1
 62
   256
176
     0
 40
1.0
176
     0
 90
        2
176
     1
  1
strokes_ogs.tif
176
     1
290
     0
176
     1
 40
1.0
176
     1
 40
1.0
176
     1
  0
VISUALSTYLE
  5
18F
102
{ACAD_REACTORS
330
179
102
}
330
179
100
AcDbVisualStyle
  2
X-Ray
 70
    25
177
     3
291
     0
 70
    58
 90
        2
176
     1
 90
        2
176
     1
 90
        1
176
     1
 90
        1
176
     1
 40
0.5
176
     1
 40
30.0
176
     1
 62
     7
420
 16777215
176
     1
 90
        1
176
     1
 90
        0
176
     1
 62
     7
176
     1
 62
   257
176
     1
 90
        1
176
     1
 90
        1
176
     1
 40
1.0
176
     1
 90
        8
176
     1
 62
     7
176
     1
 40
1.0
176
     1
 90
        1
176
     1
 90
        6
176
     1
 90
        2
176
     1
 62
     7
176
     1
 90
        3
176
     1
 90
        0
176
     1
 90
        0
176
     1
290
     0
176
     1
 90
       13
176
     1
 40
0.0
176
     1
 90
        0
176
     1
290
     0
176
     1
290
     1
176
     1
290
     1
176
     1
290
     0
176
     1
290
     0
176
     1
290
     0
176
     1
290
     0
176
     1
290
     0
176
     1
290
     0
176
     1
 90
       50
176
     1
 40
0.0
176
     1
 40
1.0
176
     1
 90
        0
176
     1
 62
    18
420
        0
176
     1
 90
       50
176
     1
 90
        3
176
     1
 62
     5
420
      255
176
     1
290
     0
176
     1
 90
       50
176
     1
 90
       50
176
     1
 90
       50
176
     1
290
     0
176
     1
 90
       50
176
     1
 62
   256
176
     0
 40
1.0
176
     0
 90
        2
176
     1
  1
strokes_ogs.tif
176
     1
290
     0
176
     1
 40
1.0
176
     1
 40
1.0
176
     1
  0
DICTIONARYVAR
  5
1AA
102
{ACAD_REACTORS
330
1A9
102
}
330
1A9
100
DictionaryVariables
280
     0
  1
0
  0
CSACDOCUMENTOPTIONS
  5
19F
102
{ACAD_REACTORS
330
19E
102
}
330
19E
  0
XRECORD
  5
1A3
102
{ACAD_REACTORS
330
198
102
}
330
198
100
AcDbXrecord
280
     1
300
MC_VERSION_DATA
 90
       95
310
0600000002000000570000001C000000E404000000000000000000007801936764E5D8CFFA9993818115C460606066E0646662626666706006F218793899F8DE3171E725E6E53B3BBA2878E6951050AF75FEFFFFFF520036E40F2657000000
  0
XRECORD
  5
199
102
{ACAD_REACTORS
330
198
102
}
330
198
100
AcDbXrecord
280
     1
300
MCS_DOCUMENT_ID
 90
       60
310
0600000002000000150000001C000000E404000000000000000000007801E365DA27FBBE7D7AB063479EC2F4BBF6C17FFF03010065940BA115000000
  0
XRECORD
  5
1A1
102
{ACAD_REACTORS
330
198
102
}
330
198
100
AcDbXrecord
280
     1
300
MCS_PARAMS_DATA
 90
     3313
310
0600000002000000F64B00001C000000E404000000000000000000007801C55C5B6C5CC519DE9D595FD6B9DF494B53970A1A6F4A58DF92A6426A1A1210527090E23EF0543976A2BA75E25CAC160A6DA92AF5A55255A96AD556551F4A49A0CF15A03EC0438190865E482021147221409310B6900B3826B1FB7F7366CEFC73E6
310
1CAFBDDE3D9B07D8FF3F73CEF7DFE6FB67E6ECBA757EA3143929F767A4FCCE8636299AA49C90529036BB402C105929F279912F89C6DEAF6FD8BC69AB14A46C51EAC2B9898909BA39945F872C1FCD848A834A91A13B1AD51D6D5266E8A9FAF627E9AABE92BD45CA6F03BD81A3CFC24D59D990C96408C7E066656E0232E13A03
310
14B0AB01724443F05CC3F08780DFC8F19B03FC710A073DC8486413411B49060E3311A05C24C45064703B01D7CCE196A818E5C59C9268B967CBD6DED68ED59DC52EEB78BEF08E09F8223D745649346F1DE9DB35D0B777C089FC5FC3C8EB60BF1A286CF47FE3467F17CC59C5CD990B0CD948C1A77FB9F5CA0E4F479188EA541E
310
3C25A2E22BC99C8892456878B2821857F6B05492C2AD881B41409C21325211340605C9C6DC6006EC49AC088A0CCBB25B1159B72248E415019155047D5453031360047082A7405D92B72AB0F03379693EAB50870260AC609E2C6F6510BB3D081DFE4EF5EFECD71494A7B3590EC7F12C5B25CB32539229914732934ECE22AF1D
310
D259AC8B7B7649E437DE7BDFA69EADF76EE95186E95A7ED74C032DBFA66A9BF1CEF341B19B78E45DDED9EF56FE29189043E4814BF734E1FF34659991678231F23A51010DA578E8294D435524988818E84710A7B2643B4F7C134F5CC6936D1E4176D01398C4D0A83AE0A6BDC86B0BB5C3E1E8299D70A5A945AC12322FE697C4
310
9C8DC3BBBE34D2BA77FBEEA1BEFEED79D15C120DF70F0FEE1A093EF60C8FF47F4BCAB3B0ED666EDB17F5733E2B445B5E2C298985C507BB8BEBBA3A3A3774178B1D777FA5B36B9D327BBE1ED84C030BC74C9EDAB5B64D88BC405AEF1E1CD9D73A34B88F70838775AD5DDBD1B9B6BBABBB73A0ABA37F5D7BE0E757F57D1DB80F
310
037BFBB60D6D6F1DDED1DA3B3CB47D6FDF2EF8A0AD5933506CEF2FF6F7ADD9D6B56D5DFF9A60D6A95222FF670B51F8295953F8455019945B7EE9315C7A8AFEC352DE9D4B4A5050256AA6D1B42D5F0C265BEED4473538E9811F770DEFDCDD3732B86D706870E4A1D69DC303E45F6349C807B6EFCB8B8692103DC352AE816545
310
9E9E798813B5E9A692C86DD9B1A355A5424F8E0BF018466AF90D150136590E2905AA568F782650907D5A7180140B84AD0159F8156902B8F63BDA8BE1A72E29AF48322EA98B5F578631B6F5489B26184C63434803DB221A328E6B58DEAED6DB808FEB6DC068BD0DF8A4DE065CABB7018B3045EB390B3EAD7704C6EA6DC07518
310
10B79C17773A0DB6C361F03BDD064B22C8C7303844629E5064B47323116EB9039777E096BB70247238880C6E39831B9F221C81B3E543C57019D4736C30574EE2DD4AD73B12B9771099772B997713E97A974DF4CECD5D9582B938116EC00926492C777A7F676A8F441E4C882C98032C983211AE26DE8974E196022EC7174366
310
F9AE62C95769E105B5C4B012E2E82ED8CD3516C5E34D519CF0D1F6765A8551C6CC0505130A3E8ABEC46EF81CED54DC1DA04AB7BC4DB0CA082453194AB29B82400C2B438BA6322032B88FE093B3E13470C11297490C8EEF78E88158D51A8AD42283A38F61044E78707A57F8BBDFE2DF2167F36975041D1DA7FCF59430C35792
310
05112533A905D5D3CAAB4759DBB4CA160F3E9309466F934A1794E7E1154C402D3088858048DCDF7EA3E7FECD5B7A7B376D5480CBF43A7E5E49CCBE6BEB37D945B2402FC65F52AB73B67E7F3A58AE93F37A04F6B7011D680556EBCCA2819BC8A21C320F385BBDB4EE56E6E32CE2CB18E358AD7676B4C7C096B1674BAF7B1278
310
1E906198B0DF8681EA696AF34D20563061CAB731C0DB01185B8B0DCA46538BD880EB0E2C6FC3120B40E62289BC162112587895C11513E18290E892090EBF46A9321968C513E0BB89A0AE8F2431B88A7DFC9E07A7BD0A8E668E3AF3CDEA083A3A8ECFB770A00AB53712018F2859D8DB3D93C2E4D422CB77A40BB73A5DB807A7
310
0857A5727AC8838BE45965D0D3D5B29CBEEF99145F4E558AC0C3E9C23D922EDC0FD285FBA107E7958EEDE721E98018A3E3AAC64E7F5C166D7ABA81B65C437BB31D766C74A6ED6E1FBC2766B7AFDAD87156F9771BF44A2A724C461AB43EE729AAFB710D63E2111810BBA3ABC9AE6037E09AB9BF3AB40BE8309F8736AB64CAB2
310
BE7E3364E5AC569CA6976081AF5A311628A8EF68C5B3A4609E3E86AC3AA156E3E83562F4B5A292099A878C61EB3B549CF92354989982613F016CE7AD5A4D09AA1F5126387AAD451EE384D9C035A925859E39C1AA865EE9A9B8DA21CEE289167F7CF1D4C4BC7A125EC5AED5D8BB0B5A9D9144D134CFA71BF85A8D44BE568348
310
F6AA55A2F3CAEACF6982FD29118CC249D3CBF852A586F278BA70FBD3853B90085793EDE51E143F0AD06C6B4CB2242BDDBDD1419166C2865E85F9CE1648F3CBF54B2E655D5432557AB8C599EEE6E763403914E55050D879E2BFFA30F366F009F0CB378371CA9B99D05949929DD07465EA8797A3808B6B06B9536E64AF9C844C
310
903AF2F3709D3783A318A078E4F37AEBBCEC2DD1B228B722F785DC2DB9D64C476675A63353CC74E937B1FA39BFA7DB58A6AFC19E49583A4A9B6110A6BA038D3C80418F79D091B18A763C1D8524AA5361F194EC4CC4B23EDBA3192533E95398E41423EB6DCA1C239B4DBF91D13F6D762A6897D7013D496371DC8BECCAA7D45E
310
0C251095ABC98AA38E1B6540CD3DACF829EF15C38D27C2B92DA64A071D13897001094F16523EC1C9E5A99FF465029665AB5B13C49AF8984D174EA40B273D389D33BB29A272F6749622C2719C22AC925104534E7A8CF33714555C6B3CF3BE4BE0AF28994CA9B8353E0F28878DD26D8D2F007FBAAD11BD305CEB4EAB35BE08B8
310
B8D678FEB81BD9134AB6ADF10A644BBEF9C2334A81E4EAA6772450D87DD2AF49C178F020A0EBD3055FF292CC5B8AB3FC4114C86BA708ACDB15F49C43C04EBBE7FCBD0CA8A1CB2AF59CC3897035E1E39713E16AD873FE91085A131FFF19C04DBEDBF8D75406FD3B3A2842E56C8ABE82A171BC3BF89ECB0E0F287926BC7B0450
310
75E4DDA3C09F2EEF56BE2579157071BCBBE7881BD93E255BDE7D04B225A07C61BD5230DE1DBA8C1158736B225E412358525F03747D78F79897E472BCCBAF5BAF2BA0DDE3804E9B765F2F035A65DA3D910857134A7A2311AE52DA8D6E0E9C1341735A873DD47F12A16BE2E99BE9C275792B70532835F1AEDB838B7404B509F7
310
74C449519D9AA19EB28205FF5B08785CE3F9307262735AC933693C270155C7C6730AF8E9359ED3808B6B3CA387DDC6734EC9B6F1C897238DE72006D89713F9C2E58B91C6F3388D608DE70CA0A7DA7866D30F8008DC16BEAA2D26A2AAB848F4108A0CF46D0F54D7A73989E2C56D75B6B8431D2F6EAB64C5CD94644C04869974
310
1626C5B6A280378D1BEE62BCE2C3917700E714386FAA719B1D7E7D464DF7DD444F8317374E8CAA75BEF65E19D0F8F0523EC21D7470DCC60B8CAEF29753FC38EF4760CFDBF99B4673F680D0869F6742513F06849341B61DF57EE3400A02734628D75C0DBC8B68A868B98655ECA330208EA3C6F1B52E3DF1E8849E2433679564
310
431A886148B568E62C4406F75F64308EFD2F9D7039EA6D259B5B2BF91AD8396F72B01004EFC5CD6C88F911E8CCDF849C077E5C64E9488747967101058B73015D99FA9B900B808B63FFB117DCC85E50324556799F2F34BC086EC70CD18A4318C0D9FF2AB6807CDB718046B0A4BE0FE8B4D9FFA207EA504E3D7E65FA014C7226
310
B329B0E8D703AAFEBAA304E869379E693123CD68457958A4FF2F11AE86ECFF6119D078F6E7138AD87FF2370F86D6E1E34789702D76FED2134932CCA824CB8C811832A3160D33426421BD940847AF6F0C11D33DEECB1CFE9B7175D1F926045DE5BD8DBFBDBE9C081764D0049324E6DDB40A8607F34A225C4D16463974B5B836
310
F3B3A32E193EACE499B49986C93A780A6DA631A981D7A6CD34012EAECDFCF23937B23F51B26D337F80CCDBCC36A5C0ECD07DE7E7A7236D663D8D6033A419D0536D33E07F56B8C4CA7C0D48229F9610695A461A0883CE7B494E8DD95B004DF38E8247AB09FE45AC1A52EDAC32A0861DD8DA85D8A76276989D08579353913989
310
700119397510D9BB4CAB9DF096393711B4263ECE4B176E7EBA700B3C389DB3F0B5335AA6A7234288EA142D784A9083AFB414616018456CF64C3293C4CD2F49D3E5A5F0410CEE3E0F2E6A6FEA11580893E29AEE529C2FC11C4DF48D4AA628982DB44A422820F8563073C8F989CF2240392BED74F7768B819FDEDE6E09E0E29A
310
EE0AFA030B3CB273954C91D5916E83CC9BEE074FAB1E6B73B11CFB6CBEB73B4C23589D2D05F4CC9AAE2E4C768646F0614DBB4BD40606BDCC4B726A4DF72640A7DD749797013521AB4ED3C5971C1BF2225712D922FD192CAA82F186C253F467B664EED8B163100EA1787299890C1D4314EEF90B040C236113FD72905624B8F0
310
99FF03A92412CEF64B0000
  0
DICTIONARY
  5
1A5
330
19D
100
AcDbDictionary
280
     1
281
     1
  3
ACAD_ROUNDTRIP_2008_TABLESTYLE_CELLSTYLEMAP
360
1A6
  0
CELLSTYLEMAP
  5
1A6
102
{ACAD_REACTORS
330
1A5
102
}
330
1A5
100
AcDbCellStyleMap
 90
        3
300
CELLSTYLE
  1
TABLEFORMAT_BEGIN
 90
        5
170
     1
 91
        0
 92
        0
 62
   257
 93
        1
300
CONTENTFORMAT
  1
CONTENTFORMAT_BEGIN
 90
        0
 91
        0
 92
        4
 93
        0
300

 40
0.0
140
1.0
 94
        5
 62
     0
340
11
144
6.0
309
CONTENTFORMAT_END
171
     1
301
MARGIN
  1
CELLMARGIN_BEGIN
 40
1.5
 40
1.5
 40
1.5
 40
1.5
 40
4.5
 40
4.5
309
CELLMARGIN_END
 94
        6
 95
        1
302
GRIDFORMAT
  1
GRIDFORMAT_BEGIN
 90
        0
 91
        1
 62
     0
 92
       -2
340
14
 93
        0
 40
1.125
309
GRIDFORMAT_END
 95
        2
302
GRIDFORMAT
  1
GRIDFORMAT_BEGIN
 90
        0
 91
        1
 62
     0
 92
       -2
340
14
 93
        0
 40
1.125
309
GRIDFORMAT_END
 95
        4
302
GRIDFORMAT
  1
GRIDFORMAT_BEGIN
 90
        0
 91
        1
 62
     0
 92
       -2
340
14
 93
        0
 40
1.125
309
GRIDFORMAT_END
 95
        8
302
GRIDFORMAT
  1
GRIDFORMAT_BEGIN
 90
        0
 91
        1
 62
     0
 92
       -2
340
14
 93
        0
 40
1.125
309
GRIDFORMAT_END
 95
       16
302
GRIDFORMAT
  1
GRIDFORMAT_BEGIN
 90
        0
 91
        1
 62
     0
 92
       -2
340
14
 93
        0
 40
1.125
309
GRIDFORMAT_END
 95
       32
302
GRIDFORMAT
  1
GRIDFORMAT_BEGIN
 90
        0
 91
        1
 62
     0
 92
       -2
340
14
 93
        0
 40
1.125
309
GRIDFORMAT_END
309
TABLEFORMAT_END
  1
CELLSTYLE_BEGIN
 90
        1
 91
        1
300
_TITLE
309
CELLSTYLE_END
300
CELLSTYLE
  1
TABLEFORMAT_BEGIN
 90
        5
170
     1
 91
        0
 92
        0
 62
   257
 93
        1
300
CONTENTFORMAT
  1
CONTENTFORMAT_BEGIN
 90
        0
 91
        0
 92
        4
 93
        0
300

 40
0.0
140
1.0
 94
        5
 62
     0
340
11
144
4.5
309
CONTENTFORMAT_END
171
     1
301
MARGIN
  1
CELLMARGIN_BEGIN
 40
1.5
 40
1.5
 40
1.5
 40
1.5
 40
4.5
 40
4.5
309
CELLMARGIN_END
 94
        6
 95
        1
302
GRIDFORMAT
  1
GRIDFORMAT_BEGIN
 90
        0
 91
        1
 62
     0
 92
       -2
340
14
 93
        0
 40
1.125
309
GRIDFORMAT_END
 95
        2
302
GRIDFORMAT
  1
GRIDFORMAT_BEGIN
 90
        0
 91
        1
 62
     0
 92
       -2
340
14
 93
        0
 40
1.125
309
GRIDFORMAT_END
 95
        4
302
GRIDFORMAT
  1
GRIDFORMAT_BEGIN
 90
        0
 91
        1
 62
     0
 92
       -2
340
14
 93
        0
 40
1.125
309
GRIDFORMAT_END
 95
        8
302
GRIDFORMAT
  1
GRIDFORMAT_BEGIN
 90
        0
 91
        1
 62
     0
 92
       -2
340
14
 93
        0
 40
1.125
309
GRIDFORMAT_END
 95
       16
302
GRIDFORMAT
  1
GRIDFORMAT_BEGIN
 90
        0
 91
        1
 62
     0
 92
       -2
340
14
 93
        0
 40
1.125
309
GRIDFORMAT_END
 95
       32
302
GRIDFORMAT
  1
GRIDFORMAT_BEGIN
 90
        0
 91
        1
 62
     0
 92
       -2
340
14
 93
        0
 40
1.125
309
GRIDFORMAT_END
309
TABLEFORMAT_END
  1
CELLSTYLE_BEGIN
 90
        2
 91
        1
300
_HEADER
309
CELLSTYLE_END
300
CELLSTYLE
  1
TABLEFORMAT_BEGIN
 90
        5
170
     1
 91
        0
 92
        0
 62
   257
 93
        1
300
CONTENTFORMAT
  1
CONTENTFORMAT_BEGIN
 90
        0
 91
        0
 92
        4
 93
        0
300

 40
0.0
140
1.0
 94
        2
 62
     0
340
11
144
4.5
309
CONTENTFORMAT_END
171
     1
301
MARGIN
  1
CELLMARGIN_BEGIN
 40
1.5
 40
1.5
 40
1.5
 40
1.5
 40
4.5
 40
4.5
309
CELLMARGIN_END
 94
        6
 95
        1
302
GRIDFORMAT
  1
GRIDFORMAT_BEGIN
 90
        0
 91
        1
 62
     0
 92
       -2
340
14
 93
        0
 40
1.125
309
GRIDFORMAT_END
 95
        2
302
GRIDFORMAT
  1
GRIDFORMAT_BEGIN
 90
        0
 91
        1
 62
     0
 92
       -2
340
14
 93
        0
 40
1.125
309
GRIDFORMAT_END
 95
        4
302
GRIDFORMAT
  1
GRIDFORMAT_BEGIN
 90
        0
 91
        1
 62
     0
 92
       -2
340
14
 93
        0
 40
1.125
309
GRIDFORMAT_END
 95
        8
302
GRIDFORMAT
  1
GRIDFORMAT_BEGIN
 90
        0
 91
        1
 62
     0
 92
       -2
340
14
 93
        0
 40
1.125
309
GRIDFORMAT_END
 95
       16
302
GRIDFORMAT
  1
GRIDFORMAT_BEGIN
 90
        0
 91
        1
 62
     0
 92
       -2
340
14
 93
        0
 40
1.125
309
GRIDFORMAT_END
 95
       32
302
GRIDFORMAT
  1
GRIDFORMAT_BEGIN
 90
        0
 91
        1
 62
     0
 92
       -2
340
14
 93
        0
 40
1.125
309
GRIDFORMAT_END
309
TABLEFORMAT_END
  1
CELLSTYLE_BEGIN
 90
        3
 91
        2
300
_DATA
309
CELLSTYLE_END
  0
ENDSEC
  0
EOF
