  0
SECTION
  2
HEADER
  9
$ACADVER
  1
AC1015
  9
$ACADMAINTVER
 70
     6
  9
$DWGCODEPAGE
  3
ANSI_1252
  9
$INSBASE
 10
0.0
 20
0.0
 30
0.0
  9
$EXTMIN
 10
0.0
 20
0.0
 30
0.0
  9
$EXTMAX
 10
11.0
 20
8.5
 30
0.0
  9
$LIMMIN
 10
0.0
 20
0.0
  9
$LIMMAX
 10
11.0
 20
8.5
  9
$ORTHOMODE
 70
     0
  9
$REGENMODE
 70
     1
  9
$FILLMODE
 70
     1
  9
$QTEXTMODE
 70
     0
  9
$MIRRTEXT
 70
     1
  9
$LTSCALE
 40
1.0
  9
$ATTMODE
 70
     1
  9
$TEXTSIZE
 40
0.125
  9
$TRACEWID
 40
0.05
  9
$TEXTSTYLE
  7
Standard
  9
$CLAYER
  8
0
  9
$CELTYPE
  6
ByLayer
  9
$CECOLOR
 62
   256
  9
$CELTSCALE
 40
1.0
  9
$DISPSILH
 70
     0
  9
$DIMSCALE
 40
1.0
  9
$DIMASZ
 40
0.13
  9
$DIMEXO
 40
0.05
  9
$DIMDLI
 40
0.38
  9
$DIMRND
 40
0.0
  9
$DIMDLE
 40
0.0
  9
$DIMEXE
 40
0.03937
  9
$DIMTP
 40
0.0
  9
$DIMTM
 40
0.0
  9
$DIMTXT
 40
0.125
  9
$DIMCEN
 40
0.09
  9
$DIMTSZ
 40
0.0
  9
$DIMTOL
 70
     0
  9
$DIMLIM
 70
     0
  9
$DIMTIH
 70
     1
  9
$DIMTOH
 70
     1
  9
$DIMSE1
 70
     0
  9
$DIMSE2
 70
     0
  9
$DIMTAD
 70
     0
  9
$DIMZIN
 70
     0
  9
$DIMBLK
  1

  9
$DIMASO
 70
     1
  9
$DIMSHO
 70
     1
  9
$DIMPOST
  1

  9
$DIMAPOST
  1

  9
$DIMALT
 70
     0
  9
$DIMALTD
 70
     2
  9
$DIMALTF
 40
25.4
  9
$DIMLFAC
 40
4.0
  9
$DIMTOFL
 70
     0
  9
$DIMTVP
 40
0.0
  9
$DIMTIX
 70
     0
  9
$DIMSOXD
 70
     0
  9
$DIMSAH
 70
     0
  9
$DIMBLK1
  1

  9
$DIMBLK2
  1

  9
$DIMSTYLE
  2
Standard
  9
$DIMCLRD
 70
     0
  9
$DIMCLRE
 70
     0
  9
$DIMCLRT
 70
     0
  9
$DIMTFAC
 40
1.0
  9
$DIMGAP
 40
0.06
  9
$DIMJUST
 70
     0
  9
$DIMSD1
 70
     0
  9
$DIMSD2
 70
     0
  9
$DIMTOLJ
 70
     1
  9
$DIMTZIN
 70
     0
  9
$DIMALTZ
 70
     0
  9
$DIMALTTZ
 70
     0
  9
$DIMUPT
 70
     0
  9
$DIMDEC
 70
     3
  9
$DIMTDEC
 70
     3
  9
$DIMALTU
 70
     2
  9
$DIMALTTD
 70
     2
  9
$DIMTXSTY
  7
Standard
  9
$DIMAUNIT
 70
     0
  9
$DIMADEC
 70
     1
  9
$DIMALTRND
 40
0.0
  9
$DIMAZIN
 70
     0
  9
$DIMDSEP
 70
    46
  9
$DIMATFIT
 70
     3
  9
$DIMFRAC
 70
     0
  9
$DIMLDRBLK
  1

  9
$DIMLUNIT
 70
     2
  9
$DIMLWD
 70
    -2
  9
$DIMLWE
 70
    -2
  9
$DIMTMOVE
 70
     0
  9
$LUNITS
 70
     2
  9
$LUPREC
 70
     3
  9
$SKETCHINC
 40
0.1
  9
$FILLETRAD
 40
0.0
  9
$AUNITS
 70
     0
  9
$AUPREC
 70
     1
  9
$MENU
  1
.
  9
$ELEVATION
 40
0.0
  9
$PELEVATION
 40
0.0
  9
$THICKNESS
 40
0.0
  9
$LIMCHECK
 70
     0
  9
$CHAMFERA
 40
0.0
  9
$CHAMFERB
 40
0.0
  9
$CHAMFERC
 40
0.0
  9
$CHAMFERD
 40
0.0
  9
$SKPOLY
 70
     0
  9
$TDCREATE
 40
2460726.352703079
  9
$TDUCREATE
 40
2460726.561036412
  9
$TDUPDATE
 40
2460726.371193588
  9
$TDUUPDATE
 40
2460726.579526921
  9
$TDINDWG
 40
0.0000000116
  9
$TDUSRTIMER
 40
0.0000000116
  9
$USRTIMER
 70
     1
  9
$ANGBASE
 50
0.0
  9
$ANGDIR
 70
     0
  9
$PDMODE
 70
     0
  9
$PDSIZE
 40
-1.0
  9
$PLINEWID
 40
0.0
  9
$SPLFRAME
 70
     0
  9
$SPLINETYPE
 70
     6
  9
$SPLINESEGS
 70
     8
  9
$HANDSEED
  5
165F
  9
$SURFTAB1
 70
     6
  9
$SURFTAB2
 70
     6
  9
$SURFTYPE
 70
     6
  9
$SURFU
 70
     6
  9
$SURFV
 70
     6
  9
$UCSBASE
  2

  9
$UCSNAME
  2

  9
$UCSORG
 10
0.0
 20
0.0
 30
0.0
  9
$UCSXDIR
 10
1.0
 20
0.0
 30
0.0
  9
$UCSYDIR
 10
0.0
 20
1.0
 30
0.0
  9
$UCSORTHOREF
  2

  9
$UCSORTHOVIEW
 70
     0
  9
$UCSORGTOP
 10
0.0
 20
0.0
 30
0.0
  9
$UCSORGBOTTOM
 10
0.0
 20
0.0
 30
0.0
  9
$UCSORGLEFT
 10
0.0
 20
0.0
 30
0.0
  9
$UCSORGRIGHT
 10
0.0
 20
0.0
 30
0.0
  9
$UCSORGFRONT
 10
0.0
 20
0.0
 30
0.0
  9
$UCSORGBACK
 10
0.0
 20
0.0
 30
0.0
  9
$PUCSBASE
  2

  9
$PUCSNAME
  2

  9
$PUCSORG
 10
0.0
 20
0.0
 30
0.0
  9
$PUCSXDIR
 10
1.0
 20
0.0
 30
0.0
  9
$PUCSYDIR
 10
0.0
 20
1.0
 30
0.0
  9
$PUCSORTHOREF
  2

  9
$PUCSORTHOVIEW
 70
     0
  9
$PUCSORGTOP
 10
0.0
 20
0.0
 30
0.0
  9
$PUCSORGBOTTOM
 10
0.0
 20
0.0
 30
0.0
  9
$PUCSORGLEFT
 10
0.0
 20
0.0
 30
0.0
  9
$PUCSORGRIGHT
 10
0.0
 20
0.0
 30
0.0
  9
$PUCSORGFRONT
 10
0.0
 20
0.0
 30
0.0
  9
$PUCSORGBACK
 10
0.0
 20
0.0
 30
0.0
  9
$USERI1
 70
     0
  9
$USERI2
 70
     0
  9
$USERI3
 70
     0
  9
$USERI4
 70
     0
  9
$USERI5
 70
     0
  9
$USERR1
 40
0.0
  9
$USERR2
 40
0.0
  9
$USERR3
 40
0.0
  9
$USERR4
 40
0.0
  9
$USERR5
 40
0.0
  9
$WORLDVIEW
 70
     1
  9
$SHADEDGE
 70
     3
  9
$SHADEDIF
 70
    70
  9
$TILEMODE
 70
     1
  9
$MAXACTVP
 70
    64
  9
$PINSBASE
 10
0.0
 20
0.0
 30
0.0
  9
$PLIMCHECK
 70
     0
  9
$PEXTMIN
 10
1.000000E+20
 20
1.000000E+20
 30
1.000000E+20
  9
$PEXTMAX
 10
-1.000000E+20
 20
-1.000000E+20
 30
-1.000000E+20
  9
$PLIMMIN
 10
0.0
 20
0.0
  9
$PLIMMAX
 10
12.0
 20
9.0
  9
$UNITMODE
 70
     0
  9
$VISRETAIN
 70
     1
  9
$PLINEGEN
 70
     0
  9
$PSLTSCALE
 70
     0
  9
$TREEDEPTH
 70
  3020
  9
$CMLSTYLE
  2
Standard
  9
$CMLJUST
 70
     0
  9
$CMLSCALE
 40
1.0
  9
$PROXYGRAPHICS
 70
     1
  9
$MEASUREMENT
 70
     0
  9
$CELWEIGHT
370
    -1
  9
$ENDCAPS
280
     0
  9
$JOINSTYLE
280
     0
  9
$LWDISPLAY
290
     1
  9
$INSUNITS
 70
     1
  9
$HYPERLINKBASE
  1

  9
$STYLESHEET
  1

  9
$XEDIT
290
     1
  9
$CEPSNTYPE
380
     0
  9
$PSTYLEMODE
290
     1
  9
$FINGERPRINTGUID
  2
{ebcb64b2-ef24-470c-9769-3a8613fc3c56}
  9
$VERSIONGUID
  2
{FAEB1C32-E019-11D5-929B-00C0DF256EC4}
  9
$EXTNAMES
290
     1
  9
$PSVPSCALE
 40
0.0
  9
$OLESTARTUP
290
     0
  0
ENDSEC
  0
SECTION
  2
CLASSES
  0
CLASS
  1
ACDBDICTIONARYWDFLT
  2
AcDbDictionaryWithDefault
  3
ObjectDBX Classes
 90
        0
280
     0
281
     0
  0
CLASS
  1
VISUALSTYLE
  2
AcDbVisualStyle
  3
ObjectDBX Classes
 90
     4095
280
     0
281
     0
  0
CLASS
  1
MATERIAL
  2
AcDbMaterial
  3
ObjectDBX Classes
 90
     1153
280
     0
281
     0
  0
CLASS
  1
SCALE
  2
AcDbScale
  3
ObjectDBX Classes
 90
     1153
280
     0
281
     0
  0
CLASS
  1
TABLESTYLE
  2
AcDbTableStyle
  3
ObjectDBX Classes
 90
     4095
280
     0
281
     0
  0
CLASS
  1
MLEADERSTYLE
  2
AcDbMLeaderStyle
  3
ACDB_MLEADERSTYLE_CLASS
 90
     4095
280
     0
281
     0
  0
CLASS
  1
SUN
  2
AcDbSun
  3
SCENEOE
 90
     1153
280
     0
281
     0
  0
CLASS
  1
ACDBPLACEHOLDER
  2
AcDbPlaceHolder
  3
ObjectDBX Classes
 90
        0
280
     0
281
     0
  0
CLASS
  1
LAYOUT
  2
AcDbLayout
  3
ObjectDBX Classes
 90
        0
280
     0
281
     0
  0
CLASS
  1
CSACDOCUMENTOPTIONS
  2
CDocDataContainer
  3
"DERU003_CSAPP"
 90
     4095
280
     0
281
     0
  0
CLASS
  1
DICTIONARYVAR
  2
AcDbDictionaryVar
  3
ObjectDBX Classes
 90
        0
280
     0
281
     0
  0
ENDSEC
  0
SECTION
  2
TABLES
  0
TABLE
  2
VPORT
  5
8
102
{ACAD_XDICTIONARY
360
1627
102
}
330
0
100
AcDbSymbolTable
 70
     1
  0
VPORT
  5
29
330
8
100
AcDbSymbolTableRecord
100
AcDbViewportTableRecord
  2
*Active
 70
     0
 10
0.0
 20
0.0
 11
1.0
 21
1.0
 12
4.006028
 22
4.21764
 13
0.0
 23
0.0
 14
0.5
 24
0.5
 15
0.5
 25
0.5
 16
0.0
 26
0.0
 36
1.0
 17
0.0
 27
0.0
 37
0.0
 40
12.75
 41
2.019036
 42
50.0
 43
0.0
 44
0.0
 50
0.0
 51
0.0
 71
    16
 72
  2000
 73
     1
 74
     3
 75
     0
 76
     0
 77
     0
 78
     0
281
     0
 65
     1
110
0.0
120
0.0
130
0.0
111
1.0
121
0.0
131
0.0
112
0.0
122
1.0
132
0.0
 79
     0
146
0.0
  0
ENDTAB
  0
TABLE
  2
LTYPE
  5
5
330
0
100
AcDbSymbolTable
 70
     6
  0
LTYPE
  5
14
330
5
100
AcDbSymbolTableRecord
100
AcDbLinetypeTableRecord
  2
ByBlock
 70
     0
  3

 72
    65
 73
     0
 40
0.0
  0
LTYPE
  5
15
330
5
100
AcDbSymbolTableRecord
100
AcDbLinetypeTableRecord
  2
ByLayer
 70
     0
  3

 72
    65
 73
     0
 40
0.0
  0
LTYPE
  5
16
330
5
100
AcDbSymbolTableRecord
100
AcDbLinetypeTableRecord
  2
Continuous
 70
     0
  3
Solid line
 72
    65
 73
     0
 40
0.0
  0
LTYPE
  5
5E
330
5
100
AcDbSymbolTableRecord
100
AcDbLinetypeTableRecord
  2
HIDDEN
 70
     0
  3
Hidden __ __ __ __ __ __ __ __ __ __ __ __ __ __
 72
    65
 73
     2
 40
0.075
 49
0.05
 74
     0
 49
-0.025
 74
     0
  0
LTYPE
  5
5F
330
5
100
AcDbSymbolTableRecord
100
AcDbLinetypeTableRecord
  2
PHANTOM
 70
     0
  3
Phantom ______  __  __  ______  __  __  ______
 72
    65
 73
     6
 40
0.5
 49
0.25
 74
     0
 49
-0.05
 74
     0
 49
0.05
 74
     0
 49
-0.05
 74
     0
 49
0.05
 74
     0
 49
-0.05
 74
     0
  0
LTYPE
  5
60
330
5
100
AcDbSymbolTableRecord
100
AcDbLinetypeTableRecord
  2
CENTER
 70
     0
  3
Center ____ _ ____ _ ____ _ ____ _ ____ _ ____
 72
    65
 73
     4
 40
0.4
 49
0.25
 74
     0
 49
-0.05
 74
     0
 49
0.05
 74
     0
 49
-0.05
 74
     0
  0
LTYPE
  5
61
330
5
100
AcDbSymbolTableRecord
100
AcDbLinetypeTableRecord
  2
CENTERX2
 70
     0
  3
Center (2x) ________  __  ________  __  _____
 72
    65
 73
     4
 40
0.8
 49
0.5
 74
     0
 49
-0.1
 74
     0
 49
0.1
 74
     0
 49
-0.1
 74
     0
  0
LTYPE
  5
62
330
5
100
AcDbSymbolTableRecord
100
AcDbLinetypeTableRecord
  2
DOT2
 70
     0
  3
Dot (.5x) ........................................
 72
    65
 73
     2
 40
0.025
 49
0.0
 74
     0
 49
-0.025
 74
     0
  0
ENDTAB
  0
TABLE
  2
LAYER
  5
2
330
0
100
AcDbSymbolTable
 70
     2
  0
LAYER
  5
10
330
2
100
AcDbSymbolTableRecord
100
AcDbLayerTableRecord
  2
0
 70
     0
 62
     7
  6
Continuous
370
    -3
390
F
  0
LAYER
  5
63
330
2
100
AcDbSymbolTableRecord
100
AcDbLayerTableRecord
  2
FORMAT
 70
     0
 62
     7
  6
Continuous
370
    -3
390
F
  0
ENDTAB
  0
TABLE
  2
STYLE
  5
3
330
0
100
AcDbSymbolTable
 70
     4
  0
STYLE
  5
11
330
3
100
AcDbSymbolTableRecord
100
AcDbTextStyleTableRecord
  2
Standard
 70
     0
 40
0.0
 41
1.0
 50
0.0
 71
     0
 42
0.125
  3
txt
  4

  0
STYLE
  5
89
330
3
100
AcDbSymbolTableRecord
100
AcDbTextStyleTableRecord
  2
SLDTEXTSTYLE0
 70
     0
 40
0.0
 41
0.605
 50
0.0
 71
     0
 42
0.125
  3
TXT
  4

  0
STYLE
  5
97
330
3
100
AcDbSymbolTableRecord
100
AcDbTextStyleTableRecord
  2
SLDTEXTSTYLE1
 70
     0
 40
0.0
 41
0.75
 50
0.0
 71
     0
 42
0.125
  3
TXT
  4

  0
STYLE
  5
A5
330
3
100
AcDbSymbolTableRecord
100
AcDbTextStyleTableRecord
  2
SLDTEXTSTYLE2
 70
     0
 40
0.0
 41
0.696429
 50
0.0
 71
     0
 42
0.125
  3
TXT
  4

  0
ENDTAB
  0
TABLE
  2
VIEW
  5
6
330
0
100
AcDbSymbolTable
 70
     0
  0
ENDTAB
  0
TABLE
  2
UCS
  5
7
330
0
100
AcDbSymbolTable
 70
     0
  0
ENDTAB
  0
TABLE
  2
APPID
  5
9
330
0
100
AcDbSymbolTable
 70
     6
  0
APPID
  5
12
330
9
100
AcDbSymbolTableRecord
100
AcDbRegAppTableRecord
  2
ACAD
 70
     0
  0
APPID
  5
1610
330
9
100
AcDbSymbolTableRecord
100
AcDbRegAppTableRecord
  2
MCS_DIM1
 70
     0
  0
APPID
  5
1611
330
9
100
AcDbSymbolTableRecord
100
AcDbRegAppTableRecord
  2
McsXdata5
 70
     0
  0
APPID
  5
1614
330
9
100
AcDbSymbolTableRecord
100
AcDbRegAppTableRecord
  2
MCS_DOCUMENT_ID
 70
     0
  0
APPID
  5
161C
330
9
100
AcDbSymbolTableRecord
100
AcDbRegAppTableRecord
  2
MCS_PARAMS_DATA
 70
     0
  0
APPID
  5
161E
330
9
100
AcDbSymbolTableRecord
100
AcDbRegAppTableRecord
  2
MC_VERSION_DATA
 70
     0
  0
ENDTAB
  0
TABLE
  2
DIMSTYLE
  5
A
330
0
100
AcDbSymbolTable
 70
     1
100
AcDbDimStyleTable
  0
DIMSTYLE
105
27
330
A
100
AcDbSymbolTableRecord
100
AcDbDimStyleTableRecord
  2
Standard
 70
     0
178
     0
340
11
  0
ENDTAB
  0
TABLE
  2
BLOCK_RECORD
  5
1
330
0
100
AcDbSymbolTable
 70
     1
  0
BLOCK_RECORD
  5
1F
330
1
100
AcDbSymbolTableRecord
100
AcDbBlockTableRecord
  2
*Model_Space
340
22
  0
BLOCK_RECORD
  5
1B
330
1
100
AcDbSymbolTableRecord
100
AcDbBlockTableRecord
  2
*Paper_Space
340
1E
  0
BLOCK_RECORD
  5
23
330
1
100
AcDbSymbolTableRecord
100
AcDbBlockTableRecord
  2
*Paper_Space0
340
26
  0
ENDTAB
  0
ENDSEC
  0
SECTION
  2
BLOCKS
  0
BLOCK
  5
20
330
1F
100
AcDbEntity
  8
0
100
AcDbBlockBegin
  2
*Model_Space
 70
     0
 10
0.0
 20
0.0
 30
0.0
  3
*Model_Space
  1
*Model_Space
  0
ENDBLK
  5
21
330
1F
100
AcDbEntity
  8
0
100
AcDbBlockEnd
  0
BLOCK
  5
1C
330
1B
100
AcDbEntity
 67
     1
  8
0
100
AcDbBlockBegin
  2
*Paper_Space
 70
     0
 10
0.0
 20
0.0
 30
0.0
  3
*Paper_Space
  1
*Paper_Space
  0
ENDBLK
  5
1D
330
1B
100
AcDbEntity
 67
     1
  8
0
100
AcDbBlockEnd
  0
BLOCK
  5
24
330
23
100
AcDbEntity
  8
0
100
AcDbBlockBegin
  2
*Paper_Space0
 70
     0
 10
0.0
 20
0.0
 30
0.0
  3
*Paper_Space0
  1
*Paper_Space0
  0
ENDBLK
  5
25
330
23
100
AcDbEntity
  8
0
100
AcDbBlockEnd
  0
ENDSEC
  0
SECTION
  2
ENTITIES
  0
LINE
  5
B4
330
1F
100
AcDbEntity
  8
0
  6
Continuous
 62
     7
370
    25
100
AcDbLine
 10
6.643324
 20
4.151527
 30
0.0
 11
8.057537
 21
4.967935
 31
0.0
  0
LINE
  5
B5
330
1F
100
AcDbEntity
  8
0
  6
Continuous
 62
     7
370
    25
100
AcDbLine
 10
8.083431
 20
6.466505
 30
0.0
 11
7.995042
 21
6.517531
 31
0.0
  0
LINE
  5
B6
330
1F
100
AcDbEntity
  8
0
  6
Continuous
 62
     7
370
    25
100
AcDbLine
 10
6.028402
 20
7.652848
 30
0.0
 11
5.940013
 21
7.703874
 31
0.0
  0
SPLINE
  5
B7
330
1F
100
AcDbEntity
  8
0
  6
Continuous
 62
     7
370
    25
100
AcDbSpline
210
0.0
220
0.0
230
1.0
 70
     8
 71
     3
 72
    25
 73
    21
 74
     0
 42
0.000000001
 43
0.00000001
 40
0.0
 40
0.0
 40
0.0
 40
0.0
 40
0.009739287060224
 40
0.0664700653325883
 40
0.1210698276787141
 40
0.1751082193082791
 40
0.2302221071342482
 40
0.2879653417912034
 40
0.3493202543091096
 40
0.4137893535048441
 40
0.4793926003190212
 40
0.5455480346829163
 40
0.6129848415134094
 40
0.6827081605022509
 40
0.7454233938984233
 40
0.8048173121458734
 40
0.8614238958997192
 40
0.9163994109876741
 40
0.9706311854027629
 40
1.0
 40
1.0
 40
1.0
 40
1.0
 10
6.494042786406867
 20
5.127015019616311
 30
0.0
 10
6.494190593083108
 20
5.128501120022458
 30
0.0
 10
6.495199365015337
 20
5.138643668494087
 30
0.0
 10
6.490961015111527
 20
5.157186067352647
 30
0.0
 10
6.481802078008347
 20
5.180723433892457
 30
0.0
 10
6.46756212734412
 20
5.201439134374652
 30
0.0
 10
6.449415418109762
 20
5.219287979952767
 30
0.0
 10
6.427268900971576
 20
5.234238076567658
 30
0.0
 10
6.401237009100123
 20
5.245990610050313
 30
0.0
 10
6.371853658800904
 20
5.253972701931727
 30
0.0
 10
6.340275200461676
 20
5.257654447719271
 30
0.0
 10
6.307849291397757
 20
5.256740790165176
 30
0.0
 10
6.27561347891538
 20
5.251003481658259
 30
0.0
 10
6.245926407693187
 20
5.240526098261899
 30
0.0
 10
6.220210322731454
 20
5.225902313213969
 30
0.0
 10
6.199422853816817
 20
5.208206525561712
 30
0.0
 10
6.183223713089006
 20
5.187623642678258
 30
0.0
 10
6.172338594869169
 20
5.16470581939955
 30
0.0
 10
6.166656780633401
 20
5.143894092743012
 30
0.0
 10
6.167154963059435
 20
5.131055361291389
 30
0.0
 10
6.167329974114725
 20
5.126545126039208
 30
0.0
  0
LINE
  5
B8
330
1F
100
AcDbEntity
  8
0
  6
Continuous
 62
     7
370
    25
100
AcDbLine
 10
6.166509
 20
5.126914
 30
0.0
 11
6.166509
 21
5.114258
 31
0.0
  0
LINE
  5
B9
330
1F
100
AcDbEntity
  8
0
  6
Continuous
 62
     7
370
    25
100
AcDbLine
 10
6.494509
 20
5.114258
 30
0.0
 11
6.494509
 21
5.126914
 31
0.0
  0
LINE
  5
BA
330
1F
100
AcDbEntity
  8
0
  6
Continuous
 62
     7
370
    25
100
AcDbLine
 10
6.080509
 20
3.813328
 30
0.0
 11
6.080509
 21
3.806948
 31
0.0
  0
LINE
  5
BB
330
1F
100
AcDbEntity
  8
0
  6
Continuous
 62
     7
370
    25
100
AcDbLine
 10
6.080509
 20
3.864361
 30
0.0
 11
6.080509
 21
3.857982
 31
0.0
  0
LINE
  5
BC
330
1F
100
AcDbEntity
  8
0
  6
Continuous
 62
     7
370
    25
100
AcDbLine
 10
6.080509
 20
3.915395
 30
0.0
 11
6.080509
 21
3.909016
 31
0.0
  0
LINE
  5
BD
330
1F
100
AcDbEntity
  8
0
  6
Continuous
 62
     7
370
    25
100
AcDbLine
 10
6.080509
 20
3.966429
 30
0.0
 11
6.080509
 21
3.96005
 31
0.0
  0
LINE
  5
BE
330
1F
100
AcDbEntity
  8
0
  6
Continuous
 62
     7
370
    25
100
AcDbLine
 10
6.080509
 20
4.017463
 30
0.0
 11
6.080509
 21
4.011084
 31
0.0
  0
LINE
  5
BF
330
1F
100
AcDbEntity
  8
0
  6
Continuous
 62
     7
370
    25
100
AcDbLine
 10
6.080509
 20
4.068497
 30
0.0
 11
6.080509
 21
4.062117
 31
0.0
  0
LINE
  5
C0
330
1F
100
AcDbEntity
  8
0
  6
Continuous
 62
     7
370
    25
100
AcDbLine
 10
6.080509
 20
4.11953
 30
0.0
 11
6.080509
 21
4.113151
 31
0.0
  0
LINE
  5
C1
330
1F
100
AcDbEntity
  8
0
  6
Continuous
 62
     7
370
    25
100
AcDbLine
 10
6.080509
 20
4.170564
 30
0.0
 11
6.080509
 21
4.164185
 31
0.0
  0
LINE
  5
C2
330
1F
100
AcDbEntity
  8
0
  6
Continuous
 62
     7
370
    25
100
AcDbLine
 10
6.080509
 20
4.221598
 30
0.0
 11
6.080509
 21
4.215219
 31
0.0
  0
LINE
  5
C3
330
1F
100
AcDbEntity
  8
0
  6
Continuous
 62
     7
370
    25
100
AcDbLine
 10
6.080509
 20
4.272632
 30
0.0
 11
6.080509
 21
4.266253
 31
0.0
  0
LINE
  5
C4
330
1F
100
AcDbEntity
  8
0
  6
Continuous
 62
     7
370
    25
100
AcDbLine
 10
6.080509
 20
4.323666
 30
0.0
 11
6.080509
 21
4.317286
 31
0.0
  0
LINE
  5
C5
330
1F
100
AcDbEntity
  8
0
  6
Continuous
 62
     7
370
    25
100
AcDbLine
 10
6.080509
 20
4.374699
 30
0.0
 11
6.080509
 21
4.36832
 31
0.0
  0
LINE
  5
C6
330
1F
100
AcDbEntity
  8
0
  6
Continuous
 62
     7
370
    25
100
AcDbLine
 10
6.580509
 20
4.138668
 30
0.0
 11
6.580509
 21
4.141053
 31
0.0
  0
LINE
  5
C7
330
1F
100
AcDbEntity
  8
0
  6
Continuous
 62
     7
370
    25
100
AcDbLine
 10
6.580509
 20
4.087634
 30
0.0
 11
6.580509
 21
4.094014
 31
0.0
  0
LINE
  5
C8
330
1F
100
AcDbEntity
  8
0
  6
Continuous
 62
     7
370
    25
100
AcDbLine
 10
6.580509
 20
4.036601
 30
0.0
 11
6.580509
 21
4.04298
 31
0.0
  0
LINE
  5
C9
330
1F
100
AcDbEntity
  8
0
  6
Continuous
 62
     7
370
    25
100
AcDbLine
 10
6.580509
 20
3.985567
 30
0.0
 11
6.580509
 21
3.991946
 31
0.0
  0
LINE
  5
CA
330
1F
100
AcDbEntity
  8
0
  6
Continuous
 62
     7
370
    25
100
AcDbLine
 10
6.580509
 20
3.934533
 30
0.0
 11
6.580509
 21
3.940912
 31
0.0
  0
LINE
  5
CB
330
1F
100
AcDbEntity
  8
0
  6
Continuous
 62
     7
370
    25
100
AcDbLine
 10
6.580509
 20
3.883499
 30
0.0
 11
6.580509
 21
3.889878
 31
0.0
  0
LINE
  5
CC
330
1F
100
AcDbEntity
  8
0
  6
Continuous
 62
     7
370
    25
100
AcDbLine
 10
6.580509
 20
3.832465
 30
0.0
 11
6.580509
 21
3.838845
 31
0.0
  0
LINE
  5
CD
330
1F
100
AcDbEntity
  8
0
  6
Continuous
 62
     7
370
    25
100
AcDbLine
 10
6.580509
 20
3.787379
 30
0.0
 11
6.580509
 21
3.787811
 31
0.0
  0
SPLINE
  5
CE
330
1F
100
AcDbEntity
  8
0
  6
Continuous
 62
     7
370
    25
100
AcDbSpline
210
0.0
220
0.0
230
1.0
 70
     8
 71
     3
 72
     9
 73
     5
 74
     0
 42
0.000000001
 43
0.00000001
 40
0.0
 40
0.0
 40
0.0
 40
0.0
 40
0.916467806102643
 40
0.9999999999999999
 40
0.9999999999999999
 40
0.9999999999999999
 40
0.9999999999999999
 10
5.920661784865219
 20
3.82615255451644
 30
0.0
 10
5.918666360695734
 20
3.823205602475224
 30
0.0
 10
5.916489061988462
 20
3.819990048124495
 30
0.0
 10
5.915264598377872
 20
3.816442675537005
 30
0.0
 10
5.915162316246133
 20
3.816146355722201
 30
0.0
  0
SPLINE
  5
CF
330
1F
100
AcDbEntity
  8
0
  6
Continuous
 62
     7
370
    25
100
AcDbSpline
210
0.0
220
0.0
230
1.0
 70
     8
 71
     3
 72
    10
 73
     6
 74
     0
 42
0.000000001
 43
0.00000001
 40
0.0
 40
0.0
 40
0.0
 40
0.0
 40
0.1915936287153399
 40
0.9372631642650735
 40
1.0
 40
1.0
 40
1.0
 40
1.0
 10
6.64809665934661
 20
3.925881174947926
 30
0.0
 10
6.645142733319692
 20
3.928057953729891
 30
0.0
 10
6.630692325581407
 20
3.938706609338996
 30
0.0
 10
6.613224179885633
 20
3.948711509051609
 30
0.0
 10
6.597730012152499
 20
3.955429097073661
 30
0.0
 10
6.596527578462648
 20
3.955950419308671
 30
0.0
  0
SPLINE
  5
D0
330
1F
100
AcDbEntity
  8
0
  6
Continuous
 62
     7
370
    25
100
AcDbSpline
210
0.0
220
0.0
230
1.0
 70
     8
 71
     3
 72
     9
 73
     5
 74
     0
 42
0.000000001
 43
0.00000001
 40
0.0
 40
0.0
 40
0.0
 40
0.0
 40
0.594833403930485
 40
0.9999999999999999
 40
0.9999999999999999
 40
0.9999999999999999
 40
0.9999999999999999
 10
6.012270616012939
 20
3.247518865648674
 30
0.0
 10
6.016466827924652
 20
3.244420927992503
 30
0.0
 10
6.023521260113539
 20
3.239212851856057
 30
0.0
 10
6.031372075354876
 20
3.234599689368607
 30
0.0
 10
6.034552963442579
 20
3.232730590026451
 30
0.0
  0
SPLINE
  5
D1
330
1F
100
AcDbEntity
  8
0
  6
Continuous
 62
     7
370
    25
100
AcDbSpline
210
0.0
220
0.0
230
1.0
 70
     8
 71
     3
 72
     9
 73
     5
 74
     0
 42
0.000000001
 43
0.00000001
 40
0.0
 40
0.0
 40
0.0
 40
0.0
 40
0.5285283066909924
 40
0.9999999999999999
 40
0.9999999999999999
 40
0.9999999999999999
 40
0.9999999999999999
 10
6.740506299259982
 20
3.346533658169065
 30
0.0
 10
6.741637606935099
 20
3.34825133320233
 30
0.0
 10
6.743778093377915
 20
3.351501253805483
 30
0.0
 10
6.744967591729596
 20
3.355097287971623
 30
0.0
 10
6.745528406531649
 20
3.35679271628913
 30
0.0
  0
SPLINE
  5
D2
330
1F
100
AcDbEntity
  8
0
  6
Continuous
 62
     7
370
    25
100
AcDbSpline
210
0.0
220
0.0
230
1.0
 70
     8
 71
     3
 72
    10
 73
     6
 74
     0
 42
0.000000001
 43
0.00000001
 40
0.0
 40
0.0
 40
0.0
 40
0.0
 40
0.1741461471089611
 40
0.6808735586534694
 40
1.0
 40
1.0
 40
1.0
 40
1.0
 10
6.379907040365024
 20
3.162301594467678
 30
0.0
 10
6.385832590027586
 20
3.162607735553651
 30
0.0
 10
6.409000200409467
 20
3.163804680614545
 30
0.0
 10
6.442527042095846
 20
3.168509066248363
 30
0.0
 10
6.46899294448297
 20
3.174517484697615
 30
0.0
 10
6.479219898339588
 20
3.176839257722126
 30
0.0
  0
SPLINE
  5
D3
330
1F
100
AcDbEntity
  8
0
  6
Continuous
 62
     7
370
    25
100
AcDbSpline
210
0.0
220
0.0
230
1.0
 70
     8
 71
     3
 72
     9
 73
     5
 74
     0
 42
0.000000001
 43
0.00000001
 40
0.0
 40
0.0
 40
0.0
 40
0.0
 40
0.7110971482117352
 40
1.0
 40
1.0
 40
1.0
 40
1.0
 10
6.034552963442579
 20
3.232730590026451
 30
0.0
 10
6.041502957498749
 20
3.228647462632085
 30
0.0
 10
6.051276578548486
 20
3.222905451987501
 30
0.0
 10
6.062156467239436
 20
3.218143348085996
 30
0.0
 10
6.06529969810939
 20
3.216767562688339
 30
0.0
  0
LINE
  5
D4
330
1F
100
AcDbEntity
  8
0
  6
Continuous
 62
     7
370
    25
100
AcDbLine
 10
5.398832
 20
2.496588
 30
0.0
 11
5.39607
 21
2.494994
 31
0.0
  0
LINE
  5
D5
330
1F
100
AcDbEntity
  8
0
  6
Continuous
 62
     7
370
    25
100
AcDbLine
 10
5.420929
 20
2.509345
 30
0.0
 11
5.418167
 21
2.50775
 31
0.0
  0
LINE
  5
D6
330
1F
100
AcDbEntity
  8
0
  6
Continuous
 62
     7
370
    25
100
AcDbLine
 10
5.443026
 20
2.522101
 30
0.0
 11
5.440264
 21
2.520507
 31
0.0
  0
LINE
  5
D7
330
1F
100
AcDbEntity
  8
0
  6
Continuous
 62
     7
370
    25
100
AcDbLine
 10
5.465123
 20
2.534858
 30
0.0
 11
5.462361
 21
2.533263
 31
0.0
  0
LINE
  5
D8
330
1F
100
AcDbEntity
  8
0
  6
Continuous
 62
     7
370
    25
100
AcDbLine
 10
5.487221
 20
2.547614
 30
0.0
 11
5.484458
 21
2.546019
 31
0.0
  0
LINE
  5
D9
330
1F
100
AcDbEntity
  8
0
  6
Continuous
 62
     7
370
    25
100
AcDbLine
 10
5.509318
 20
2.56037
 30
0.0
 11
5.506555
 21
2.558776
 31
0.0
  0
LINE
  5
DA
330
1F
100
AcDbEntity
  8
0
  6
Continuous
 62
     7
370
    25
100
AcDbLine
 10
5.531143
 20
2.57297
 30
0.0
 11
5.528653
 21
2.571532
 31
0.0
  0
LINE
  5
DB
330
1F
100
AcDbEntity
  8
0
  6
Continuous
 62
     7
370
    25
100
AcDbLine
 10
5.611346
 20
2.40277
 30
0.0
 11
5.614109
 21
2.404364
 31
0.0
  0
LINE
  5
DC
330
1F
100
AcDbEntity
  8
0
  6
Continuous
 62
     7
370
    25
100
AcDbLine
 10
5.589249
 20
2.390013
 30
0.0
 11
5.592011
 21
2.391608
 31
0.0
  0
LINE
  5
DD
330
1F
100
AcDbEntity
  8
0
  6
Continuous
 62
     7
370
    25
100
AcDbLine
 10
5.567152
 20
2.377257
 30
0.0
 11
5.569914
 21
2.378852
 31
0.0
  0
LINE
  5
DE
330
1F
100
AcDbEntity
  8
0
  6
Continuous
 62
     7
370
    25
100
AcDbLine
 10
5.545055
 20
2.364501
 30
0.0
 11
5.547817
 21
2.366095
 31
0.0
  0
LINE
  5
DF
330
1F
100
AcDbEntity
  8
0
  6
Continuous
 62
     7
370
    25
100
AcDbLine
 10
5.522958
 20
2.351744
 30
0.0
 11
5.52572
 21
2.353339
 31
0.0
  0
LINE
  5
E0
330
1F
100
AcDbEntity
  8
0
  6
Continuous
 62
     7
370
    25
100
AcDbLine
 10
5.500861
 20
2.338988
 30
0.0
 11
5.503623
 21
2.340582
 31
0.0
  0
LINE
  5
E1
330
1F
100
AcDbEntity
  8
0
  6
Continuous
 62
     7
370
    25
100
AcDbLine
 10
7.173967
 20
2.331015
 30
0.0
 11
7.17673
 21
2.32942
 31
0.0
  0
LINE
  5
E2
330
1F
100
AcDbEntity
  8
0
  6
Continuous
 62
     7
370
    25
100
AcDbLine
 10
7.15187
 20
2.343771
 30
0.0
 11
7.154633
 21
2.342177
 31
0.0
  0
LINE
  5
E3
330
1F
100
AcDbEntity
  8
0
  6
Continuous
 62
     7
370
    25
100
AcDbLine
 10
7.129773
 20
2.356528
 30
0.0
 11
7.132535
 21
2.354933
 31
0.0
  0
LINE
  5
E4
330
1F
100
AcDbEntity
  8
0
  6
Continuous
 62
     7
370
    25
100
AcDbLine
 10
7.107676
 20
2.369284
 30
0.0
 11
7.110438
 21
2.367689
 31
0.0
  0
LINE
  5
E5
330
1F
100
AcDbEntity
  8
0
  6
Continuous
 62
     7
370
    25
100
AcDbLine
 10
7.085579
 20
2.38204
 30
0.0
 11
7.088341
 21
2.380446
 31
0.0
  0
LINE
  5
E6
330
1F
100
AcDbEntity
  8
0
  6
Continuous
 62
     7
370
    25
100
AcDbLine
 10
7.063482
 20
2.394797
 30
0.0
 11
7.066244
 21
2.393202
 31
0.0
  0
LINE
  5
E7
330
1F
100
AcDbEntity
  8
0
  6
Continuous
 62
     7
370
    25
100
AcDbLine
 10
7.041385
 20
2.407553
 30
0.0
 11
7.044147
 21
2.405959
 31
0.0
  0
LINE
  5
E8
330
1F
100
AcDbEntity
  8
0
  6
Continuous
 62
     7
370
    25
100
AcDbLine
 10
7.148938
 20
2.561965
 30
0.0
 11
7.146176
 21
2.563559
 31
0.0
  0
LINE
  5
E9
330
1F
100
AcDbEntity
  8
0
  6
Continuous
 62
     7
370
    25
100
AcDbLine
 10
7.171035
 20
2.549208
 30
0.0
 11
7.168273
 21
2.550803
 31
0.0
  0
LINE
  5
EA
330
1F
100
AcDbEntity
  8
0
  6
Continuous
 62
     7
370
    25
100
AcDbLine
 10
7.193132
 20
2.536452
 30
0.0
 11
7.19037
 21
2.538046
 31
0.0
  0
LINE
  5
EB
330
1F
100
AcDbEntity
  8
0
  6
Continuous
 62
     7
370
    25
100
AcDbLine
 10
7.215229
 20
2.523695
 30
0.0
 11
7.212467
 21
2.52529
 31
0.0
  0
LINE
  5
EC
330
1F
100
AcDbEntity
  8
0
  6
Continuous
 62
     7
370
    25
100
AcDbLine
 10
7.237326
 20
2.510939
 30
0.0
 11
7.234564
 21
2.512534
 31
0.0
  0
LINE
  5
ED
330
1F
100
AcDbEntity
  8
0
  6
Continuous
 62
     7
370
    25
100
AcDbLine
 10
7.259423
 20
2.498183
 30
0.0
 11
7.256661
 21
2.499777
 31
0.0
  0
LINE
  5
EE
330
1F
100
AcDbEntity
  8
0
  6
Continuous
 62
     7
370
    25
100
AcDbLine
 10
5.264259
 20
3.513072
 30
0.0
 11
5.264259
 21
2.849633
 31
0.0
  0
LINE
  5
EF
330
1F
100
AcDbEntity
  8
0
  6
Continuous
 62
     7
370
    25
100
AcDbLine
 10
7.396759
 20
2.849633
 30
0.0
 11
7.396759
 21
3.385488
 31
0.0
  0
LINE
  5
F0
330
1F
100
AcDbEntity
  8
0
  6
Continuous
 62
     7
370
    25
100
AcDbLine
 10
5.601161
 20
2.400176
 30
0.0
 11
5.642735
 21
2.376168
 31
0.0
  0
LINE
  5
F1
330
1F
100
AcDbEntity
  8
0
  6
Continuous
 62
     7
370
    25
100
AcDbLine
 10
7.018282
 20
2.376168
 30
0.0
 11
7.059265
 21
2.399835
 31
0.0
  0
LINE
  5
F2
330
1F
100
AcDbEntity
  8
0
  6
Continuous
 62
     7
370
    25
100
AcDbLine
 10
5.642735
 20
3.986537
 30
0.0
 11
5.576433
 21
3.948249
 31
0.0
  0
LINE
  5
F3
330
1F
100
AcDbEntity
  8
0
  6
Continuous
 62
     7
370
    25
100
AcDbLine
 10
6.695111
 20
5.592867
 30
0.0
 11
6.606722
 21
5.643892
 31
0.0
  0
ARC
  5
F4
330
1F
100
AcDbEntity
  8
0
  6
Continuous
 62
     7
370
    25
100
AcDbCircle
 10
6.798624
 20
5.635159
 30
0.0
 40
0.1921006009465034
100
AcDbArc
 50
122.605478
 51
177.394522
  0
LINE
  5
F5
330
1F
100
AcDbEntity
  8
0
  6
Continuous
 62
     7
370
    25
100
AcDbLine
 10
6.695111
 20
5.796985
 30
0.0
 11
6.783499
 21
5.74596
 31
0.0
  0
ARC
  5
F6
330
1F
100
AcDbEntity
  8
0
  6
Continuous
 62
     7
370
    25
100
AcDbCircle
 10
6.887013
 20
5.584134
 30
0.0
 40
0.1921006009465049
100
AcDbArc
 50
122.605478
 51
177.394522
  0
LINE
  5
F7
330
1F
100
AcDbEntity
  8
0
  6
Continuous
 62
     7
370
    25
100
AcDbLine
 10
8.109324
 20
5.082396
 30
0.0
 11
6.695111
 21
4.265988
 31
0.0
  0
LINE
  5
F8
330
1F
100
AcDbEntity
  8
0
  6
Continuous
 62
     7
370
    25
100
AcDbLine
 10
6.695111
 20
5.592867
 30
0.0
 11
6.695111
 21
4.265988
 31
0.0
  0
LINE
  5
F9
330
1F
100
AcDbEntity
  8
0
  6
Continuous
 62
     7
370
    25
100
AcDbLine
 10
6.783499
 20
5.74596
 30
0.0
 11
8.020936
 21
6.460317
 31
0.0
  0
ARC
  5
FA
330
1F
100
AcDbEntity
  8
0
  6
Continuous
 62
     7
370
    25
100
AcDbCircle
 10
8.05544
 20
6.418016
 30
0.0
 40
0.0545886496785605
100
AcDbArc
 50
350.785963
 51
129.203285
  0
LINE
  5
FB
330
1F
100
AcDbEntity
  8
0
  6
Continuous
 62
     7
370
    25
100
AcDbLine
 10
8.109324
 20
6.409275
 30
0.0
 11
8.109324
 21
5.082396
 31
0.0
  0
LWPOLYLINE
  5
FC
330
1F
100
AcDbEntity
  8
0
  6
Continuous
 62
     7
370
    25
100
AcDbPolyline
 90
       25
 70
   128
 43
0.0
 10
7.149018
 20
5.650766
 10
7.146571
 20
5.670818
 10
7.139396
 20
5.686677
 10
7.127984
 20
5.697264
 10
7.11311
 20
5.701857
 10
7.09579
 20
5.700143
 10
7.077202
 20
5.692238
 10
7.058615
 20
5.678682
 10
7.041295
 20
5.660399
 10
7.026421
 20
5.638633
 10
7.015008
 20
5.614869
 10
7.007834
 20
5.590727
 10
7.005387
 20
5.56785
 10
7.007834
 20
5.547799
 10
7.015008
 20
5.531939
 10
7.026421
 20
5.521353
 10
7.041295
 20
5.51676
 10
7.058615
 20
5.518474
 10
7.077202
 20
5.526378
 10
7.09579
 20
5.539934
 10
7.11311
 20
5.558218
 10
7.127984
 20
5.579983
 10
7.139396
 20
5.603747
 10
7.146571
 20
5.62789
 10
7.149018
 20
5.650766
  0
LWPOLYLINE
  5
FD
330
1F
100
AcDbEntity
  8
0
  6
Continuous
 62
     7
370
    25
100
AcDbPolyline
 90
       25
 70
   128
 43
0.0
 10
7.799048
 20
6.026021
 10
7.796601
 20
6.046072
 10
7.789426
 20
6.061931
 10
7.778013
 20
6.072518
 10
7.76314
 20
6.077111
 10
7.745819
 20
6.075397
 10
7.727232
 20
6.067492
 10
7.708645
 20
6.053937
 10
7.691324
 20
6.035653
 10
7.676451
 20
6.013887
 10
7.665038
 20
5.990124
 10
7.657864
 20
5.965981
 10
7.655417
 20
5.943104
 10
7.657864
 20
5.923053
 10
7.665038
 20
5.907194
 10
7.676451
 20
5.896607
 10
7.691324
 20
5.892014
 10
7.708645
 20
5.893728
 10
7.727232
 20
5.901633
 10
7.745819
 20
5.915189
 10
7.76314
 20
5.933472
 10
7.778013
 20
5.955238
 10
7.789426
 20
5.979001
 10
7.796601
 20
6.003144
 10
7.799048
 20
6.026021
  0
LWPOLYLINE
  5
FE
330
1F
100
AcDbEntity
  8
0
  6
Continuous
 62
     7
370
    25
100
AcDbPolyline
 90
       19
 70
   128
 43
0.0
 10
7.00447
 20
5.414219
 10
7.001804
 20
5.430135
 10
6.99413
 20
5.441054
 10
6.982373
 20
5.445659
 10
6.96795
 20
5.443395
 10
6.952601
 20
5.434535
 10
6.938178
 20
5.420147
 10
6.926421
 20
5.401966
 10
6.918747
 20
5.382187
 10
6.916081
 20
5.363194
 10
6.918747
 20
5.347278
 10
6.926421
 20
5.336359
 10
6.938178
 20
5.331754
 10
6.952601
 20
5.334018
 10
6.96795
 20
5.342878
 10
6.982373
 20
5.357266
 10
6.99413
 20
5.375446
 10
7.001804
 20
5.395226
 10
7.00447
 20
5.414219
  0
LWPOLYLINE
  5
FF
330
1F
100
AcDbEntity
  8
0
  6
Continuous
 62
     7
370
    25
100
AcDbPolyline
 90
       19
 70
   128
 43
0.0
 10
7.888353
 20
5.924474
 10
7.885688
 20
5.94039
 10
7.878014
 20
5.951309
 10
7.866256
 20
5.955914
 10
7.851833
 20
5.95365
 10
7.836485
 20
5.94479
 10
7.822062
 20
5.930402
 10
7.810304
 20
5.912222
 10
7.80263
 20
5.892442
 10
7.799965
 20
5.873449
 10
7.80263
 20
5.857533
 10
7.810304
 20
5.846614
 10
7.822062
 20
5.842009
 10
7.836485
 20
5.844273
 10
7.851833
 20
5.853133
 10
7.866256
 20
5.867521
 10
7.878014
 20
5.885702
 10
7.885688
 20
5.905481
 10
7.888353
 20
5.924474
  0
LINE
  5
100
330
1F
100
AcDbEntity
  8
0
  6
Continuous
 62
     7
370
    25
100
AcDbLine
 10
6.695111
 20
4.265988
 30
0.0
 11
6.606722
 21
4.317013
 31
0.0
  0
LINE
  5
101
330
1F
100
AcDbEntity
  8
0
  6
Continuous
 62
     7
370
    25
100
AcDbLine
 10
6.606722
 20
5.643892
 30
0.0
 11
6.606722
 21
4.317013
 31
0.0
  0
LINE
  5
102
330
1F
100
AcDbEntity
  8
0
  6
Continuous
 62
     7
370
    25
100
AcDbLine
 10
6.695111
 20
5.796985
 30
0.0
 11
7.932547
 21
6.511342
 31
0.0
  0
LINE
  5
103
330
1F
100
AcDbEntity
  8
0
  6
Continuous
 62
     7
370
    25
100
AcDbLine
 10
8.020936
 20
6.460317
 30
0.0
 11
7.932547
 21
6.511342
 31
0.0
  0
ARC
  5
104
330
1F
100
AcDbEntity
  8
0
  6
Continuous
 62
     7
370
    25
100
AcDbCircle
 10
6.895003
 20
5.71449
 30
0.0
 40
0.1670212950458455
100
AcDbArc
 50
312.570002
 51
347.435375
  0
ARC
  5
105
330
1F
100
AcDbEntity
  8
0
  6
Continuous
 62
     7
370
    25
100
AcDbCircle
 10
7.545033
 20
6.089744
 30
0.0
 40
0.1670212950458508
100
AcDbArc
 50
312.570002
 51
347.435375
  0
ARC
  5
106
330
1F
100
AcDbEntity
  8
0
  6
Continuous
 62
     7
370
    25
100
AcDbCircle
 10
7.987719
 20
5.068469
 30
0.0
 40
0.122400204541981
100
AcDbArc
 50
304.778924
 51
6.533256
  0
LWPOLYLINE
  5
107
330
1F
100
AcDbEntity
  8
0
  6
Continuous
 62
     7
370
    25
100
AcDbPolyline
 90
       10
 70
   128
 43
0.0
 10
6.518334
 20
4.163904
 10
6.549031
 20
4.149284
 10
6.578795
 20
4.141311
 10
6.606722
 20
4.140227
 10
6.631964
 20
4.146065
 10
6.653753
 20
4.158648
 10
6.671427
 20
4.177592
 10
6.68445
 20
4.202324
 10
6.692425
 20
4.23209
 10
6.695111
 20
4.265988
  0
ARC
  5
108
330
1F
100
AcDbEntity
  8
0
  6
Continuous
 62
     7
370
    25
100
AcDbCircle
 10
6.552838
 20
4.308272
 30
0.0
 40
0.0545886496785598
100
AcDbArc
 50
230.796715
 51
9.214037
  0
LINE
  5
109
330
1F
100
AcDbEntity
  8
0
  6
Continuous
 62
     7
370
    25
100
AcDbLine
 10
6.518334
 20
4.163904
 30
0.0
 11
6.518334
 21
4.265971
 31
0.0
  0
ARC
  5
10A
330
1F
100
AcDbEntity
  8
0
  6
Continuous
 62
     7
370
    25
100
AcDbCircle
 10
7.969162
 20
6.460232
 30
0.0
 40
0.0628721544877229
100
AcDbArc
 50
65.692881
 51
125.617577
  0
LINE
  5
10B
330
1F
100
AcDbEntity
  8
0
  6
Continuous
 62
     7
370
    25
100
AcDbLine
 10
6.518334
 20
4.265971
 30
0.0
 11
4.72847
 21
5.299238
 31
0.0
  0
LINE
  5
10C
330
1F
100
AcDbEntity
  8
0
  6
Continuous
 62
     7
370
    25
100
AcDbLine
 10
6.518334
 20
4.163904
 30
0.0
 11
4.72847
 21
5.19717
 31
0.0
  0
LINE
  5
10D
330
1F
100
AcDbEntity
  8
0
  6
Continuous
 62
     7
370
    25
100
AcDbLine
 10
4.72847
 20
5.19717
 30
0.0
 11
4.72847
 21
5.299238
 31
0.0
  0
LINE
  5
10E
330
1F
100
AcDbEntity
  8
0
  6
Continuous
 62
     7
370
    25
100
AcDbLine
 10
6.142683
 20
6.115646
 30
0.0
 11
4.72847
 21
5.299238
 31
0.0
  0
LINE
  5
10F
330
1F
100
AcDbEntity
  8
0
  6
Continuous
 62
     7
370
    25
100
AcDbLine
 10
7.023175
 20
5.607349
 30
0.0
 11
7.014135
 21
5.612567
 31
0.0
  0
LINE
  5
110
330
1F
100
AcDbEntity
  8
0
  6
Continuous
 62
     7
370
    25
100
AcDbLine
 10
6.694895
 20
5.796861
 30
0.0
 11
6.142683
 21
6.115646
 31
0.0
  0
LINE
  5
111
330
1F
100
AcDbEntity
  8
0
  6
Continuous
 62
     7
370
    25
100
AcDbLine
 10
4.640081
 20
5.452331
 30
0.0
 11
6.054295
 21
6.268739
 31
0.0
  0
LINE
  5
112
330
1F
100
AcDbEntity
  8
0
  6
Continuous
 62
     7
370
    25
100
AcDbLine
 10
4.640081
 20
5.452331
 30
0.0
 11
4.640081
 21
6.77921
 31
0.0
  0
ARC
  5
113
330
1F
100
AcDbEntity
  8
0
  6
Continuous
 62
     7
370
    25
100
AcDbCircle
 10
4.831983
 20
6.770477
 30
0.0
 40
0.1921006009465081
100
AcDbArc
 50
122.605478
 51
177.394522
  0
LINE
  5
114
330
1F
100
AcDbEntity
  8
0
  6
Continuous
 62
     7
370
    25
100
AcDbLine
 10
4.72847
 20
6.932303
 30
0.0
 11
5.965907
 21
7.64666
 31
0.0
  0
ARC
  5
115
330
1F
100
AcDbEntity
  8
0
  6
Continuous
 62
     7
370
    25
100
AcDbCircle
 10
6.000411
 20
7.604359
 30
0.0
 40
0.054588649678562
100
AcDbArc
 50
350.785963
 51
129.203285
  0
LINE
  5
116
330
1F
100
AcDbEntity
  8
0
  6
Continuous
 62
     7
370
    25
100
AcDbLine
 10
6.054295
 20
6.268739
 30
0.0
 11
6.054295
 21
7.595618
 31
0.0
  0
LWPOLYLINE
  5
117
330
1F
100
AcDbEntity
  8
0
  6
Continuous
 62
     7
370
    25
100
AcDbPolyline
 90
       25
 70
   128
 43
0.0
 10
5.022173
 20
6.712721
 10
5.003586
 20
6.704817
 10
4.986265
 20
6.703103
 10
4.971392
 20
6.707696
 10
4.959979
 20
6.718282
 10
4.952805
 20
6.734142
 10
4.950358
 20
6.754193
 10
4.952805
 20
6.77707
 10
4.959979
 20
6.801212
 10
4.971392
 20
6.824976
 10
4.986265
 20
6.846742
 10
5.003586
 20
6.865025
 10
5.022173
 20
6.878581
 10
5.04076
 20
6.886486
 10
5.058081
 20
6.8882
 10
5.072955
 20
6.883607
 10
5.084367
 20
6.87302
 10
5.091542
 20
6.857161
 10
5.093989
 20
6.83711
 10
5.091542
 20
6.814233
 10
5.084367
 20
6.79009
 10
5.072955
 20
6.766326
 10
5.058081
 20
6.744561
 10
5.04076
 20
6.726277
 10
5.022173
 20
6.712721
  0
LWPOLYLINE
  5
118
330
1F
100
AcDbEntity
  8
0
  6
Continuous
 62
     7
370
    25
100
AcDbPolyline
 90
       25
 70
   128
 43
0.0
 10
5.672203
 20
7.087976
 10
5.653616
 20
7.080071
 10
5.636295
 20
7.078357
 10
5.621422
 20
7.08295
 10
5.610009
 20
7.093537
 10
5.602835
 20
7.109396
 10
5.600388
 20
7.129447
 10
5.602835
 20
7.152324
 10
5.610009
 20
7.176467
 10
5.621422
 20
7.20023
 10
5.636295
 20
7.221996
 10
5.653616
 20
7.24028
 10
5.672203
 20
7.253835
 10
5.69079
 20
7.26174
 10
5.708111
 20
7.263454
 10
5.722984
 20
7.258861
 10
5.734397
 20
7.248274
 10
5.741572
 20
7.232415
 10
5.744019
 20
7.212364
 10
5.741572
 20
7.189487
 10
5.734397
 20
7.165344
 10
5.722984
 20
7.141581
 10
5.708111
 20
7.119815
 10
5.69079
 20
7.101532
 10
5.672203
 20
7.087976
  0
LWPOLYLINE
  5
119
330
1F
100
AcDbEntity
  8
0
  6
Continuous
 62
     7
370
    25
100
AcDbPolyline
 90
       19
 70
   128
 43
0.0
 10
4.905246
 20
6.524016
 10
4.890131
 20
6.518368
 10
4.876839
 20
6.519556
 10
4.866973
 20
6.527438
 10
4.861724
 20
6.541062
 10
4.861724
 20
6.558786
 10
4.866973
 20
6.578472
 10
4.876839
 20
6.597744
 10
4.890131
 20
6.61428
 10
4.905246
 20
6.626083
 10
4.920362
 20
6.631731
 10
4.933654
 20
6.630543
 10
4.94352
 20
6.622661
 10
4.948769
 20
6.609037
 10
4.948769
 20
6.591313
 10
4.94352
 20
6.571627
 10
4.933654
 20
6.552355
 10
4.920362
 20
6.535819
 10
4.905246
 20
6.524016
  0
LWPOLYLINE
  5
11A
330
1F
100
AcDbEntity
  8
0
  6
Continuous
 62
     7
370
    25
100
AcDbPolyline
 90
       19
 70
   128
 43
0.0
 10
5.78913
 20
7.034271
 10
5.774015
 20
7.028623
 10
5.760722
 20
7.029811
 10
5.750857
 20
7.037693
 10
5.745607
 20
7.051317
 10
5.745607
 20
7.069041
 10
5.750857
 20
7.088727
 10
5.760722
 20
7.107999
 10
5.774015
 20
7.124535
 10
5.78913
 20
7.136338
 10
5.804245
 20
7.141987
 10
5.817537
 20
7.140798
 10
5.827403
 20
7.132916
 10
5.832653
 20
7.119292
 10
5.832653
 20
7.101568
 10
5.827403
 20
7.081882
 10
5.817537
 20
7.06261
 10
5.804245
 20
7.046074
 10
5.78913
 20
7.034271
  0
LINE
  5
11B
330
1F
100
AcDbEntity
  8
0
  6
Continuous
 62
     7
370
    25
100
AcDbLine
 10
4.640081
 20
6.983328
 30
0.0
 11
4.72847
 21
6.932303
 31
0.0
  0
LINE
  5
11C
330
1F
100
AcDbEntity
  8
0
  6
Continuous
 62
     7
370
    25
100
AcDbLine
 10
4.640081
 20
6.77921
 30
0.0
 11
4.551693
 21
6.830235
 31
0.0
  0
ARC
  5
11D
330
1F
100
AcDbEntity
  8
0
  6
Continuous
 62
     7
370
    25
100
AcDbCircle
 10
4.743595
 20
6.821502
 30
0.0
 40
0.1921006009465083
100
AcDbArc
 50
122.605478
 51
177.394522
  0
LINE
  5
11E
330
1F
100
AcDbEntity
  8
0
  6
Continuous
 62
     7
370
    25
100
AcDbLine
 10
4.551693
 20
5.503356
 30
0.0
 11
4.640081
 21
5.452331
 31
0.0
  0
LINE
  5
11F
330
1F
100
AcDbEntity
  8
0
  6
Continuous
 62
     7
370
    25
100
AcDbLine
 10
4.551693
 20
5.503356
 30
0.0
 11
4.551693
 21
6.830235
 31
0.0
  0
LINE
  5
120
330
1F
100
AcDbEntity
  8
0
  6
Continuous
 62
     7
370
    25
100
AcDbLine
 10
4.640081
 20
6.983328
 30
0.0
 11
5.877518
 21
7.697685
 31
0.0
  0
LINE
  5
121
330
1F
100
AcDbEntity
  8
0
  6
Continuous
 62
     7
370
    25
100
AcDbLine
 10
5.965907
 20
7.64666
 30
0.0
 11
5.877518
 21
7.697685
 31
0.0
  0
ARC
  5
122
330
1F
100
AcDbEntity
  8
0
  6
Continuous
 62
     7
370
    25
100
AcDbCircle
 10
4.839974
 20
6.900833
 30
0.0
 40
0.1670212950458683
100
AcDbArc
 50
312.570002
 51
347.435375
  0
LWPOLYLINE
  5
123
330
1F
100
AcDbEntity
  8
0
  6
Continuous
 62
     7
370
    25
100
AcDbPolyline
 90
       38
 70
   128
 43
0.0
 10
6.153732
 20
5.012207
 10
6.18615
 20
4.996428
 10
6.222721
 20
4.984039
 10
6.262393
 20
4.975396
 10
6.304025
 20
4.970748
 10
6.346418
 20
4.970228
 10
6.388354
 20
4.973852
 10
6.428625
 20
4.981515
 10
6.466074
 20
4.992997
 10
6.499623
 20
5.007968
 10
6.528307
 20
5.025996
 10
6.551301
 20
5.046563
 10
6.567943
 20
5.069078
 10
6.577754
 20
5.092892
 10
6.580452
 20
5.117321
 10
6.57596
 20
5.141662
 10
6.564407
 20
5.165215
 10
6.546125
 20
5.187301
 10
6.52164
 20
5.207287
 10
6.491657
 20
5.224596
 10
6.457037
 20
5.23873
 10
6.418778
 20
5.249284
 10
6.377979
 20
5.255954
 10
6.335815
 20
5.258547
 10
6.293498
 20
5.256989
 10
6.252246
 20
5.251325
 10
6.213245
 20
5.241718
 10
6.177617
 20
5.228444
 10
6.146389
 20
5.211886
 10
6.120456
 20
5.192518
 10
6.100567
 20
5.170899
 10
6.087293
 20
5.147651
 10
6.081015
 20
5.123442
 10
6.081915
 20
5.098969
 10
6.089967
 20
5.074936
 10
6.104938
 20
5.052033
 10
6.126399
 20
5.030921
 10
6.153732
 20
5.012207
  0
ARC
  5
124
330
1F
100
AcDbEntity
  8
0
  6
Continuous
 62
     7
370
    25
100
AcDbCircle
 10
6.246197
 20
6.277471
 30
0.0
 40
0.1921006009465071
100
AcDbArc
 50
182.605478
 51
237.394522
  0
ARC
  5
125
330
1F
100
AcDbEntity
  8
0
  6
Continuous
 62
     7
370
    25
100
AcDbCircle
 10
4.831983
 20
5.461063
 30
0.0
 40
0.1921006009465079
100
AcDbArc
 50
182.605478
 51
237.394522
  0
ARC
  5
126
330
1F
100
AcDbEntity
  8
0
  6
Continuous
 62
     7
370
    25
100
AcDbCircle
 10
4.933874
 20
5.519884
 30
0.0
 40
0.3825379677318547
100
AcDbArc
 50
182.476304
 51
237.523696
  0
ARC
  5
127
330
1F
100
AcDbEntity
  8
0
  6
Continuous
 62
     7
370
    25
100
AcDbCircle
 10
5.490004
 20
7.276087
 30
0.0
 40
0.1670212950458246
100
AcDbArc
 50
312.570002
 51
347.435375
  0
ARC
  5
128
330
1F
100
AcDbEntity
  8
0
  6
Continuous
 62
     7
370
    25
100
AcDbCircle
 10
5.914133
 20
7.646575
 30
0.0
 40
0.0628721544877231
100
AcDbArc
 50
65.692881
 51
125.617577
  0
LWPOLYLINE
  5
129
330
1F
100
AcDbEntity
  8
0
  6
Continuous
 62
     7
370
    25
100
AcDbPolyline
 90
       22
 70
   128
 43
0.0
 10
6.27394
 20
5.162847
 10
6.293127
 20
5.154672
 10
6.315636
 20
5.150126
 10
6.339466
 20
5.149611
 10
6.3625
 20
5.153174
 10
6.382692
 20
5.160498
 10
6.398247
 20
5.170933
 10
6.407783
 20
5.183551
 10
6.410453
 20
5.19723
 10
6.406019
 20
5.210757
 10
6.394876
 20
5.222928
 10
6.378014
 20
5.232662
 10
6.356931
 20
5.239095
 10
6.3335
 20
5.241654
 10
6.309803
 20
5.240113
 10
6.287946
 20
5.234608
 10
6.269871
 20
5.225628
 10
6.257184
 20
5.213972
 10
6.251012
 20
5.200674
 10
6.251903
 20
5.186918
 10
6.259779
 20
5.173924
 10
6.27394
 20
5.162847
  0
LWPOLYLINE
  5
12A
330
1F
100
AcDbEntity
  8
0
  6
Continuous
 62
     7
370
    25
100
AcDbPolyline
 90
       13
 70
   128
 43
0.0
 10
6.214543
 20
5.047312
 10
6.241188
 20
5.034856
 10
6.271736
 20
5.025871
 10
6.304853
 20
5.020748
 10
6.339092
 20
5.019712
 10
6.372955
 20
5.022809
 10
6.404963
 20
5.029902
 10
6.433717
 20
5.040681
 10
6.457961
 20
5.054677
 10
6.476634
 20
5.071276
 10
6.48892
 20
5.089754
 10
6.494284
 20
5.109303
 10
6.494509
 20
5.114258
  0
ARC
  5
12B
330
1F
100
AcDbEntity
  8
0
  6
Continuous
 62
     7
370
    25
100
AcDbCircle
 10
6.247737
 20
5.121835
 30
0.0
 40
0.0815811478083323
100
AcDbArc
 50
185.329339
 51
245.990802
  0
LINE
  5
12C
330
1F
100
AcDbEntity
  8
0
  6
Continuous
 62
     7
370
    25
100
AcDbLine
 10
6.292235
 20
5.173409
 30
0.0
 11
6.344518
 21
5.165322
 31
0.0
  0
LINE
  5
12D
330
1F
100
AcDbEntity
  8
0
  6
Continuous
 62
     7
370
    25
100
AcDbLine
 10
6.344518
 20
5.165322
 30
0.0
 11
6.382791
 21
5.187416
 31
0.0
  0
LINE
  5
12E
330
1F
100
AcDbEntity
  8
0
  6
Continuous
 62
     7
370
    25
100
AcDbLine
 10
6.382791
 20
5.187416
 30
0.0
 11
6.368782
 21
5.217598
 31
0.0
  0
LINE
  5
12F
330
1F
100
AcDbEntity
  8
0
  6
Continuous
 62
     7
370
    25
100
AcDbLine
 10
6.368782
 20
5.217598
 30
0.0
 11
6.3165
 21
5.225685
 31
0.0
  0
LINE
  5
130
330
1F
100
AcDbEntity
  8
0
  6
Continuous
 62
     7
370
    25
100
AcDbLine
 10
6.3165
 20
5.225685
 30
0.0
 11
6.278226
 21
5.203591
 31
0.0
  0
LINE
  5
131
330
1F
100
AcDbEntity
  8
0
  6
Continuous
 62
     7
370
    25
100
AcDbLine
 10
6.278226
 20
5.203591
 30
0.0
 11
6.292235
 21
5.173409
 31
0.0
  0
LINE
  5
132
330
1F
100
AcDbEntity
  8
0
  6
Continuous
 62
     7
370
    25
100
AcDbLine
 10
6.368782
 20
5.179329
 30
0.0
 11
6.368782
 21
5.217598
 31
0.0
  0
LINE
  5
133
330
1F
100
AcDbEntity
  8
0
  6
Continuous
 62
     7
370
    25
100
AcDbLine
 10
6.3165
 20
5.169656
 30
0.0
 11
6.3165
 21
5.225685
 31
0.0
  0
SPLINE
  5
134
330
1F
100
AcDbEntity
  8
0
  6
Continuous
 62
     7
370
    25
100
AcDbSpline
210
0.0
220
0.0
230
1.0
 70
     8
 71
     3
 72
    13
 73
     9
 74
     0
 42
0.000000001
 43
0.00000001
 40
0.0
 40
0.0
 40
0.0
 40
0.0
 40
0.1123639437425709
 40
0.3099997866725689
 40
0.507635629602567
 40
0.7052714725325647
 40
0.9029073154625629
 40
1.0
 40
1.0
 40
1.0
 40
1.0
 10
6.289506072499117
 20
4.296002982469751
 30
0.0
 10
6.277215172088855
 20
4.296624637414518
 30
0.0
 10
6.243305927020664
 20
4.29833971516849
 30
0.0
 10
6.192710916021284
 20
4.311736913032099
 30
0.0
 10
6.142253027795044
 20
4.334021328386814
 30
0.0
 10
6.105660840621445
 20
4.363450360679111
 30
0.0
 10
6.085182523410094
 20
4.391401445800292
 30
0.0
 10
6.08386975214164
 20
4.40912520690025
 30
0.0
 10
6.083437284719049
 20
4.414963961499549
 30
0.0
  0
SPLINE
  5
135
330
1F
100
AcDbEntity
  8
0
  6
Continuous
 62
     7
370
    25
100
AcDbSpline
210
0.0
220
0.0
230
1.0
 70
     8
 71
     3
 72
    15
 73
    11
 74
     0
 42
0.000000001
 43
0.00000001
 40
0.0
 40
0.0
 40
0.0
 40
0.0
 40
0.1201840173661247
 40
0.2581647941614681
 40
0.3961455709568116
 40
0.5341263477521632
 40
0.6721071245475148
 40
0.8100879013428584
 40
0.9480686781382099
 40
0.9999999999999999
 40
0.9999999999999999
 40
0.9999999999999999
 40
0.9999999999999999
 10
6.373862505677689
 20
4.247305050160395
 30
0.0
 10
6.354972493728192
 20
4.245271897003183
 30
0.0
 10
6.314395250983898
 20
4.240904522889438
 30
0.0
 10
6.252099687784073
 20
4.246264979884593
 30
0.0
 10
6.192582074725707
 20
4.260378484488193
 30
0.0
 10
6.142473509017969
 20
4.283076531459965
 30
0.0
 10
6.104907757025322
 20
4.312385172473254
 30
0.0
 10
6.083792606291786
 20
4.346111936307212
 30
0.0
 10
6.07718986305405
 20
4.374774600403759
 30
0.0
 10
6.083607816757526
 20
4.390733161831227
 30
0.0
 10
6.085362801415303
 20
4.395097018561794
 30
0.0
  0
SPLINE
  5
136
330
1F
100
AcDbEntity
  8
0
  6
Continuous
 62
     7
370
    25
100
AcDbSpline
210
0.0
220
0.0
230
1.0
 70
     8
 71
     3
 72
    16
 73
    12
 74
     0
 42
0.000000001
 43
0.00000001
 40
0.0
 40
0.0
 40
0.0
 40
0.0
 40
0.109519428269594
 40
0.2302401909073445
 40
0.3509609535450948
 40
0.4716817161828346
 40
0.5924024788205955
 40
0.7131232414583424
 40
0.8338440040960964
 40
0.9545647667338432
 40
1.0
 40
1.0
 40
1.0
 40
1.0
 10
6.438084975942804
 20
4.210230207236567
 30
0.0
 10
6.419747298235863
 20
4.205211543417164
 30
0.0
 10
6.381196417513125
 20
4.194660921174738
 30
0.0
 10
6.316927439648311
 20
4.190354185478098
 30
0.0
 10
6.25217107670059
 20
4.195037108557582
 30
0.0
 10
6.192562945937235
 20
4.209396685307118
 30
0.0
 10
6.142478635255344
 20
4.232028795054118
 30
0.0
 10
6.104906380864302
 20
4.26135511282056
 30
0.0
 10
6.083792984698502
 20
4.295077106866677
 30
0.0
 10
6.077189832826704
 20
4.32374088183386
 30
0.0
 10
6.083607810266773
 20
4.339699378733463
 30
0.0
 10
6.085362801415303
 20
4.344063217818933
 30
0.0
  0
SPLINE
  5
137
330
1F
100
AcDbEntity
  8
0
  6
Continuous
 62
     7
370
    25
100
AcDbSpline
210
0.0
220
0.0
230
1.0
 70
     8
 71
     3
 72
    17
 73
    13
 74
     0
 42
0.000000001
 43
0.00000001
 40
0.0
 40
0.0
 40
0.0
 40
0.0
 40
0.0922101939510896
 40
0.2005853255656781
 40
0.3089604571802733
 40
0.4173355887948619
 40
0.5257107204094507
 40
0.6340858520240457
 40
0.7424609836386407
 40
0.8508361152532294
 40
0.9592112468678246
 40
1.0
 40
1.0
 40
1.0
 40
1.0
 10
6.489587500838978
 20
4.180498432472625
 30
0.0
 10
6.474799628186105
 20
4.173377139147422
 30
0.0
 10
6.442631490115885
 20
4.15788615188367
 30
0.0
 10
6.382669444901185
 20
4.144396860195693
 30
0.0
 10
6.317082366039558
 20
4.139150964419388
 30
0.0
 10
6.252129564270195
 20
4.144048703883219
 30
0.0
 10
6.192574069267559
 20
4.158350720606125
 30
0.0
 10
6.142475654364435
 20
4.1809982540753
 30
0.0
 10
6.104907181097606
 20
4.210320436979674
 30
0.0
 10
6.083792764656187
 20
4.244043546751889
 30
0.0
 10
6.07718985040381
 20
4.272707061869494
 30
0.0
 10
6.083607814041125
 20
4.288665573863147
 30
0.0
 10
6.085362801415303
 20
4.293029417076075
 30
0.0
  0
SPLINE
  5
138
330
1F
100
AcDbEntity
  8
0
  6
Continuous
 62
     7
370
    25
100
AcDbSpline
210
0.0
220
0.0
230
1.0
 70
     8
 71
     3
 72
    18
 73
    14
 74
     0
 42
0.000000001
 43
0.00000001
 40
0.0
 40
0.0
 40
0.0
 40
0.0
 40
0.0810483753383292
 40
0.1790555979641638
 40
0.2770628205899926
 40
0.3750700432158273
 40
0.4730772658416561
 40
0.5710844884674849
 40
0.6690917110933194
 40
0.767098933719154
 40
0.865106156344983
 40
0.9631133789708176
 40
1.0
 40
1.0
 40
1.0
 40
1.0
 10
6.532704842413406
 20
4.158391117719138
 30
0.0
 10
6.521652711570129
 20
4.149543467714524
 30
0.0
 10
6.497235863130415
 20
4.129996854280995
 30
0.0
 10
6.444853477726059
 20
4.108151013429847
 30
0.0
 10
6.382914685709836
 20
4.093204193173758
 30
0.0
 10
6.317016653959636
 20
4.088159731769844
 30
0.0
 10
6.252147171781232
 20
4.093003497046172
 30
0.0
 10
6.192569351303335
 20
4.107319976146701
 30
0.0
 10
6.142476918710296
 20
4.129963634292887
 30
0.0
 10
6.104906841678386
 20
4.159286856111594
 30
0.0
 10
6.083792857987207
 20
4.193009685549468
 30
0.0
 10
6.077189842948475
 20
4.221673265956179
 30
0.0
 10
6.083607812440233
 20
4.237631774157342
 30
0.0
 10
6.085362801415303
 20
4.241995616333216
 30
0.0
  0
SPLINE
  5
139
330
1F
100
AcDbEntity
  8
0
  6
Continuous
 62
     7
370
    25
100
AcDbSpline
210
0.0
220
0.0
230
1.0
 70
     8
 71
     3
 72
    19
 73
    15
 74
     0
 42
0.000000001
 43
0.00000001
 40
0.0
 40
0.0
 40
0.0
 40
0.0
 40
0.0809814953019697
 40
0.1695499279651427
 40
0.2581183606283157
 40
0.3466867932914834
 40
0.4352552259546565
 40
0.5238236586178242
 40
0.612392091280992
 40
0.7009605239441651
 40
0.7895289566073381
 40
0.8780973892705061
 40
0.9666658219336791
 40
1.0
 40
1.0
 40
1.0
 40
1.0
 10
6.565787836212885
 20
4.145701185155855
 30
0.0
 10
6.558124435135878
 20
4.134389275218778
 30
0.0
 10
6.54207966965298
 20
4.11070567308439
 30
0.0
 10
6.499298451465351
 20
4.08074368526183
 30
0.0
 10
6.445159932750312
 20
4.05699838765712
 30
0.0
 10
6.382832571333275
 20
4.042202231501808
 30
0.0
 10
6.317038656441626
 20
4.03711739977322
 30
0.0
 10
6.252141276229836
 20
4.041971982247465
 30
0.0
 10
6.192570931026926
 20
4.056285562880998
 30
0.0
 10
6.142476495367327
 20
4.078929997697251
 30
0.0
 10
6.104906955326672
 20
4.108253011302689
 30
0.0
 10
6.083792826737032
 20
4.141975896923567
 30
0.0
 10
6.077189845444757
 20
4.17063946424541
 30
0.0
 10
6.083607812976262
 20
4.186597973206642
 30
0.0
 10
6.085362801415303
 20
4.190961815590356
 30
0.0
  0
SPLINE
  5
13A
330
1F
100
AcDbEntity
  8
0
  6
Continuous
 62
     7
370
    25
100
AcDbSpline
210
0.0
220
0.0
230
1.0
 70
     8
 71
     3
 72
    21
 73
    17
 74
     0
 42
0.000000001
 43
0.00000001
 40
0.0
 40
0.0
 40
0.0
 40
0.0
 40
0.0161429131702618
 40
0.095637738929427
 40
0.1751325646885922
 40
0.2546273904477619
 40
0.3341222162069317
 40
0.4136170419660967
 40
0.4931118677252665
 40
0.5726066934844316
 40
0.6521015192435967
 40
0.7315963450027665
 40
0.8110911707619362
 40
0.8905859965211013
 40
0.970080822280271
 40
1.0
 40
1.0
 40
1.0
 40
1.0
 10
6.579126161960105
 20
4.14498529740087
 30
0.0
 10
6.579555467430255
 20
4.142298877282281
 30
0.0
 10
6.582098862419874
 20
4.126383339408381
 30
0.0
 10
6.570005150726379
 20
4.097221966419395
 30
0.0
 10
6.542702271100795
 20
4.060747174035797
 30
0.0
 10
6.499468566397552
 20
4.029657735841939
 30
0.0
 10
6.445114350591597
 20
4.005978560110161
 30
0.0
 10
6.382844785035936
 20
3.991164686652378
 30
0.0
 10
6.317035383789697
 20
3.986084602260743
 30
0.0
 10
6.25214215313489
 20
3.990937912689647
 30
0.0
 10
6.192570696058641
 20
4.00525183416759
 30
0.0
 10
6.142476558335413
 20
4.027896177651544
 30
0.0
 10
6.104906938422611
 20
4.057219215741763
 30
0.0
 10
6.083792831385186
 20
4.090942094755817
 30
0.0
 10
6.07718984507346
 20
4.119605663616372
 30
0.0
 10
6.083607812896533
 20
4.135564172488224
 30
0.0
 10
6.085362801415303
 20
4.139928014847497
 30
0.0
  0
SPLINE
  5
13B
330
1F
100
AcDbEntity
  8
0
  6
Continuous
 62
     7
370
    25
100
AcDbSpline
210
0.0
220
0.0
230
1.0
 70
     8
 71
     3
 72
    21
 73
    17
 74
     0
 42
0.000000001
 43
0.00000001
 40
0.0
 40
0.0
 40
0.0
 40
0.0
 40
0.060263980221093
 40
0.1361938608429354
 40
0.2121237414647777
 40
0.2880536220866244
 40
0.3639835027084711
 40
0.4399133833303133
 40
0.51584326395216
 40
0.5917731445740022
 40
0.6677030251958446
 40
0.7436329058176914
 40
0.8195627864395381
 40
0.8954926670613804
 40
0.9714225476832271
 40
0.9999999999999999
 40
0.9999999999999999
 40
0.9999999999999999
 40
0.9999999999999999
 10
6.576138354910546
 20
4.117392026524154
 30
0.0
 10
6.578331554783929
 20
4.106892862857673
 30
0.0
 10
6.583288086982105
 20
4.083165229367253
 30
0.0
 10
6.570607779995515
 20
4.046188767088529
 30
0.0
 10
6.542540797074794
 20
4.00971321214508
 30
0.0
 10
6.499511833232417
 20
3.978623978278518
 30
0.0
 10
6.445102757278132
 20
3.954944747797405
 30
0.0
 10
6.382847891454928
 20
3.940130889009661
 30
0.0
 10
6.317034551427194
 20
3.935050800687202
 30
0.0
 10
6.252142376165906
 20
3.939904112169368
 30
0.0
 10
6.19257063629708
 20
3.954218033365089
 30
0.0
 10
6.142476574350644
 20
3.976862376924668
 30
0.0
 10
6.104906934123252
 20
4.006185414994614
 30
0.0
 10
6.083792832567393
 20
4.039908294014138
 30
0.0
 10
6.077189844979024
 20
4.068571862873418
 30
0.0
 10
6.083607812876255
 20
4.084530371745345
 30
0.0
 10
6.085362801415303
 20
4.088894214104637
 30
0.0
  0
SPLINE
  5
13C
330
1F
100
AcDbEntity
  8
0
  6
Continuous
 62
     7
370
    25
100
AcDbSpline
210
0.0
220
0.0
230
1.0
 70
     8
 71
     3
 72
    21
 73
    17
 74
     0
 42
0.000000001
 43
0.00000001
 40
0.0
 40
0.0
 40
0.0
 40
0.0
 40
0.060263980221093
 40
0.1361938608429353
 40
0.2121237414647777
 40
0.2880536220866244
 40
0.3639835027084711
 40
0.4399133833303133
 40
0.5158432639521601
 40
0.5917731445740023
 40
0.6677030251958446
 40
0.7436329058176914
 40
0.8195627864395381
 40
0.8954926670613804
 40
0.9714225476832271
 40
0.9999999999999999
 40
0.9999999999999999
 40
0.9999999999999999
 40
0.9999999999999999
 10
6.576138354910546
 20
4.066358225781295
 30
0.0
 10
6.578331554783929
 20
4.055859062114814
 30
0.0
 10
6.583288086982105
 20
4.032131428624394
 30
0.0
 10
6.570607779995515
 20
3.99515496634567
 30
0.0
 10
6.542540797074794
 20
3.95867941140222
 30
0.0
 10
6.499511833232417
 20
3.927590177535659
 30
0.0
 10
6.445102757278132
 20
3.903910947054546
 30
0.0
 10
6.382847891454928
 20
3.889097088266803
 30
0.0
 10
6.317034551427194
 20
3.884016999944342
 30
0.0
 10
6.252142376165906
 20
3.888870311426508
 30
0.0
 10
6.19257063629708
 20
3.90318423262223
 30
0.0
 10
6.142476574350644
 20
3.925828576181808
 30
0.0
 10
6.104906934123252
 20
3.955151614251755
 30
0.0
 10
6.083792832567393
 20
3.988874493271278
 30
0.0
 10
6.077189844979024
 20
4.017538062130559
 30
0.0
 10
6.083607812876255
 20
4.033496571002485
 30
0.0
 10
6.085362801415303
 20
4.037860413361778
 30
0.0
  0
SPLINE
  5
13D
330
1F
100
AcDbEntity
  8
0
  6
Continuous
 62
     7
370
    25
100
AcDbSpline
210
0.0
220
0.0
230
1.0
 70
     8
 71
     3
 72
    21
 73
    17
 74
     0
 42
0.000000001
 43
0.00000001
 40
0.0
 40
0.0
 40
0.0
 40
0.0
 40
0.060263980221093
 40
0.1361938608429353
 40
0.2121237414647777
 40
0.2880536220866244
 40
0.3639835027084711
 40
0.4399133833303133
 40
0.5158432639521602
 40
0.5917731445740024
 40
0.6677030251958447
 40
0.7436329058176915
 40
0.8195627864395382
 40
0.8954926670613804
 40
0.9714225476832271
 40
0.9999999999999999
 40
0.9999999999999999
 40
0.9999999999999999
 40
0.9999999999999999
 10
6.576138354910546
 20
4.015324425038435
 30
0.0
 10
6.578331554783929
 20
4.004825261371954
 30
0.0
 10
6.583288086982105
 20
3.981097627881534
 30
0.0
 10
6.570607779995515
 20
3.944121165602811
 30
0.0
 10
6.542540797074794
 20
3.907645610659361
 30
0.0
 10
6.499511833232417
 20
3.8765563767928
 30
0.0
 10
6.445102757278132
 20
3.852877146311686
 30
0.0
 10
6.382847891454928
 20
3.838063287523944
 30
0.0
 10
6.317034551427194
 20
3.832983199201483
 30
0.0
 10
6.252142376165906
 20
3.837836510683649
 30
0.0
 10
6.19257063629708
 20
3.852150431879371
 30
0.0
 10
6.142476574350644
 20
3.874794775438948
 30
0.0
 10
6.104906934123252
 20
3.904117813508893
 30
0.0
 10
6.083792832567393
 20
3.93784069252842
 30
0.0
 10
6.077189844979024
 20
3.966504261387699
 30
0.0
 10
6.083607812876255
 20
3.982462770259625
 30
0.0
 10
6.085362801415303
 20
3.986826612618918
 30
0.0
  0
SPLINE
  5
13E
330
1F
100
AcDbEntity
  8
0
  6
Continuous
 62
     7
370
    25
100
AcDbSpline
210
0.0
220
0.0
230
1.0
 70
     8
 71
     3
 72
    21
 73
    17
 74
     0
 42
0.000000001
 43
0.00000001
 40
0.0
 40
0.0
 40
0.0
 40
0.0
 40
0.0602639802210965
 40
0.1361938608429343
 40
0.2121237414647811
 40
0.2880536220866234
 40
0.3639835027084745
 40
0.4399133833303123
 40
0.5158432639521635
 40
0.5917731445740013
 40
0.667703025195848
 40
0.7436329058176903
 40
0.8195627864395414
 40
0.8954926670613792
 40
0.9714225476832281
 40
0.9999999999999999
 40
0.9999999999999999
 40
0.9999999999999999
 40
0.9999999999999999
 10
6.576138354910546
 20
3.964290624295575
 30
0.0
 10
6.578331554783929
 20
3.953791460629093
 30
0.0
 10
6.583288086982104
 20
3.930063827138674
 30
0.0
 10
6.570607779995514
 20
3.893087364859949
 30
0.0
 10
6.542540797074794
 20
3.856611809916502
 30
0.0
 10
6.499511833232416
 20
3.825522576049939
 30
0.0
 10
6.445102757278131
 20
3.801843345568826
 30
0.0
 10
6.382847891454925
 20
3.787029486781084
 30
0.0
 10
6.317034551427193
 20
3.781949398458624
 30
0.0
 10
6.252142376165904
 20
3.786802709940791
 30
0.0
 10
6.192570636297078
 20
3.801116631136512
 30
0.0
 10
6.142476574350641
 20
3.823760974696091
 30
0.0
 10
6.104906934123252
 20
3.853084012766035
 30
0.0
 10
6.083792832567393
 20
3.886806891785562
 30
0.0
 10
6.077189844979024
 20
3.91547046064484
 30
0.0
 10
6.083607812876255
 20
3.931428969516767
 30
0.0
 10
6.085362801415303
 20
3.93579281187606
 30
0.0
  0
SPLINE
  5
13F
330
1F
100
AcDbEntity
  8
0
  6
Continuous
 62
     7
370
    25
100
AcDbSpline
210
0.0
220
0.0
230
1.0
 70
     8
 71
     3
 72
    21
 73
    17
 74
     0
 42
0.000000001
 43
0.00000001
 40
0.0
 40
0.0
 40
0.0
 40
0.0
 40
0.0602639802210931
 40
0.1361938608429354
 40
0.2121237414647777
 40
0.2880536220866244
 40
0.3639835027084712
 40
0.4399133833303134
 40
0.5158432639521602
 40
0.5917731445740024
 40
0.6677030251958447
 40
0.7436329058176915
 40
0.8195627864395382
 40
0.8954926670613804
 40
0.9714225476832271
 40
0.9999999999999999
 40
0.9999999999999999
 40
0.9999999999999999
 40
0.9999999999999999
 10
6.576138354910546
 20
3.913256823552716
 30
0.0
 10
6.578331554783929
 20
3.902757659886235
 30
0.0
 10
6.583288086982105
 20
3.879030026395816
 30
0.0
 10
6.570607779995515
 20
3.842053564117092
 30
0.0
 10
6.542540797074794
 20
3.805578009173643
 30
0.0
 10
6.499511833232417
 20
3.774488775307081
 30
0.0
 10
6.445102757278132
 20
3.750809544825967
 30
0.0
 10
6.382847891454928
 20
3.735995686038225
 30
0.0
 10
6.317034551427194
 20
3.730915597715764
 30
0.0
 10
6.252142376165906
 20
3.735768909197931
 30
0.0
 10
6.19257063629708
 20
3.750082830393652
 30
0.0
 10
6.142476574350644
 20
3.772727173953231
 30
0.0
 10
6.104906934123252
 20
3.802050212023175
 30
0.0
 10
6.083792832567393
 20
3.835773091042701
 30
0.0
 10
6.077189844979024
 20
3.86443665990198
 30
0.0
 10
6.083607812876255
 20
3.880395168773907
 30
0.0
 10
6.085362801415303
 20
3.8847590111332
 30
0.0
  0
SPLINE
  5
140
330
1F
100
AcDbEntity
  8
0
  6
Continuous
 62
     7
370
    25
100
AcDbSpline
210
0.0
220
0.0
230
1.0
 70
     8
 71
     3
 72
    21
 73
    17
 74
     0
 42
0.000000001
 43
0.00000001
 40
0.0
 40
0.0
 40
0.0
 40
0.0
 40
0.0602639802210869
 40
0.1361938608429359
 40
0.2121237414647806
 40
0.2880536220866252
 40
0.3639835027084743
 40
0.4399133833303143
 40
0.5158432639521588
 40
0.5917731445740034
 40
0.6677030251958525
 40
0.7436329058176926
 40
0.8195627864395372
 40
0.8954926670613819
 40
0.971422547683222
 40
1.0
 40
1.0
 40
1.0
 40
1.0
 10
6.576138354910546
 20
3.862223022809857
 30
0.0
 10
6.578331554783929
 20
3.851723859143378
 30
0.0
 10
6.583288086982105
 20
3.827996225652958
 30
0.0
 10
6.570607779995516
 20
3.791019763374233
 30
0.0
 10
6.542540797074794
 20
3.754544208430783
 30
0.0
 10
6.499511833232416
 20
3.723454974564221
 30
0.0
 10
6.445102757278131
 20
3.699775744083107
 30
0.0
 10
6.382847891454928
 20
3.684961885295366
 30
0.0
 10
6.317034551427195
 20
3.679881796972905
 30
0.0
 10
6.252142376165905
 20
3.684735108455071
 30
0.0
 10
6.192570636297077
 20
3.699049029650793
 30
0.0
 10
6.142476574350643
 20
3.721693373210372
 30
0.0
 10
6.104906934123252
 20
3.751016411280316
 30
0.0
 10
6.083792832567394
 20
3.78473929029984
 30
0.0
 10
6.077189844979024
 20
3.813402859159119
 30
0.0
 10
6.083607812876255
 20
3.829361368031046
 30
0.0
 10
6.085362801415303
 20
3.83372521039034
 30
0.0
  0
LINE
  5
141
330
1F
100
AcDbEntity
  8
0
  6
Continuous
 62
     7
370
    25
100
AcDbLine
 10
6.576138
 20
3.811189
 30
0.0
 11
6.580153
 21
3.779689
 31
0.0
  0
SPLINE
  5
142
330
1F
100
AcDbEntity
  8
0
  6
Continuous
 62
     7
370
    25
100
AcDbSpline
210
0.0
220
0.0
230
1.0
 70
     8
 71
     3
 72
    13
 73
     9
 74
     0
 42
0.000000001
 43
0.00000001
 40
0.0
 40
0.0
 40
0.0
 40
0.0
 40
0.1405025319121775
 40
0.323863499258747
 40
0.507224466602721
 40
0.6905854339420079
 40
0.8739464012786985
 40
1.0
 40
1.0
 40
1.0
 40
1.0
 10
6.302191687705156
 20
4.288679732691061
 30
0.0
 10
6.285594233643435
 20
4.289447220106038
 30
0.0
 10
6.247336492106256
 20
4.291216306801267
 30
0.0
 10
6.192659166400094
 20
4.305271291124666
 30
0.0
 10
6.142308323012391
 20
4.327669020932913
 30
0.0
 10
6.105491409365773
 20
4.357049861013151
 30
0.0
 10
6.084109763128294
 20
4.387273307683552
 30
0.0
 10
6.082926741628867
 20
4.407355540313506
 30
0.0
 10
6.082444785917256
 20
4.415536918862083
 30
0.0
  0
SPLINE
  5
143
330
1F
100
AcDbEntity
  8
0
  6
Continuous
 62
     7
370
    25
100
AcDbSpline
210
0.0
220
0.0
230
1.0
 70
     8
 71
     3
 72
    15
 73
    11
 74
     0
 42
0.000000001
 43
0.00000001
 40
0.0
 40
0.0
 40
0.0
 40
0.0
 40
0.0025829169600997
 40
0.1493281234604341
 40
0.2960733299607683
 40
0.4428185364650556
 40
0.5895637429672657
 40
0.7363089494657247
 40
0.8830541559621058
 40
1.0
 40
1.0
 40
1.0
 40
1.0
 10
6.383338006363029
 20
4.241834960048893
 30
0.0
 10
6.382977147325853
 20
4.241748454338667
 30
0.0
 10
6.362114532039473
 20
4.236747234564256
 30
0.0
 10
6.316662395128848
 20
4.235581612344119
 30
0.0
 10
6.252233072817906
 20
4.239538437400855
 30
0.0
 10
6.192580005983807
 20
4.254091396132242
 30
0.0
 10
6.14234839894452
 20
4.276676075976397
 30
0.0
 10
6.105410266053541
 20
4.305998731374485
 30
0.0
 10
6.083498560318749
 20
4.337495975188091
 30
0.0
 10
6.082384899163618
 20
4.358892849008114
 30
0.0
 10
6.081890995242741
 20
4.368382270297101
 30
0.0
  0
SPLINE
  5
144
330
1F
100
AcDbEntity
  8
0
  6
Continuous
 62
     7
370
    25
100
AcDbSpline
210
0.0
220
0.0
230
1.0
 70
     8
 71
     3
 72
    16
 73
    12
 74
     0
 42
0.000000001
 43
0.00000001
 40
0.0
 40
0.0
 40
0.0
 40
0.0
 40
0.0040349309712786
 40
0.1317730159071741
 40
0.25951110084307
 40
0.3872491857789657
 40
0.5149872707183024
 40
0.642725355655831
 40
0.7704634405900944
 40
0.8982015255225491
 40
1.0
 40
1.0
 40
1.0
 40
1.0
 10
6.445495167361266
 20
4.205952394786485
 30
0.0
 10
6.444929742408576
 20
4.205704375521254
 30
0.0
 10
6.426464060637169
 20
4.197604547589796
 30
0.0
 10
6.382186039205987
 20
4.189532159098726
 30
0.0
 10
6.317214311768653
 20
4.183676663873541
 30
0.0
 10
6.252085187048429
 20
4.188738060227336
 30
0.0
 10
6.192619632421893
 20
4.202995048839765
 30
0.0
 10
6.142337778961653
 20
4.225659037862668
 30
0.0
 10
6.105413119546929
 20
4.254960426664718
 30
0.0
 10
6.083498013224713
 20
4.286463037980939
 30
0.0
 10
6.082384731075935
 20
4.307859313575617
 30
0.0
 10
6.081890995242741
 20
4.317348469554241
 30
0.0
  0
SPLINE
  5
145
330
1F
100
AcDbEntity
  8
0
  6
Continuous
 62
     7
370
    25
100
AcDbSpline
210
0.0
220
0.0
230
1.0
 70
     8
 71
     3
 72
    16
 73
    12
 74
     0
 42
0.000000001
 43
0.00000001
 40
0.0
 40
0.0
 40
0.0
 40
0.0
 40
0.1104278528623794
 40
0.2245204511083078
 40
0.3386130493542366
 40
0.4527056476001652
 40
0.5667982458491673
 40
0.6808908440965543
 40
0.794983442341025
 40
0.9090760405838803
 40
0.9999999999999999
 40
0.9999999999999999
 40
0.9999999999999999
 40
0.9999999999999999
 10
6.495886405778799
 20
4.176862152051273
 30
0.0
 10
6.479099654778985
 20
4.1687262493717
 30
0.0
 10
6.444969054487242
 20
4.152184439561566
 30
0.0
 10
6.382702498472851
 20
4.137984042368239
 30
0.0
 10
6.317075926914992
 20
4.13278067369436
 30
0.0
 10
6.252122267196211
 20
4.137667333217388
 30
0.0
 10
6.192609696684428
 20
4.151971142601575
 30
0.0
 10
6.14234044176373
 20
4.174622585368223
 30
0.0
 10
6.105412404076084
 20
4.203927338423537
 30
0.0
 10
6.083498150400371
 20
4.235429100631693
 30
0.0
 10
6.082384773221411
 20
4.256825470862183
 30
0.0
 10
6.081890995242741
 20
4.266314668811382
 30
0.0
  0
SPLINE
  5
146
330
1F
100
AcDbEntity
  8
0
  6
Continuous
 62
     7
370
    25
100
AcDbSpline
210
0.0
220
0.0
230
1.0
 70
     8
 71
     3
 72
    17
 73
    13
 74
     0
 42
0.000000001
 43
0.00000001
 40
0.0
 40
0.0
 40
0.0
 40
0.0
 40
0.0986327825606011
 40
0.2010966065460339
 40
0.3035604305314662
 40
0.4060242545168988
 40
0.5084880785023312
 40
0.6109519024905239
 40
0.7134157264772663
 40
0.8158795504613894
 40
0.9183433744440616
 40
1.0
 40
1.0
 40
1.0
 40
1.0
 10
6.538460635166651
 20
4.156183318076527
 30
0.0
 10
6.525653872739349
 20
4.145850856501601
 30
0.0
 10
6.499542914515197
 20
4.124784605443456
 30
0.0
 10
6.444909854680167
 20
4.101739457019998
 30
0.0
 10
6.382898931769221
 20
4.086833648900234
 30
0.0
 10
6.31702329276799
 20
4.081778113880346
 30
0.0
 10
6.252136370487849
 20
4.086625161484296
 30
0.0
 10
6.192605917664886
 20
4.100939584890802
 30
0.0
 10
6.142341454550261
 20
4.123588183487247
 30
0.0
 10
6.105412131949499
 20
4.152893699201055
 30
0.0
 10
6.083498202574605
 20
4.184395268920886
 30
0.0
 10
6.082384789251281
 20
4.205791660604815
 30
0.0
 10
6.081890995242741
 20
4.215280868068522
 30
0.0
  0
SPLINE
  5
147
330
1F
100
AcDbEntity
  8
0
  6
Continuous
 62
     7
370
    25
100
AcDbSpline
210
0.0
220
0.0
230
1.0
 70
     8
 71
     3
 72
    19
 73
    15
 74
     0
 42
0.000000001
 43
0.00000001
 40
0.0
 40
0.0
 40
0.0
 40
0.0
 40
0.0049721252273727
 40
0.097130521880052
 40
0.1892889185327314
 40
0.2814473151854108
 40
0.3736057118380898
 40
0.4657641084907691
 40
0.5579225051434483
 40
0.65008090179861
 40
0.7422392984524672
 40
0.8343976951039687
 40
0.9265560917541652
 40
1.0
 40
1.0
 40
1.0
 40
1.0
 10
6.568844356925078
 20
4.144528768839753
 30
0.0
 10
6.568636262218246
 20
4.143823375629368
 30
0.0
 10
6.564571129794824
 20
4.13004351138175
 30
0.0
 10
6.54128433636935
 20
4.105549408872545
 30
0.0
 10
6.499848454355165
 20
4.074272747436636
 30
0.0
 10
6.445012733492586
 20
4.050643731958338
 30
0.0
 10
6.38287136547437
 20
4.035816440728677
 30
0.0
 10
6.317030679134978
 20
4.030739867171079
 30
0.0
 10
6.252134391314749
 20
4.035592552035766
 30
0.0
 10
6.192606447990289
 20
4.049905464937033
 30
0.0
 10
6.14234131242175
 20
4.072554468293696
 30
0.0
 10
6.105412170138145
 20
4.10185987547187
 30
0.0
 10
6.08349819525278
 20
4.133361472585145
 30
0.0
 10
6.082384787001742
 20
4.154757861215987
 30
0.0
 10
6.081890995242741
 20
4.164247067325663
 30
0.0
  0
SPLINE
  5
148
330
1F
100
AcDbEntity
  8
0
  6
Continuous
 62
     7
370
    25
100
AcDbSpline
210
0.0
220
0.0
230
1.0
 70
     8
 71
     3
 72
    20
 73
    16
 74
     0
 42
0.000000001
 43
0.00000001
 40
0.0
 40
0.0
 40
0.0
 40
0.0
 40
0.0169223940217624
 40
0.1002557273550956
 40
0.1835890606884288
 40
0.2669223940217622
 40
0.3502557273550955
 40
0.4335890606884285
 40
0.5169223940217618
 40
0.6002557273550949
 40
0.6835890606906729
 40
0.7669223940250712
 40
0.8502557273573395
 40
0.9335890606884277
 40
1.0
 40
1.0
 40
1.0
 40
1.0
 10
6.579126161960107
 20
4.138606072168628
 30
0.0
 10
6.579555467451722
 20
4.135919652049449
 30
0.0
 10
6.582098862568516
 20
4.120004114172045
 30
0.0
 10
6.57000514696876
 20
4.090842741290674
 30
0.0
 10
6.542702284569589
 20
4.054367948432503
 30
0.0
 10
6.499468516279992
 20
4.023278511990391
 30
0.0
 10
6.445114537593041
 20
3.999599329726199
 30
0.0
 10
6.382844087147722
 20
3.984785480646324
 30
0.0
 10
6.317037988341112
 20
3.979705305275474
 30
0.0
 10
6.252132432816863
 20
3.984558955243378
 30
0.0
 10
6.192606972775707
 20
3.998871609545029
 30
0.0
 10
6.142341171777967
 20
4.021520682196941
 30
0.0
 10
6.105412207927857
 20
4.050826070793735
 30
0.0
 10
6.08349818800744
 20
4.082327672596787
 30
0.0
 10
6.082384784775705
 20
4.103724060704939
 30
0.0
 10
6.081890995242741
 20
4.113213266582804
 30
0.0
  0
SPLINE
  5
149
330
1F
100
AcDbEntity
  8
0
  6
Continuous
 62
     7
370
    25
100
AcDbSpline
210
0.0
220
0.0
230
1.0
 70
     8
 71
     3
 72
    20
 73
    16
 74
     0
 42
0.000000001
 43
0.00000001
 40
0.0
 40
0.0
 40
0.0
 40
0.0
 40
0.0169223940217624
 40
0.1002557273550956
 40
0.1835890606884288
 40
0.2669223940217622
 40
0.3502557273550955
 40
0.4335890606884285
 40
0.5169223940217618
 40
0.6002557273550949
 40
0.6835890606906729
 40
0.7669223940250712
 40
0.8502557273573395
 40
0.9335890606884277
 40
1.0
 40
1.0
 40
1.0
 40
1.0
 10
6.579126161960107
 20
4.087572271425769
 30
0.0
 10
6.579555467451722
 20
4.08488585130659
 30
0.0
 10
6.582098862568516
 20
4.068970313429186
 30
0.0
 10
6.57000514696876
 20
4.039808940547815
 30
0.0
 10
6.542702284569589
 20
4.003334147689644
 30
0.0
 10
6.499468516279992
 20
3.972244711247532
 30
0.0
 10
6.445114537593041
 20
3.948565528983339
 30
0.0
 10
6.382844087147722
 20
3.933751679903464
 30
0.0
 10
6.317037988341112
 20
3.928671504532614
 30
0.0
 10
6.252132432816863
 20
3.933525154500519
 30
0.0
 10
6.192606972775707
 20
3.94783780880217
 30
0.0
 10
6.142341171777967
 20
3.970486881454082
 30
0.0
 10
6.105412207927857
 20
3.999792270050875
 30
0.0
 10
6.08349818800744
 20
4.031293871853928
 30
0.0
 10
6.082384784775705
 20
4.05269025996208
 30
0.0
 10
6.081890995242741
 20
4.062179465839944
 30
0.0
  0
SPLINE
  5
14A
330
1F
100
AcDbEntity
  8
0
  6
Continuous
 62
     7
370
    25
100
AcDbSpline
210
0.0
220
0.0
230
1.0
 70
     8
 71
     3
 72
    20
 73
    16
 74
     0
 42
0.000000001
 43
0.00000001
 40
0.0
 40
0.0
 40
0.0
 40
0.0
 40
0.0169223940217624
 40
0.1002557273550956
 40
0.1835890606884288
 40
0.2669223940217622
 40
0.3502557273550955
 40
0.4335890606884285
 40
0.5169223940217618
 40
0.6002557273550949
 40
0.6835890606906729
 40
0.7669223940250712
 40
0.8502557273573395
 40
0.9335890606884277
 40
1.0
 40
1.0
 40
1.0
 40
1.0
 10
6.579126161960107
 20
4.036538470682909
 30
0.0
 10
6.579555467451722
 20
4.03385205056373
 30
0.0
 10
6.582098862568516
 20
4.017936512686327
 30
0.0
 10
6.57000514696876
 20
3.988775139804955
 30
0.0
 10
6.542702284569589
 20
3.952300346946785
 30
0.0
 10
6.499468516279992
 20
3.921210910504672
 30
0.0
 10
6.445114537593041
 20
3.89753172824048
 30
0.0
 10
6.382844087147722
 20
3.882717879160605
 30
0.0
 10
6.317037988341112
 20
3.877637703789756
 30
0.0
 10
6.252132432816863
 20
3.88249135375766
 30
0.0
 10
6.192606972775707
 20
3.89680400805931
 30
0.0
 10
6.142341171777967
 20
3.919453080711223
 30
0.0
 10
6.105412207927857
 20
3.948758469308016
 30
0.0
 10
6.08349818800744
 20
3.980260071111068
 30
0.0
 10
6.082384784775705
 20
4.001656459219221
 30
0.0
 10
6.081890995242741
 20
4.011145665097085
 30
0.0
  0
SPLINE
  5
14B
330
1F
100
AcDbEntity
  8
0
  6
Continuous
 62
     7
370
    25
100
AcDbSpline
210
0.0
220
0.0
230
1.0
 70
     8
 71
     3
 72
    20
 73
    16
 74
     0
 42
0.000000001
 43
0.00000001
 40
0.0
 40
0.0
 40
0.0
 40
0.0
 40
0.0169223940217624
 40
0.1002557273550956
 40
0.1835890606884289
 40
0.2669223940217622
 40
0.3502557273550955
 40
0.4335890606884285
 40
0.5169223940217618
 40
0.6002557273550949
 40
0.6835890606906729
 40
0.7669223940250712
 40
0.8502557273573395
 40
0.9335890606884277
 40
1.0
 40
1.0
 40
1.0
 40
1.0
 10
6.579126161960107
 20
3.98550466994005
 30
0.0
 10
6.579555467451722
 20
3.98281824982087
 30
0.0
 10
6.582098862568516
 20
3.966902711943467
 30
0.0
 10
6.57000514696876
 20
3.937741339062096
 30
0.0
 10
6.542702284569589
 20
3.901266546203925
 30
0.0
 10
6.499468516279992
 20
3.870177109761813
 30
0.0
 10
6.445114537593041
 20
3.846497927497621
 30
0.0
 10
6.382844087147722
 20
3.831684078417746
 30
0.0
 10
6.317037988341112
 20
3.826603903046896
 30
0.0
 10
6.252132432816863
 20
3.831457553014801
 30
0.0
 10
6.192606972775707
 20
3.845770207316451
 30
0.0
 10
6.142341171777967
 20
3.868419279968363
 30
0.0
 10
6.105412207927857
 20
3.897724668565157
 30
0.0
 10
6.08349818800744
 20
3.929226270368209
 30
0.0
 10
6.082384784775705
 20
3.950622658476361
 30
0.0
 10
6.081890995242741
 20
3.960111864354225
 30
0.0
  0
SPLINE
  5
14C
330
1F
100
AcDbEntity
  8
0
  6
Continuous
 62
     7
370
    25
100
AcDbSpline
210
0.0
220
0.0
230
1.0
 70
     8
 71
     3
 72
    20
 73
    16
 74
     0
 42
0.000000001
 43
0.00000001
 40
0.0
 40
0.0
 40
0.0
 40
0.0
 40
0.0169223940217624
 40
0.1002557273550956
 40
0.1835890606884288
 40
0.2669223940217622
 40
0.3502557273550955
 40
0.4335890606884285
 40
0.5169223940217618
 40
0.6002557273550949
 40
0.6835890606906729
 40
0.7669223940250712
 40
0.8502557273573395
 40
0.9335890606884277
 40
1.0
 40
1.0
 40
1.0
 40
1.0
 10
6.579126161960107
 20
3.93447086919719
 30
0.0
 10
6.579555467451722
 20
3.931784449078011
 30
0.0
 10
6.582098862568516
 20
3.915868911200608
 30
0.0
 10
6.57000514696876
 20
3.886707538319236
 30
0.0
 10
6.542702284569589
 20
3.850232745461066
 30
0.0
 10
6.499468516279992
 20
3.819143309018954
 30
0.0
 10
6.445114537593041
 20
3.795464126754761
 30
0.0
 10
6.382844087147722
 20
3.780650277674886
 30
0.0
 10
6.317037988341112
 20
3.775570102304037
 30
0.0
 10
6.252132432816863
 20
3.780423752271941
 30
0.0
 10
6.192606972775707
 20
3.794736406573592
 30
0.0
 10
6.142341171777967
 20
3.817385479225504
 30
0.0
 10
6.105412207927857
 20
3.846690867822297
 30
0.0
 10
6.08349818800744
 20
3.87819246962535
 30
0.0
 10
6.082384784775705
 20
3.899588857733502
 30
0.0
 10
6.081890995242741
 20
3.909078063611366
 30
0.0
  0
SPLINE
  5
14D
330
1F
100
AcDbEntity
  8
0
  6
Continuous
 62
     7
370
    25
100
AcDbSpline
210
0.0
220
0.0
230
1.0
 70
     8
 71
     3
 72
    20
 73
    16
 74
     0
 42
0.000000001
 43
0.00000001
 40
0.0
 40
0.0
 40
0.0
 40
0.0
 40
0.0169223940217645
 40
0.1002557273550981
 40
0.1835890606884317
 40
0.2669223940217654
 40
0.3502557273550992
 40
0.4335890606884326
 40
0.5169223940217663
 40
0.6002557273550998
 40
0.6835890606906782
 40
0.766922394025077
 40
0.8502557273573457
 40
0.9335890606884343
 40
1.0
 40
1.0
 40
1.0
 40
1.0
 10
6.579126161960107
 20
3.883437068454332
 30
0.0
 10
6.579555467451722
 20
3.880750648335152
 30
0.0
 10
6.582098862568516
 20
3.864835110457749
 30
0.0
 10
6.570005146968761
 20
3.835673737576377
 30
0.0
 10
6.542702284569589
 20
3.799198944718206
 30
0.0
 10
6.499468516279992
 20
3.768109508276094
 30
0.0
 10
6.445114537593041
 20
3.744430326011902
 30
0.0
 10
6.382844087147722
 20
3.729616476932027
 30
0.0
 10
6.317037988341112
 20
3.724536301561177
 30
0.0
 10
6.252132432816863
 20
3.729389951529082
 30
0.0
 10
6.192606972775707
 20
3.743702605830733
 30
0.0
 10
6.142341171777967
 20
3.766351678482645
 30
0.0
 10
6.105412207927857
 20
3.795657067079438
 30
0.0
 10
6.083498188007441
 20
3.827158668882489
 30
0.0
 10
6.082384784775705
 20
3.84855505699064
 30
0.0
 10
6.081890995242741
 20
3.858044262868504
 30
0.0
  0
SPLINE
  5
14E
330
1F
100
AcDbEntity
  8
0
  6
Continuous
 62
     7
370
    25
100
AcDbSpline
210
0.0
220
0.0
230
1.0
 70
     8
 71
     3
 72
    20
 73
    16
 74
     0
 42
0.000000001
 43
0.00000001
 40
0.0
 40
0.0
 40
0.0
 40
0.0
 40
0.0169223940217645
 40
0.1002557273550981
 40
0.1835890606884317
 40
0.2669223940217654
 40
0.3502557273550992
 40
0.4335890606884326
 40
0.5169223940217663
 40
0.6002557273550998
 40
0.6835890606906782
 40
0.766922394025077
 40
0.8502557273573457
 40
0.9335890606884343
 40
1.0
 40
1.0
 40
1.0
 40
1.0
 10
6.579126161960107
 20
3.832403267711472
 30
0.0
 10
6.579555467451722
 20
3.829716847592293
 30
0.0
 10
6.582098862568516
 20
3.81380130971489
 30
0.0
 10
6.570005146968761
 20
3.784639936833517
 30
0.0
 10
6.542702284569589
 20
3.748165143975347
 30
0.0
 10
6.499468516279992
 20
3.717075707533235
 30
0.0
 10
6.445114537593041
 20
3.693396525269043
 30
0.0
 10
6.382844087147722
 20
3.678582676189167
 30
0.0
 10
6.317037988341112
 20
3.673502500818318
 30
0.0
 10
6.252132432816863
 20
3.678356150786223
 30
0.0
 10
6.192606972775707
 20
3.692668805087873
 30
0.0
 10
6.142341171777967
 20
3.715317877739786
 30
0.0
 10
6.105412207927857
 20
3.744623266336578
 30
0.0
 10
6.083498188007441
 20
3.77612486813963
 30
0.0
 10
6.082384784775705
 20
3.797521256247781
 30
0.0
 10
6.081890995242741
 20
3.807010462125644
 30
0.0
  0
LINE
  5
14F
330
1F
100
AcDbEntity
  8
0
  6
Continuous
 62
     7
370
    25
100
AcDbLine
 10
6.021633
 20
3.414432
 30
0.0
 11
6.021633
 21
3.561154
 31
0.0
  0
SPLINE
  5
150
330
1F
100
AcDbEntity
  8
0
  6
Continuous
 62
     7
370
    25
100
AcDbSpline
210
0.0
220
0.0
230
1.0
 70
     8
 71
     3
 72
    21
 73
    17
 74
     0
 42
0.000000001
 43
0.00000001
 40
0.0
 40
0.0
 40
0.0
 40
0.0
 40
0.0229923141141137
 40
0.0458855506193078
 40
0.0837391969946421
 40
0.1491858238904628
 40
0.2427131357714122
 40
0.3367521683253692
 40
0.5375580556441003
 40
0.6737723155625225
 40
0.766866686120996
 40
0.8740689235416464
 40
0.9134381238394067
 40
0.9530749853655903
 40
0.978078077806577
 40
0.9999999999999999
 40
0.9999999999999999
 40
0.9999999999999999
 40
0.9999999999999999
 10
6.021632531430186
 20
3.561154158663771
 30
0.0
 10
6.022014568771283
 20
3.564126773995103
 30
0.0
 10
6.022776997192639
 20
3.5700591951764
 30
0.0
 10
6.029373929226685
 20
3.57876610029405
 30
0.0
 10
6.043831307115018
 20
3.587949237451946
 30
0.0
 10
6.072057801824978
 20
3.594321029499431
 30
0.0
 10
6.110674872770019
 20
3.594836232859218
 30
0.0
 10
6.170858309629327
 20
3.588344110433967
 30
0.0
 10
6.237683757921324
 20
3.577514459542357
 30
0.0
 10
6.304434781959165
 20
3.566452015774995
 30
0.0
 10
6.356407810981837
 20
3.554636414086665
 30
0.0
 10
6.393207398274273
 20
3.541767685716284
 30
0.0
 10
6.41882625328973
 20
3.526051350790451
 30
0.0
 10
6.430924417705549
 20
3.51479859878506
 30
0.0
 10
6.437789828464193
 20
3.503585280610422
 30
0.0
 10
6.438536615266292
 20
3.497275902482015
 30
0.0
 10
6.438885491069492
 20
3.494328355262319
 30
0.0
  0
LINE
  5
151
330
1F
100
AcDbEntity
  8
0
  6
Continuous
 62
     7
370
    25
100
AcDbLine
 10
6.438885
 20
3.347606
 30
0.0
 11
6.438885
 21
3.494328
 31
0.0
  0
LINE
  5
152
330
1F
100
AcDbEntity
  8
0
  6
Continuous
 62
     7
370
    25
100
AcDbLine
 10
6.438885
 20
3.347606
 30
0.0
 11
6.021633
 21
3.414432
 31
0.0
  0
SPLINE
  5
153
330
1F
100
AcDbEntity
  8
0
  6
Continuous
 62
     7
370
    25
100
AcDbSpline
210
0.0
220
0.0
230
1.0
 70
     8
 71
     3
 72
    21
 73
    17
 74
     0
 42
0.000000001
 43
0.00000001
 40
0.0
 40
0.0
 40
0.0
 40
0.0
 40
0.0229932057752198
 40
0.0458873300992076
 40
0.0837424444705008
 40
0.1491916094410639
 40
0.2417527174274558
 40
0.3367264470216143
 40
0.5375401217600353
 40
0.6737596641809971
 40
0.7668576450167583
 40
0.8740640398295328
 40
0.9134347668976965
 40
0.9530731655744088
 40
0.9780772276561611
 40
1.0
 40
1.0
 40
1.0
 40
1.0
 10
5.913255618962118
 20
3.803170935070566
 30
0.0
 10
5.913354851024943
 20
3.805983106764733
 30
0.0
 10
5.913552887543546
 20
3.811595332049342
 30
0.0
 10
5.915266332041851
 20
3.81753309991165
 30
0.0
 10
5.919021776038957
 20
3.820640384581092
 30
0.0
 10
5.926314790095527
 20
3.815233270883114
 30
0.0
 10
5.936353540467735
 20
3.799330105794161
 30
0.0
 10
5.951974122385721
 20
3.767919342374507
 30
0.0
 10
5.969373441426153
 20
3.728788548752499
 30
0.0
 10
5.98671029802073
 20
3.689733621365237
 30
0.0
 10
6.000209886150111
 20
3.656090754047359
 30
0.0
 10
6.009768141050851
 20
3.627772347201981
 30
0.0
 10
6.016422363364792
 20
3.601299359601814
 30
0.0
 10
6.019564729236778
 20
3.584967001257561
 30
0.0
 10
6.02134794501402
 20
3.570871116692129
 30
0.0
 10
6.021541914743955
 20
3.564248187355086
 30
0.0
 10
6.021632531430186
 20
3.561154158663771
 30
0.0
  0
SPLINE
  5
154
330
1F
100
AcDbEntity
  8
0
  6
Continuous
 62
     7
370
    25
100
AcDbSpline
210
0.0
220
0.0
230
1.0
 70
     8
 71
     3
 72
    14
 73
    10
 74
     0
 42
0.000000001
 43
0.00000001
 40
0.0
 40
0.0
 40
0.0
 40
0.0
 40
0.0922764815725089
 40
0.3556772348663004
 40
0.6197086629407507
 40
0.7516108646349919
 40
0.886729929841593
 40
0.98004894135096
 40
1.0
 40
1.0
 40
1.0
 40
1.0
 10
6.083309750811882
 20
3.950173869712615
 30
0.0
 10
6.078104512955827
 20
3.947357015420524
 30
0.0
 10
6.05804106259542
 20
3.936499525748629
 30
0.0
 10
6.023073606881607
 20
3.916163907682432
 30
0.0
 10
5.985880430691785
 20
3.893103145389248
 30
0.0
 10
5.956230725299741
 20
3.87020217524008
 30
0.0
 10
5.937226814199069
 20
3.851362996887055
 30
0.0
 10
5.924733954774862
 20
3.835820332658337
 30
0.0
 10
5.9209754301887
 20
3.827746258429348
 30
0.0
 10
5.920313414668206
 20
3.826324114625129
 30
0.0
  0
SPLINE
  5
155
330
1F
100
AcDbEntity
  8
0
  6
Continuous
 62
     7
370
    25
100
AcDbSpline
210
0.0
220
0.0
230
1.0
 70
     8
 71
     3
 72
     9
 73
     5
 74
     0
 42
0.000000001
 43
0.00000001
 40
0.0
 40
0.0
 40
0.0
 40
0.0
 40
0.1956776217971016
 40
1.0
 40
1.0
 40
1.0
 40
1.0
 10
6.59642071176549
 20
3.955762088048722
 30
0.0
 10
6.595204106269021
 20
3.956505128620013
 30
0.0
 10
6.58898670907615
 20
3.960302397640699
 30
0.0
 10
6.581906768194361
 20
3.962191626705299
 30
0.0
 10
6.576212213306783
 20
3.963711175919507
 30
0.0
  0
SPLINE
  5
156
330
1F
100
AcDbEntity
  8
0
  6
Continuous
 62
     7
370
    25
100
AcDbSpline
210
0.0
220
0.0
230
1.0
 70
     8
 71
     3
 72
    18
 73
    14
 74
     0
 42
0.000000001
 43
0.00000001
 40
0.0
 40
0.0
 40
0.0
 40
0.0
 40
0.0261447424405047
 40
0.0521768229473751
 40
0.0952205039794449
 40
0.1696403816524235
 40
0.2748882688748328
 40
0.3828794608437874
 40
0.6112174253665742
 40
0.7661077389129198
 40
0.8719660848293995
 40
0.9938665978659837
 40
1.0
 40
1.0
 40
1.0
 40
1.0
 10
6.74776153824073
 20
3.669519328267662
 30
0.0
 10
6.747662306227305
 20
3.672774690321167
 30
0.0
 10
6.747464269807287
 20
3.679271386545344
 30
0.0
 10
6.745750824411726
 20
3.692861757061571
 30
0.0
 10
6.741995387677179
 20
3.712741564793237
 30
0.0
 10
6.734702315348638
 20
3.739907041263002
 30
0.0
 10
6.724663897446137
 20
3.768836194117818
 30
0.0
 10
6.709041466649848
 20
3.807205747337651
 30
0.0
 10
6.691655167983561
 20
3.845674102811265
 30
0.0
 10
6.674283107037899
 20
3.884345970263005
 30
0.0
 10
6.660869435665204
 20
3.910270613163094
 30
0.0
 10
6.652440292570944
 20
3.92450866439525
 30
0.0
 10
6.648488703859321
 20
3.926061372437399
 30
0.0
 10
6.648299404933296
 20
3.926135754157325
 30
0.0
  0
SPLINE
  5
157
330
1F
100
AcDbEntity
  8
0
  6
Continuous
 62
     7
370
    25
100
AcDbSpline
210
0.0
220
0.0
230
1.0
 70
     8
 71
     3
 72
    22
 73
    18
 74
     0
 42
0.000000001
 43
0.00000001
 40
0.0
 40
0.0
 40
0.0
 40
0.0
 40
0.0209659136686008
 40
0.0432467148547877
 40
0.0796254674790527
 40
0.1414472326937901
 40
0.224478908513144
 40
0.3097477373626991
 40
0.499953252878704
 40
0.6294086173223081
 40
0.7591739438011555
 40
0.8240008183552925
 40
0.8904087067567715
 40
0.9362728377184146
 40
0.9657340254310179
 40
0.989563366725596
 40
1.0
 40
1.0
 40
1.0
 40
1.0
 10
6.438885491069492
 20
3.494328355262319
 30
0.0
 10
6.439120125910061
 20
3.497226708643557
 30
0.0
 10
6.439604110829845
 20
3.503205187054184
 30
0.0
 10
6.443992911887389
 20
3.515132307035117
 30
0.0
 10
6.453937136077632
 20
3.532087045564064
 30
0.0
 10
6.472923941168099
 20
3.553530968578978
 30
0.0
 10
6.49879058891247
 20
3.574997646553527
 30
0.0
 10
6.539830397700778
 20
3.60260072458676
 30
0.0
 10
6.586363183015742
 20
3.62888905521308
 30
0.0
 10
6.637926657672977
 20
3.658038093544075
 30
0.0
 10
6.675179582346855
 20
3.677115738271575
 30
0.0
 10
6.704712039591286
 20
3.687692960707314
 30
0.0
 10
6.724043882699196
 20
3.690895697388231
 30
0.0
 10
6.737758551663668
 20
3.688129579384475
 30
0.0
 10
6.744909563029603
 20
3.681832598153549
 30
0.0
 10
6.747508987407251
 20
3.675255017236748
 30
0.0
 10
6.747702575675472
 20
3.670858428719165
 30
0.0
 10
6.74776153824073
 20
3.669519328267662
 30
0.0
  0
ARC
  5
158
330
1F
100
AcDbEntity
  8
0
  6
Continuous
 62
     7
370
    25
100
AcDbCircle
 10
6.304458
 20
3.920708
 30
0.0
 40
0.2569093445447238
100
AcDbArc
 50
235.864746
 51
261.55261
  0
LINE
  5
159
330
1F
100
AcDbEntity
  8
0
  6
Continuous
 62
     7
370
    25
100
AcDbLine
 10
6.747762
 20
3.522797
 30
0.0
 11
6.747762
 21
3.669519
 31
0.0
  0
LINE
  5
15A
330
1F
100
AcDbEntity
  8
0
  6
Continuous
 62
     7
370
    25
100
AcDbLine
 10
6.747762
 20
3.522797
 30
0.0
 11
6.438885
 21
3.347606
 31
0.0
  0
LINE
  5
15B
330
1F
100
AcDbEntity
  8
0
  6
Continuous
 62
     7
370
    25
100
AcDbLine
 10
5.913256
 20
3.656449
 30
0.0
 11
5.913256
 21
3.803171
 31
0.0
  0
LINE
  5
15C
330
1F
100
AcDbEntity
  8
0
  6
Continuous
 62
     7
370
    25
100
AcDbLine
 10
6.021633
 20
3.414432
 30
0.0
 11
5.913256
 21
3.656449
 31
0.0
  0
SPLINE
  5
15D
330
1F
100
AcDbEntity
  8
0
  6
Continuous
 62
     7
370
    25
100
AcDbSpline
210
0.0
220
0.0
230
1.0
 70
     8
 71
     3
 72
    21
 73
    17
 74
     0
 42
0.000000001
 43
0.00000001
 40
0.0
 40
0.0
 40
0.0
 40
0.0
 40
0.0229923141141136
 40
0.0458855506193078
 40
0.0837391969946423
 40
0.1491858238904633
 40
0.2427131357714133
 40
0.3367521683253711
 40
0.5375580556441016
 40
0.6737723155625233
 40
0.7668666861209966
 40
0.8740689235416468
 40
0.9134381238394074
 40
0.9530749853655909
 40
0.9780780778065775
 40
1.0
 40
1.0
 40
1.0
 40
1.0
 10
6.438885491069492
 20
3.19450477589802
 30
0.0
 10
6.438503453728394
 20
3.191532160566688
 30
0.0
 10
6.437741025307038
 20
3.185599739385392
 30
0.0
 10
6.431144093272993
 20
3.176892834267742
 30
0.0
 10
6.41668671538466
 20
3.167709697109846
 30
0.0
 10
6.388460220674699
 20
3.161337905062361
 30
0.0
 10
6.349843149729658
 20
3.160822701702574
 30
0.0
 10
6.289659712870349
 20
3.167314824127825
 30
0.0
 10
6.222834264578353
 20
3.178144475019435
 30
0.0
 10
6.156083240540512
 20
3.189206918786797
 30
0.0
 10
6.104110211517841
 20
3.201022520475127
 30
0.0
 10
6.067310624225404
 20
3.213891248845508
 30
0.0
 10
6.041691769209947
 20
3.229607583771342
 30
0.0
 10
6.029593604794128
 20
3.240860335776731
 30
0.0
 10
6.022728194035485
 20
3.252073653951369
 30
0.0
 10
6.021981407233385
 20
3.258383032079777
 30
0.0
 10
6.021632531430186
 20
3.261330579299472
 30
0.0
  0
LINE
  5
15E
330
1F
100
AcDbEntity
  8
0
  6
Continuous
 62
     7
370
    25
100
AcDbLine
 10
6.021633
 20
3.261331
 30
0.0
 11
6.021633
 21
3.312364
 31
0.0
  0
LINE
  5
15F
330
1F
100
AcDbEntity
  8
0
  6
Continuous
 62
     7
370
    25
100
AcDbLine
 10
6.438885
 20
3.245539
 30
0.0
 11
6.021633
 21
3.312364
 31
0.0
  0
LINE
  5
160
330
1F
100
AcDbEntity
  8
0
  6
Continuous
 62
     7
370
    25
100
AcDbLine
 10
6.438885
 20
3.194505
 30
0.0
 11
6.438885
 21
3.245539
 31
0.0
  0
LWPOLYLINE
  5
161
330
1F
100
AcDbEntity
  8
0
  6
Continuous
 62
     7
370
    25
100
AcDbPolyline
 90
       20
 70
   128
 43
0.0
 10
6.674071
 20
3.481001
 10
6.673153
 20
3.471653
 10
6.665745
 20
3.443664
 10
6.651513
 20
3.416569
 10
6.630745
 20
3.390919
 10
6.603866
 20
3.367236
 10
6.571422
 20
3.346003
 10
6.534074
 20
3.327651
 10
6.492582
 20
3.312554
 10
6.44779
 20
3.30102
 10
6.400611
 20
3.293283
 10
6.352005
 20
3.289501
 10
6.302961
 20
3.289751
 10
6.254478
 20
3.294027
 10
6.207543
 20
3.302244
 10
6.163111
 20
3.314232
 10
6.122087
 20
3.329749
 10
6.085305
 20
3.348479
 10
6.053516
 20
3.37004
 10
6.047295
 20
3.375089
  0
LINE
  5
162
330
1F
100
AcDbEntity
  8
0
  6
Continuous
 62
     7
370
    25
100
AcDbLine
 10
6.021633
 20
3.312364
 30
0.0
 11
6.004585
 21
3.350433
 31
0.0
  0
LINE
  5
163
330
1F
100
AcDbEntity
  8
0
  6
Continuous
 62
     7
370
    25
100
AcDbLine
 10
6.711313
 20
3.502124
 30
0.0
 11
6.747762
 21
3.42073
 31
0.0
  0
LINE
  5
164
330
1F
100
AcDbEntity
  8
0
  6
Continuous
 62
     7
370
    25
100
AcDbLine
 10
6.747762
 20
3.42073
 30
0.0
 11
6.438885
 21
3.245539
 31
0.0
  0
SPLINE
  5
165
330
1F
100
AcDbEntity
  8
0
  6
Continuous
 62
     7
370
    25
100
AcDbSpline
210
0.0
220
0.0
230
1.0
 70
     8
 71
     3
 72
    22
 73
    18
 74
     0
 42
0.000000001
 43
0.00000001
 40
0.0
 40
0.0
 40
0.0
 40
0.0
 40
0.0209659136685973
 40
0.0432467148547838
 40
0.0796254674790473
 40
0.1414472326937808
 40
0.2244789085131242
 40
0.3097477373626686
 40
0.4999532528787043
 40
0.6294086173223086
 40
0.7591739438011561
 40
0.824000818355293
 40
0.8904087067567724
 40
0.9362728377184156
 40
0.9657340254310188
 40
0.9895633667255966
 40
1.0
 40
1.0
 40
1.0
 40
1.0
 10
6.74776153824073
 20
3.369695748903363
 30
0.0
 10
6.747526903400161
 20
3.366797395522127
 30
0.0
 10
6.747042918480376
 20
3.3608189171115
 30
0.0
 10
6.742654117422832
 20
3.348891797130567
 30
0.0
 10
6.732709893232592
 20
3.331937058601621
 30
0.0
 10
6.713723088142126
 20
3.310493135586709
 30
0.0
 10
6.687856440397757
 20
3.289026457612162
 30
0.0
 10
6.646816631609449
 20
3.261423379578926
 30
0.0
 10
6.600283846294484
 20
3.235135048952605
 30
0.0
 10
6.548720371637243
 20
3.205986010621608
 30
0.0
 10
6.511467446963366
 20
3.186908365894109
 30
0.0
 10
6.481934989718936
 20
3.176331143458369
 30
0.0
 10
6.462603146611025
 20
3.173128406777452
 30
0.0
 10
6.448888477646554
 20
3.175894524781209
 30
0.0
 10
6.441737466280617
 20
3.182191506012134
 30
0.0
 10
6.439138041902971
 20
3.188769086928936
 30
0.0
 10
6.43894445363475
 20
3.193165675446519
 30
0.0
 10
6.438885491069492
 20
3.19450477589802
 30
0.0
  0
SPLINE
  5
166
330
1F
100
AcDbEntity
  8
0
  6
Continuous
 62
     7
370
    25
100
AcDbSpline
210
0.0
220
0.0
230
1.0
 70
     8
 71
     3
 72
    10
 73
     6
 74
     0
 42
0.000000001
 43
0.00000001
 40
0.0
 40
0.0
 40
0.0
 40
0.0
 40
0.002559668349512
 40
0.5340265844693065
 40
1.0
 40
1.0
 40
1.0
 40
1.0
 10
6.745891700023732
 20
3.356616941673796
 30
0.0
 10
6.745895215188074
 20
3.356619993466773
 30
0.0
 10
6.746628588012772
 20
3.357256692584687
 30
0.0
 10
6.747432292520634
 20
3.361494052212407
 30
0.0
 10
6.747656701346147
 20
3.367084202696699
 30
0.0
 10
6.74776153824073
 20
3.369695748903363
 30
0.0
  0
SPLINE
  5
167
330
1F
100
AcDbEntity
  8
0
  6
Continuous
 62
     7
370
    25
100
AcDbSpline
210
0.0
220
0.0
230
1.0
 70
     8
 71
     3
 72
    13
 73
     9
 74
     0
 42
0.000000001
 43
0.00000001
 40
0.0
 40
0.0
 40
0.0
 40
0.0
 40
0.0765242382408137
 40
0.1527187211333113
 40
0.2787052329360309
 40
0.4965281647112699
 40
0.8045830026764083
 40
1.0
 40
1.0
 40
1.0
 40
1.0
 10
6.021632531430186
 20
3.261330579299472
 30
0.0
 10
6.021533300629629
 20
3.258518351376847
 30
0.0
 10
6.021335266630121
 20
3.252906013877619
 30
0.0
 10
6.019621799205026
 20
3.246969267302698
 30
0.0
 10
6.015866540781501
 20
3.243853716148459
 30
0.0
 10
6.008572037753947
 20
3.249327156939041
 30
0.0
 10
5.999979287083341
 20
3.262626937795883
 30
0.0
 10
5.993896399133692
 20
3.274953224494153
 30
0.0
 10
5.991535393780743
 20
3.279737535682771
 30
0.0
  0
LINE
  5
168
330
1F
100
AcDbEntity
  8
0
  6
Continuous
 62
     7
370
    25
100
AcDbLine
 10
6.747762
 20
3.369696
 30
0.0
 11
6.747762
 21
3.42073
 31
0.0
  0
ARC
  5
169
330
1F
100
AcDbEntity
  8
0
  6
Continuous
 62
     7
370
    25
100
AcDbCircle
 10
5.462465
 20
2.358627
 30
0.0
 40
0.035955260687876
100
AcDbArc
 50
248.706012
 51
320.97867
  0
SPLINE
  5
16A
330
1F
100
AcDbEntity
  8
0
  6
Continuous
 62
     7
370
    25
100
AcDbSpline
210
0.0
220
0.0
230
1.0
 70
     8
 71
     3
 72
    10
 73
     6
 74
     0
 42
0.000000001
 43
0.00000001
 40
0.0
 40
0.0
 40
0.0
 40
0.0
 40
0.261649972272159
 40
0.6246378710562035
 40
1.0
 40
1.0
 40
1.0
 40
1.0
 10
5.458981822636096
 20
2.336726117891366
 30
0.0
 10
5.458757595136735
 20
2.33503423270946
 30
0.0
 10
5.458222296062871
 20
2.330995189445209
 30
0.0
 10
5.454856401343442
 20
2.326817600871526
 30
0.0
 10
5.451243981113452
 20
2.325696115558799
 30
0.0
 10
5.449407500179955
 20
2.325125975247625
 30
0.0
  0
LWPOLYLINE
  5
16B
330
1F
100
AcDbEntity
  8
0
  6
Continuous
 62
     7
370
    25
100
AcDbPolyline
 90
       17
 70
   128
 43
0.0
 10
5.401683
 20
2.361093
 10
5.387762
 20
2.380262
 10
5.377589
 20
2.401767
 10
5.372202
 20
2.423414
 10
5.372149
 20
2.442999
 10
5.377436
 20
2.458523
 10
5.387525
 20
2.468403
 10
5.401386
 20
2.471634
 10
5.417606
 20
2.467885
 10
5.434532
 20
2.457538
 10
5.450438
 20
2.441649
 10
5.463702
 20
2.421837
 10
5.472973
 20
2.400122
 10
5.477305
 20
2.378718
 10
5.476256
 20
2.359808
 10
5.469933
 20
2.345318
 10
5.458982
 20
2.336726
  0
SPLINE
  5
16C
330
1F
100
AcDbEntity
  8
0
  6
Continuous
 62
     7
370
    25
100
AcDbSpline
210
0.0
220
0.0
230
1.0
 70
     8
 71
     3
 72
    21
 73
    17
 74
     0
 42
0.000000001
 43
0.00000001
 40
0.0
 40
0.0
 40
0.0
 40
0.0
 40
0.0780905404521422
 40
0.1558462096654606
 40
0.2314004643706928
 40
0.3070109015320264
 40
0.3803891730845537
 40
0.4534287417184947
 40
0.5250453033426584
 40
0.5955307083653275
 40
0.665382971192844
 40
0.7333304846853297
 40
0.8013547735182514
 40
0.8668221427801344
 40
0.9322687300889131
 40
1.0
 40
1.0
 40
1.0
 40
1.0
 10
5.490398837801971
 20
2.335988766668475
 30
0.0
 10
5.493175363466201
 20
2.342111319191728
 30
0.0
 10
5.498716508377017
 20
2.354330169243247
 30
0.0
 10
5.497518537999659
 20
2.380504448315031
 30
0.0
 10
5.489326035179003
 20
2.408545480009396
 30
0.0
 10
5.474745936055307
 20
2.43571247899913
 30
0.0
 10
5.455474823857116
 20
2.458719180810079
 30
0.0
 10
5.434044664448548
 20
2.475164364682916
 30
0.0
 10
5.41265756912088
 20
2.483044266035182
 30
0.0
 10
5.393837470286431
 20
2.481989133482456
 30
0.0
 10
5.379581701511228
 20
2.472037430173087
 30
0.0
 10
5.371276227371856
 20
2.454730689384173
 30
0.0
 10
5.369664378981502
 20
2.432255978427216
 30
0.0
 10
5.374689064522005
 20
2.407324344987834
 30
0.0
 10
5.385379536986401
 20
2.38203857693801
 30
0.0
 10
5.396186659100247
 20
2.368154297816214
 30
0.0
 10
5.401682918915018
 20
2.361093064993053
 30
0.0
  0
LINE
  5
16D
330
1F
100
AcDbEntity
  8
0
  6
Continuous
 62
     7
370
    25
100
AcDbLine
 10
5.450497
 20
2.336239
 30
0.0
 11
5.458982
 21
2.336726
 31
0.0
  0
SPLINE
  5
16E
330
1F
100
AcDbEntity
  8
0
  6
Continuous
 62
     7
370
    25
100
AcDbSpline
210
0.0
220
0.0
230
1.0
 70
     8
 71
     3
 72
    10
 73
     6
 74
     0
 42
0.000000001
 43
0.00000001
 40
0.0
 40
0.0
 40
0.0
 40
0.0
 40
0.24551451648625
 40
0.8916772609306481
 40
1.0
 40
1.0
 40
1.0
 40
1.0
 10
5.553130865076245
 20
2.574880099838923
 30
0.0
 10
5.54982047918632
 20
2.575518806335371
 30
0.0
 10
5.537797581863601
 20
2.57783850647955
 30
0.0
 10
5.525795627191584
 20
2.573123232861682
 30
0.0
 10
5.521009803235875
 20
2.564725345950453
 30
0.0
 10
5.520322694509578
 20
2.563519647322055
 30
0.0
  0
SPLINE
  5
16F
330
1F
100
AcDbEntity
  8
0
  6
Continuous
 62
     7
370
    25
100
AcDbSpline
210
0.0
220
0.0
230
1.0
 70
     8
 71
     3
 72
    17
 73
    13
 74
     0
 42
0.000000001
 43
0.00000001
 40
0.0
 40
0.0
 40
0.0
 40
0.0
 40
0.1053210933794376
 40
0.2148605568974252
 40
0.3244000204154139
 40
0.4339394839333992
 40
0.5434789474513878
 40
0.6530184109693752
 40
0.762557874487365
 40
0.8720973380053512
 40
0.98163680152334
 40
1.0
 40
1.0
 40
1.0
 40
1.0
 10
5.599238285437293
 20
2.399359958464878
 30
0.0
 10
5.605531831251406
 20
2.401000263275264
 30
0.0
 10
5.618370994946834
 20
2.404346571158448
 30
0.0
 10
5.628263471497458
 20
2.424817501650944
 30
0.0
 10
5.628707252187673
 20
2.453378811931396
 30
0.0
 10
5.618774741465328
 20
2.486581160808343
 30
0.0
 10
5.599889312285736
 20
2.518925849257398
 30
0.0
 10
5.574751012755027
 20
2.545371139888216
 30
0.0
 10
5.546714501580302
 20
2.562076860413461
 30
0.0
 10
5.520851318355305
 20
2.565145468142911
 30
0.0
 10
5.503687604545306
 20
2.560425193857758
 30
0.0
 10
5.498911343378277
 20
2.551976293315327
 30
0.0
 10
5.498225607597498
 20
2.550763270574825
 30
0.0
  0
SPLINE
  5
170
330
1F
100
AcDbEntity
  8
0
  6
Continuous
 62
     7
370
    25
100
AcDbSpline
210
0.0
220
0.0
230
1.0
 70
     8
 71
     3
 72
    17
 73
    13
 74
     0
 42
0.000000001
 43
0.00000001
 40
0.0
 40
0.0
 40
0.0
 40
0.0
 40
0.1053210933794397
 40
0.2148605568974241
 40
0.3244000204154153
 40
0.4339394839334005
 40
0.5434789474513908
 40
0.6530184109693747
 40
0.7625578744873643
 40
0.8720973380053519
 40
0.9816368015233397
 40
1.0
 40
1.0
 40
1.0
 40
1.0
 10
5.577141198525213
 20
2.386603581717648
 30
0.0
 10
5.583434744339328
 20
2.388243886528035
 30
0.0
 10
5.596273908034754
 20
2.391590194411219
 30
0.0
 10
5.606166384585378
 20
2.412061124903715
 30
0.0
 10
5.606610165275593
 20
2.440622435184167
 30
0.0
 10
5.596677654553247
 20
2.473824784061114
 30
0.0
 10
5.577792225373655
 20
2.506169472510169
 30
0.0
 10
5.552653925842948
 20
2.532614763140987
 30
0.0
 10
5.524617414668222
 20
2.549320483666231
 30
0.0
 10
5.498754231443225
 20
2.552389091395682
 30
0.0
 10
5.481590517633226
 20
2.547668817110528
 30
0.0
 10
5.476814256466197
 20
2.539219916568098
 30
0.0
 10
5.476128520685418
 20
2.538006893827595
 30
0.0
  0
SPLINE
  5
171
330
1F
100
AcDbEntity
  8
0
  6
Continuous
 62
     7
370
    25
100
AcDbSpline
210
0.0
220
0.0
230
1.0
 70
     8
 71
     3
 72
    17
 73
    13
 74
     0
 42
0.000000001
 43
0.00000001
 40
0.0
 40
0.0
 40
0.0
 40
0.0
 40
0.1053210933794379
 40
0.214860556897424
 40
0.3244000204154128
 40
0.4339394839333993
 40
0.5434789474513887
 40
0.6530184109693776
 40
0.7625578744873653
 40
0.8720973380053542
 40
0.9816368015233424
 40
1.0
 40
1.0
 40
1.0
 40
1.0
 10
5.555044111613133
 20
2.373847204970419
 30
0.0
 10
5.561337657427247
 20
2.375487509780806
 30
0.0
 10
5.574176821122674
 20
2.378833817663989
 30
0.0
 10
5.584069297673299
 20
2.399304748156484
 30
0.0
 10
5.584513078363514
 20
2.427866058436937
 30
0.0
 10
5.574580567641168
 20
2.461068407313884
 30
0.0
 10
5.555695138461576
 20
2.493413095762939
 30
0.0
 10
5.530556838930868
 20
2.519858386393756
 30
0.0
 10
5.502520327756143
 20
2.536564106919001
 30
0.0
 10
5.476657144531146
 20
2.539632714648453
 30
0.0
 10
5.459493430721145
 20
2.534912440363298
 30
0.0
 10
5.454717169554117
 20
2.526463539820868
 30
0.0
 10
5.45403143377334
 20
2.525250517080366
 30
0.0
  0
SPLINE
  5
172
330
1F
100
AcDbEntity
  8
0
  6
Continuous
 62
     7
370
    25
100
AcDbSpline
210
0.0
220
0.0
230
1.0
 70
     8
 71
     3
 72
    17
 73
    13
 74
     0
 42
0.000000001
 43
0.00000001
 40
0.0
 40
0.0
 40
0.0
 40
0.0
 40
0.1053210933794392
 40
0.2148605568974256
 40
0.3244000204154133
 40
0.4339394839334005
 40
0.5434789474513888
 40
0.6530184109693767
 40
0.7625578744873625
 40
0.8720973380053522
 40
0.98163680152334
 40
1.0
 40
1.0
 40
1.0
 40
1.0
 10
5.532947024701054
 20
2.361090828223189
 30
0.0
 10
5.539240570515168
 20
2.362731133033576
 30
0.0
 10
5.552079734210595
 20
2.36607744091676
 30
0.0
 10
5.561972210761218
 20
2.386548371409255
 30
0.0
 10
5.562415991451434
 20
2.415109681689708
 30
0.0
 10
5.552483480729087
 20
2.448312030566654
 30
0.0
 10
5.533598051549498
 20
2.480656719015709
 30
0.0
 10
5.508459752018789
 20
2.507102009646527
 30
0.0
 10
5.480423240844062
 20
2.523807730171772
 30
0.0
 10
5.454560057619066
 20
2.526876337901223
 30
0.0
 10
5.437396343809067
 20
2.522156063616069
 30
0.0
 10
5.432620082642037
 20
2.513707163073638
 30
0.0
 10
5.431934346861259
 20
2.512494140333136
 30
0.0
  0
SPLINE
  5
173
330
1F
100
AcDbEntity
  8
0
  6
Continuous
 62
     7
370
    25
100
AcDbSpline
210
0.0
220
0.0
230
1.0
 70
     8
 71
     3
 72
    17
 73
    13
 74
     0
 42
0.000000001
 43
0.00000001
 40
0.0
 40
0.0
 40
0.0
 40
0.0
 40
0.1053210933794357
 40
0.2148605568974239
 40
0.324400020415414
 40
0.433939483933398
 40
0.5434789474513878
 40
0.6530184109693737
 40
0.7625578744873643
 40
0.8720973380053504
 40
0.9816368015233403
 40
1.0
 40
1.0
 40
1.0
 40
1.0
 10
5.510849937788974
 20
2.348334451475959
 30
0.0
 10
5.517143483603087
 20
2.349974756286346
 30
0.0
 10
5.529982647298515
 20
2.353321064169529
 30
0.0
 10
5.539875123849139
 20
2.373791994662025
 30
0.0
 10
5.540318904539354
 20
2.402353304942478
 30
0.0
 10
5.530386393817008
 20
2.435555653819425
 30
0.0
 10
5.511500964637417
 20
2.46790034226848
 30
0.0
 10
5.486362665106709
 20
2.494345632899297
 30
0.0
 10
5.458326153931981
 20
2.511051353424542
 30
0.0
 10
5.432462970706986
 20
2.514119961153994
 30
0.0
 10
5.415299256896987
 20
2.509399686868838
 30
0.0
 10
5.410522995729957
 20
2.500950786326408
 30
0.0
 10
5.409837259949179
 20
2.499737763585906
 30
0.0
  0
SPLINE
  5
174
330
1F
100
AcDbEntity
  8
0
  6
Continuous
 62
     7
370
    25
100
AcDbSpline
210
0.0
220
0.0
230
1.0
 70
     8
 71
     3
 72
    18
 73
    14
 74
     0
 42
0.000000001
 43
0.00000001
 40
0.0
 40
0.0
 40
0.0
 40
0.0
 40
0.0853862286074787
 40
0.1842118485869434
 40
0.2830374685664137
 40
0.3818630885458782
 40
0.4806887085253492
 40
0.5795143285048143
 40
0.6783399484842835
 40
0.7771655684637506
 40
0.8759911884432182
 40
0.9748168084226867
 40
1.0
 40
1.0
 40
1.0
 40
1.0
 10
5.490513911342481
 20
2.336325761819762
 30
0.0
 10
5.496146435217684
 20
2.3378370489758
 30
0.0
 10
5.508298015773264
 20
2.341097492788576
 30
0.0
 10
5.517753126551347
 20
2.361075957923898
 30
0.0
 10
5.518229320374468
 20
2.389585198915211
 30
0.0
 10
5.508284206301864
 20
2.422805854183241
 30
0.0
 10
5.489416777390399
 20
2.455129386357101
 30
0.0
 10
5.464219080137447
 20
2.481640995697616
 30
0.0
 10
5.436402159583567
 20
2.498102597659268
 30
0.0
 10
5.409720011597428
 20
2.502081360933394
 30
0.0
 10
5.389021809343328
 20
2.492152027748926
 30
0.0
 10
5.377377875054238
 20
2.477233180806559
 30
0.0
 10
5.37646978657828
 20
2.464544752935122
 30
0.0
 10
5.376285375762854
 20
2.461968039991179
 30
0.0
  0
SPLINE
  5
175
330
1F
100
AcDbEntity
  8
0
  6
Continuous
 62
     7
370
    25
100
AcDbSpline
210
0.0
220
0.0
230
1.0
 70
     8
 71
     3
 72
     9
 73
     5
 74
     0
 42
0.000000001
 43
0.00000001
 40
0.0
 40
0.0
 40
0.0
 40
0.0
 40
0.1085247436559864
 40
1.0
 40
1.0
 40
1.0
 40
1.0
 10
5.415055602624086
 20
2.349736970618476
 30
0.0
 10
5.416169378582362
 20
2.348297387305038
 30
0.0
 10
5.426432254317008
 20
2.335032363450193
 30
0.0
 10
5.438578987818215
 20
2.329794976299957
 30
0.0
 10
5.449407500179947
 20
2.325125975247628
 30
0.0
  0
SPLINE
  5
176
330
1F
100
AcDbEntity
  8
0
  6
Continuous
 62
     7
370
    25
100
AcDbSpline
210
0.0
220
0.0
230
1.0
 70
     8
 71
     3
 72
    16
 73
    12
 74
     0
 42
0.000000001
 43
0.00000001
 40
0.0
 40
0.0
 40
0.0
 40
0.0
 40
0.0415731421638138
 40
0.1665731421638127
 40
0.2915731421638117
 40
0.4165731421638116
 40
0.5415731421638145
 40
0.6665731421638116
 40
0.791573142163812
 40
0.9165731421638125
 40
1.0
 40
1.0
 40
1.0
 40
1.0
 10
5.613362023741874
 20
2.405778260133582
 30
0.0
 10
5.615456687096554
 20
2.406479353424293
 30
0.0
 10
5.623849477215466
 20
2.409288458204573
 30
0.0
 10
5.630795431080484
 20
2.426785892238555
 30
0.0
 10
5.63153253168388
 20
2.45487093204539
 30
0.0
 10
5.621514479081535
 20
2.48821157232518
 30
0.0
 10
5.602677897508759
 20
2.520479365636481
 30
0.0
 10
5.577429749430793
 20
2.547093945415474
 30
0.0
 10
5.549783784838282
 20
2.563199404485768
 30
0.0
 10
5.525496509266574
 20
2.567912161412803
 30
0.0
 10
5.51447548102703
 20
2.561516434101367
 30
0.0
 10
5.510064102543017
 20
2.558956421257007
 30
0.0
  0
SPLINE
  5
177
330
1F
100
AcDbEntity
  8
0
  6
Continuous
 62
     7
370
    25
100
AcDbSpline
210
0.0
220
0.0
230
1.0
 70
     8
 71
     3
 72
    16
 73
    12
 74
     0
 42
0.000000001
 43
0.00000001
 40
0.0
 40
0.0
 40
0.0
 40
0.0
 40
0.0415731421638125
 40
0.1665731421638124
 40
0.2915731421638136
 40
0.4165731421638108
 40
0.5415731421638121
 40
0.6665731421638116
 40
0.791573142163814
 40
0.916573142163811
 40
1.0
 40
1.0
 40
1.0
 40
1.0
 10
5.591264936829794
 20
2.393021883386352
 30
0.0
 10
5.593359600184474
 20
2.393722976677063
 30
0.0
 10
5.601752390303385
 20
2.396532081457344
 30
0.0
 10
5.608698344168404
 20
2.414029515491326
 30
0.0
 10
5.6094354447718
 20
2.44211455529816
 30
0.0
 10
5.599417392169456
 20
2.47545519557795
 30
0.0
 10
5.580580810596679
 20
2.50772298888925
 30
0.0
 10
5.555332662518712
 20
2.534337568668245
 30
0.0
 10
5.527686697926202
 20
2.550443027738539
 30
0.0
 10
5.503399422354494
 20
2.555155784665573
 30
0.0
 10
5.492378394114951
 20
2.548760057354137
 30
0.0
 10
5.487967015630938
 20
2.546200044509777
 30
0.0
  0
SPLINE
  5
178
330
1F
100
AcDbEntity
  8
0
  6
Continuous
 62
     7
370
    25
100
AcDbSpline
210
0.0
220
0.0
230
1.0
 70
     8
 71
     3
 72
    16
 73
    12
 74
     0
 42
0.000000001
 43
0.00000001
 40
0.0
 40
0.0
 40
0.0
 40
0.0
 40
0.0415731421638181
 40
0.1665731421638133
 40
0.2915731421638161
 40
0.4165731421638115
 40
0.541573142163815
 40
0.6665731421638119
 40
0.7915731421638131
 40
0.9165731421638127
 40
0.9999999999999999
 40
0.9999999999999999
 40
0.9999999999999999
 40
0.9999999999999999
 10
5.569167849917714
 20
2.380265506639122
 30
0.0
 10
5.571262513272395
 20
2.380966599929834
 30
0.0
 10
5.579655303391305
 20
2.383775704710114
 30
0.0
 10
5.586601257256325
 20
2.401273138744097
 30
0.0
 10
5.58733835785972
 20
2.429358178550931
 30
0.0
 10
5.577320305257375
 20
2.462698818830721
 30
0.0
 10
5.558483723684598
 20
2.494966612142021
 30
0.0
 10
5.533235575606633
 20
2.521581191921015
 30
0.0
 10
5.505589611014122
 20
2.537686650991309
 30
0.0
 10
5.481302335442415
 20
2.542399407918343
 30
0.0
 10
5.470281307202871
 20
2.536003680606907
 30
0.0
 10
5.465869928718857
 20
2.533443667762548
 30
0.0
  0
SPLINE
  5
179
330
1F
100
AcDbEntity
  8
0
  6
Continuous
 62
     7
370
    25
100
AcDbSpline
210
0.0
220
0.0
230
1.0
 70
     8
 71
     3
 72
    16
 73
    12
 74
     0
 42
0.000000001
 43
0.00000001
 40
0.0
 40
0.0
 40
0.0
 40
0.0
 40
0.0415731421638154
 40
0.1665731421638115
 40
0.2915731421638141
 40
0.416573142163811
 40
0.5415731421638111
 40
0.6665731421638112
 40
0.7915731421638112
 40
0.9165731421638121
 40
1.0
 40
1.0
 40
1.0
 40
1.0
 10
5.547070763005634
 20
2.367509129891892
 30
0.0
 10
5.549165426360315
 20
2.368210223182604
 30
0.0
 10
5.557558216479226
 20
2.371019327962885
 30
0.0
 10
5.564504170344245
 20
2.388516761996866
 30
0.0
 10
5.565241270947641
 20
2.416601801803701
 30
0.0
 10
5.555223218345296
 20
2.44994244208349
 30
0.0
 10
5.536386636772519
 20
2.482210235394791
 30
0.0
 10
5.511138488694553
 20
2.508824815173785
 30
0.0
 10
5.483492524102044
 20
2.52493027424408
 30
0.0
 10
5.459205248530335
 20
2.529643031171114
 30
0.0
 10
5.44818422029079
 20
2.523247303859678
 30
0.0
 10
5.443772841806778
 20
2.520687291015318
 30
0.0
  0
SPLINE
  5
17A
330
1F
100
AcDbEntity
  8
0
  6
Continuous
 62
     7
370
    25
100
AcDbSpline
210
0.0
220
0.0
230
1.0
 70
     8
 71
     3
 72
    16
 73
    12
 74
     0
 42
0.000000001
 43
0.00000001
 40
0.0
 40
0.0
 40
0.0
 40
0.0
 40
0.0415731421638152
 40
0.1665731421638136
 40
0.2915731421638132
 40
0.4165731421638109
 40
0.5415731421638119
 40
0.666573142163811
 40
0.7915731421638101
 40
0.9165731421638124
 40
1.0
 40
1.0
 40
1.0
 40
1.0
 10
5.524973676093555
 20
2.354752753144663
 30
0.0
 10
5.527068339448236
 20
2.355453846435374
 30
0.0
 10
5.535461129567147
 20
2.358262951215655
 30
0.0
 10
5.542407083432166
 20
2.375760385249638
 30
0.0
 10
5.54314418403556
 20
2.403845425056471
 30
0.0
 10
5.533126131433216
 20
2.437186065336261
 30
0.0
 10
5.514289549860439
 20
2.469453858647561
 30
0.0
 10
5.489041401782473
 20
2.496068438426555
 30
0.0
 10
5.461395437189963
 20
2.51217389749685
 30
0.0
 10
5.437108161618255
 20
2.516886654423884
 30
0.0
 10
5.426087133378711
 20
2.510490927112448
 30
0.0
 10
5.421675754894697
 20
2.507930914268088
 30
0.0
  0
SPLINE
  5
17B
330
1F
100
AcDbEntity
  8
0
  6
Continuous
 62
     7
370
    25
100
AcDbSpline
210
0.0
220
0.0
230
1.0
 70
     8
 71
     3
 72
    16
 73
    12
 74
     0
 42
0.000000001
 43
0.00000001
 40
0.0
 40
0.0
 40
0.0
 40
0.0
 40
0.0415731421638123
 40
0.1665731421638127
 40
0.2915731421638149
 40
0.4165731421638106
 40
0.5415731421638127
 40
0.6665731421638104
 40
0.791573142163813
 40
0.9165731421638107
 40
1.0
 40
1.0
 40
1.0
 40
1.0
 10
5.502876589181475
 20
2.341996376397433
 30
0.0
 10
5.504971252536155
 20
2.342697469688144
 30
0.0
 10
5.513364042655066
 20
2.345506574468425
 30
0.0
 10
5.520309996520085
 20
2.363004008502407
 30
0.0
 10
5.521047097123481
 20
2.391089048309242
 30
0.0
 10
5.511029044521136
 20
2.424429688589032
 30
0.0
 10
5.49219246294836
 20
2.456697481900332
 30
0.0
 10
5.466944314870393
 20
2.483312061679325
 30
0.0
 10
5.439298350277882
 20
2.499417520749621
 30
0.0
 10
5.415011074706175
 20
2.504130277676655
 30
0.0
 10
5.403990046466631
 20
2.497734550365218
 30
0.0
 10
5.399578667982617
 20
2.495174537520858
 30
0.0
  0
SPLINE
  5
17C
330
1F
100
AcDbEntity
  8
0
  6
Continuous
 62
     7
370
    25
100
AcDbSpline
210
0.0
220
0.0
230
1.0
 70
     8
 71
     3
 72
    10
 73
     6
 74
     0
 42
0.000000001
 43
0.00000001
 40
0.0
 40
0.0
 40
0.0
 40
0.0
 40
0.1361887773435271
 40
0.5655125727915599
 40
1.0
 40
1.0
 40
1.0
 40
1.0
 10
5.411085269303456
 20
2.352999108425459
 30
0.0
 10
5.41288032901091
 20
2.351482981798201
 30
0.0
 10
5.420334165173316
 20
2.345187392055911
 30
0.0
 10
5.434341450600275
 20
2.337149296587389
 30
0.0
 10
5.445090668947843
 20
2.336543434493926
 30
0.0
 10
5.45049740609346
 20
2.336238692606661
 30
0.0
  0
ARC
  5
17D
330
1F
100
AcDbEntity
  8
0
  6
Continuous
 62
     7
370
    25
100
AcDbCircle
 10
5.409748
 20
2.429094
 30
0.0
 40
0.0238031845513756
100
AcDbArc
 50
100.546778
 51
189.251879
  0
ARC
  5
17E
330
1F
100
AcDbEntity
  8
0
  6
Continuous
 62
     7
370
    25
100
AcDbCircle
 10
5.469245
 20
2.429092
 30
0.0
 40
0.0830785959333847
100
AcDbArc
 50
182.639287
 51
219.772072
  0
ARC
  5
17F
330
1F
100
AcDbEntity
  8
0
  6
Continuous
 62
     7
370
    25
100
AcDbCircle
 10
5.44662
 20
2.403165
 30
0.0
 40
0.0494045551392989
100
AcDbArc
 50
213.434915
 51
266.570462
  0
ARC
  5
180
330
1F
100
AcDbEntity
  8
0
  6
Continuous
 62
     7
370
    25
100
AcDbCircle
 10
5.439308
 20
2.37725
 30
0.0
 40
0.0238031845513743
100
AcDbArc
 50
280.546778
 51
9.251879
  0
ARC
  5
181
330
1F
100
AcDbEntity
  8
0
  6
Continuous
 62
     7
370
    25
100
AcDbCircle
 10
5.379811
 20
2.377252
 30
0.0
 40
0.0830785959333956
100
AcDbArc
 50
2.639287
 51
39.772072
  0
ARC
  5
182
330
1F
100
AcDbEntity
  8
0
  6
Continuous
 62
     7
370
    25
100
AcDbCircle
 10
5.402436
 20
2.403179
 30
0.0
 40
0.0494045551393053
100
AcDbArc
 50
33.434915
 51
86.570462
  0
LINE
  5
183
330
1F
100
AcDbEntity
  8
0
  6
Continuous
 62
     7
370
    25
100
AcDbLine
 10
5.401683
 20
2.361093
 30
0.0
 11
5.411085
 21
2.352999
 31
0.0
  0
SPLINE
  5
184
330
1F
100
AcDbEntity
  8
0
  6
Continuous
 62
     7
370
    25
100
AcDbSpline
210
0.0
220
0.0
230
1.0
 70
     8
 71
     3
 72
     9
 73
     5
 74
     0
 42
0.000000001
 43
0.00000001
 40
0.0
 40
0.0
 40
0.0
 40
0.0
 40
0.5034798652442006
 40
1.0
 40
1.0
 40
1.0
 40
1.0
 10
5.429329099155784
 20
2.444190238492857
 30
0.0
 10
5.425799771694709
 20
2.446053804860672
 30
0.0
 10
5.418789903565494
 20
2.449755177043475
 30
0.0
 10
5.409836781810789
 20
2.451585836059145
 30
0.0
 10
5.405391376590657
 20
2.452494795120298
 30
0.0
  0
SPLINE
  5
185
330
1F
100
AcDbEntity
  8
0
  6
Continuous
 62
     7
370
    25
100
AcDbSpline
210
0.0
220
0.0
230
1.0
 70
     8
 71
     3
 72
    10
 73
     6
 74
     0
 42
0.000000001
 43
0.00000001
 40
0.0
 40
0.0
 40
0.0
 40
0.0
 40
0.4391249614226835
 40
0.7513736477008299
 40
1.0
 40
1.0
 40
1.0
 40
1.0
 10
5.443664653821643
 20
2.353849401359316
 30
0.0
 10
5.448674437602522
 20
2.359057922184121
 30
0.0
 10
5.457246529476859
 20
2.367970067097453
 30
0.0
 10
5.462334086937887
 20
2.376668747125161
 30
0.0
 10
5.462657797193817
 20
2.379723351497872
 30
0.0
 10
5.462801292437137
 20
2.381077405593114
 30
0.0
  0
SPLINE
  5
186
330
1F
100
AcDbEntity
  8
0
  6
Continuous
 62
     7
370
    25
100
AcDbSpline
210
0.0
220
0.0
230
1.0
 70
     8
 71
     3
 72
    10
 73
     6
 74
     0
 42
0.000000001
 43
0.00000001
 40
0.0
 40
0.0
 40
0.0
 40
0.0
 40
0.4391249614226791
 40
0.7513736477008304
 40
0.9999999999999999
 40
0.9999999999999999
 40
0.9999999999999999
 40
0.9999999999999999
 10
5.405391376590657
 20
2.452494795120298
 30
0.0
 10
5.404921931460267
 20
2.449907356007125
 30
0.0
 10
5.404118677874148
 20
2.445480065974762
 30
0.0
 10
5.395577681104519
 20
2.434787757869766
 30
0.0
 10
5.389118141755649
 20
2.428191014758242
 30
0.0
 10
5.386254737975164
 20
2.425266790886499
 30
0.0
  0
LINE
  5
187
330
1F
100
AcDbEntity
  8
0
  6
Continuous
 62
     7
370
    25
100
AcDbLine
 10
5.42361
 20
2.446831
 30
0.0
 11
5.386255
 21
2.425267
 31
0.0
  0
ARC
  5
188
330
1F
100
AcDbEntity
  8
0
  6
Continuous
 62
     7
370
    25
100
AcDbCircle
 10
5.506663
 20
2.450515
 30
0.0
 40
0.0741149700447702
100
AcDbArc
 50
200.529307
 51
232.784101
  0
ARC
  5
189
330
1F
100
AcDbEntity
  8
0
  6
Continuous
 62
     7
370
    25
100
AcDbCircle
 10
5.496575
 20
2.448219
 30
0.0
 40
0.0638774685983682
100
AcDbArc
 50
186.198412
 51
201.773883
  0
SPLINE
  5
18A
330
1F
100
AcDbEntity
  8
0
  6
Continuous
 62
     7
370
    25
100
AcDbSpline
210
0.0
220
0.0
230
1.0
 70
     8
 71
     3
 72
    10
 73
     6
 74
     0
 42
0.000000001
 43
0.00000001
 40
0.0
 40
0.0
 40
0.0
 40
0.0
 40
0.439124961422681
 40
0.7513736477008237
 40
1.0
 40
1.0
 40
1.0
 40
1.0
 10
5.405391376590657
 20
2.375944094006008
 30
0.0
 10
5.413140774827169
 20
2.374091543339646
 30
0.0
 10
5.426400539431735
 20
2.370921699049252
 30
0.0
 10
5.438302374008091
 20
2.362057288119758
 30
0.0
 10
5.44201770906642
 20
2.356370332105493
 30
0.0
 10
5.443664653821643
 20
2.353849401359316
 30
0.0
  0
LINE
  5
18B
330
1F
100
AcDbEntity
  8
0
  6
Continuous
 62
     7
370
    25
100
AcDbLine
 10
5.446823
 20
2.399862
 30
0.0
 11
5.461895
 21
2.391162
 31
0.0
  0
LINE
  5
18C
330
1F
100
AcDbEntity
  8
0
  6
Continuous
 62
     7
370
    25
100
AcDbLine
 10
5.446823
 20
2.399862
 30
0.0
 11
5.405391
 21
2.375944
 31
0.0
  0
LINE
  5
18D
330
1F
100
AcDbEntity
  8
0
  6
Continuous
 62
     7
370
    25
100
AcDbLine
 10
5.42971
 20
2.44397
 30
0.0
 11
5.437255
 21
2.424524
 31
0.0
  0
LINE
  5
18E
330
1F
100
AcDbEntity
  8
0
  6
Continuous
 62
     7
370
    25
100
AcDbLine
 10
5.437255
 20
2.424524
 30
0.0
 11
5.446823
 21
2.399862
 31
0.0
  0
SPLINE
  5
18F
330
1F
100
AcDbEntity
  8
0
  6
Continuous
 62
     7
370
    25
100
AcDbSpline
210
0.0
220
0.0
230
1.0
 70
     8
 71
     3
 72
    11
 73
     7
 74
     0
 42
0.000000001
 43
0.00000001
 40
0.0
 40
0.0
 40
0.0
 40
0.0
 40
0.1809422465198825
 40
0.5062925772655639
 40
0.8439745107797024
 40
1.0
 40
1.0
 40
1.0
 40
1.0
 10
5.386254737975164
 20
2.425266790886499
 30
0.0
 10
5.388357748708834
 20
2.423042493935479
 30
0.0
 10
5.39424216069578
 20
2.416818712272571
 30
0.0
 10
5.402068721573726
 20
2.40354436976
 30
0.0
 10
5.405149969952941
 20
2.388124111046878
 30
0.0
 10
5.405333405710535
 20
2.37886897757362
 30
0.0
 10
5.405391376590657
 20
2.375944094006008
 30
0.0
  0
LINE
  5
190
330
1F
100
AcDbEntity
  8
0
  6
Continuous
 62
     7
370
    25
100
AcDbLine
 10
7.262459
 20
2.366222
 30
0.0
 11
7.270943
 21
2.376506
 31
0.0
  0
SPLINE
  5
191
330
1F
100
AcDbEntity
  8
0
  6
Continuous
 62
     7
370
    25
100
AcDbSpline
210
0.0
220
0.0
230
1.0
 70
     8
 71
     3
 72
    10
 73
     6
 74
     0
 42
0.000000001
 43
0.00000001
 40
0.0
 40
0.0
 40
0.0
 40
0.0
 40
0.261649972272159
 40
0.6246378710562017
 40
0.9999999999999999
 40
0.9999999999999999
 40
0.9999999999999999
 40
0.9999999999999999
 10
7.270942949426628
 20
2.376505637219096
 30
0.0
 10
7.268972993303764
 20
2.373547076794019
 30
0.0
 10
7.264270110333916
 20
2.366484095402268
 30
0.0
 10
7.254884133865787
 20
2.354945008285908
 30
0.0
 10
7.246873840776545
 20
2.347113873392897
 30
0.0
 10
7.242801570776511
 20
2.343132683774022
 30
0.0
  0
SPLINE
  5
192
330
1F
100
AcDbEntity
  8
0
  6
Continuous
 62
     7
370
    25
100
AcDbSpline
210
0.0
220
0.0
230
1.0
 70
     8
 71
     3
 72
    17
 73
    13
 74
     0
 42
0.000000001
 43
0.00000001
 40
0.0
 40
0.0
 40
0.0
 40
0.0
 40
0.0390777261869346
 40
0.1567216644424617
 40
0.2743656026979905
 40
0.3920095409535196
 40
0.509653479209048
 40
0.6272974174645779
 40
0.7449413557201068
 40
0.8625852939756354
 40
0.9802292322311643
 40
1.0
 40
1.0
 40
1.0
 40
1.0
 10
7.125990215376147
 20
2.573368329500502
 30
0.0
 10
7.124337934363023
 20
2.574830230935382
 30
0.0
 10
7.117711442604909
 20
2.580693203233957
 30
0.0
 10
7.099089737739808
 20
2.577962381150382
 30
0.0
 10
7.074399017664621
 20
2.56455817177914
 30
0.0
 10
7.050541325818286
 20
2.539225755701114
 30
0.0
 10
7.03199191371033
 20
2.506733656008263
 30
0.0
 10
7.021653084965961
 20
2.47173014061566
 30
0.0
 10
7.021203933652324
 20
2.439097457916263
 30
0.0
 10
7.031475641192031
 20
2.415160609807129
 30
0.0
 10
7.044147214789205
 20
2.40265361591225
 30
0.0
 10
7.053855352136877
 20
2.402741200846969
 30
0.0
 10
7.055252126430706
 20
2.402753802274098
 30
0.0
  0
SPLINE
  5
193
330
1F
100
AcDbEntity
  8
0
  6
Continuous
 62
     7
370
    25
100
AcDbSpline
210
0.0
220
0.0
230
1.0
 70
     8
 71
     3
 72
    17
 73
    13
 74
     0
 42
0.000000001
 43
0.00000001
 40
0.0
 40
0.0
 40
0.0
 40
0.0
 40
0.1052713557196599
 40
0.2148113302334002
 40
0.3243513047471429
 40
0.4338912792608819
 40
0.5434312537746234
 40
0.6529712282883633
 40
0.7625112028021029
 40
0.8720511773158425
 40
0.9815911518295859
 40
1.0
 40
1.0
 40
1.0
 40
1.0
 10
7.157943634615187
 20
2.553182664926689
 30
0.0
 10
7.153379051084162
 20
2.55781162703754
 30
0.0
 10
7.14406479599969
 20
2.567257249750711
 30
0.0
 10
7.121395242656283
 20
2.565591756143757
 30
0.0
 10
7.096440259135942
 20
2.551698433155666
 30
0.0
 10
7.072653376489003
 20
2.526497074718254
 30
0.0
 10
7.054084991028619
 20
2.493969858079796
 30
0.0
 10
7.043751246494566
 20
2.458975752829009
 30
0.0
 10
7.043300731692097
 20
2.426340546507953
 30
0.0
 10
7.053572808976813
 20
2.402404382743637
 30
0.0
 10
7.066244299110185
 20
2.38989723436927
 30
0.0
 10
7.07595243872305
 20
2.38998482349653
 30
0.0
 10
7.077349213342787
 20
2.389997425526868
 30
0.0
  0
SPLINE
  5
194
330
1F
100
AcDbEntity
  8
0
  6
Continuous
 62
     7
370
    25
100
AcDbSpline
210
0.0
220
0.0
230
1.0
 70
     8
 71
     3
 72
    17
 73
    13
 74
     0
 42
0.000000001
 43
0.00000001
 40
0.0
 40
0.0
 40
0.0
 40
0.0
 40
0.1052713557196639
 40
0.2148113302334007
 40
0.3243513047471431
 40
0.4338912792608834
 40
0.543431253774624
 40
0.6529712282883654
 40
0.7625112028021056
 40
0.8720511773158472
 40
0.981591151829588
 40
1.0
 40
1.0
 40
1.0
 40
1.0
 10
7.180040721527267
 20
2.540426288179459
 30
0.0
 10
7.175476137996242
 20
2.54505525029031
 30
0.0
 10
7.166161882911769
 20
2.554500873003481
 30
0.0
 10
7.143492329568362
 20
2.552835379396527
 30
0.0
 10
7.118537346048021
 20
2.538942056408436
 30
0.0
 10
7.094750463401082
 20
2.513740697971024
 30
0.0
 10
7.076182077940699
 20
2.481213481332566
 30
0.0
 10
7.065848333406644
 20
2.446219376081779
 30
0.0
 10
7.065397818604176
 20
2.413584169760723
 30
0.0
 10
7.075669895888892
 20
2.389648005996406
 30
0.0
 10
7.088341386022265
 20
2.377140857622041
 30
0.0
 10
7.098049525635129
 20
2.3772284467493
 30
0.0
 10
7.099446300254865
 20
2.377241048779638
 30
0.0
  0
SPLINE
  5
195
330
1F
100
AcDbEntity
  8
0
  6
Continuous
 62
     7
370
    25
100
AcDbSpline
210
0.0
220
0.0
230
1.0
 70
     8
 71
     3
 72
    17
 73
    13
 74
     0
 42
0.000000001
 43
0.00000001
 40
0.0
 40
0.0
 40
0.0
 40
0.0
 40
0.1052713557196603
 40
0.2148113302334019
 40
0.3243513047471422
 40
0.4338912792608837
 40
0.5434312537746245
 40
0.6529712282883665
 40
0.7625112028021054
 40
0.8720511773158468
 40
0.9815911518295877
 40
1.0
 40
1.0
 40
1.0
 40
1.0
 10
7.202137808439346
 20
2.527669911432229
 30
0.0
 10
7.197573224908321
 20
2.53229887354308
 30
0.0
 10
7.18825896982385
 20
2.541744496256251
 30
0.0
 10
7.165589416480443
 20
2.540079002649298
 30
0.0
 10
7.140634432960101
 20
2.526185679661206
 30
0.0
 10
7.116847550313162
 20
2.500984321223795
 30
0.0
 10
7.098279164852778
 20
2.468457104585337
 30
0.0
 10
7.087945420318724
 20
2.433462999334549
 30
0.0
 10
7.087494905516256
 20
2.400827793013494
 30
0.0
 10
7.097766982800972
 20
2.376891629249176
 30
0.0
 10
7.110438472934343
 20
2.364384480874811
 30
0.0
 10
7.120146612547209
 20
2.36447207000207
 30
0.0
 10
7.121543387166945
 20
2.364484672032408
 30
0.0
  0
SPLINE
  5
196
330
1F
100
AcDbEntity
  8
0
  6
Continuous
 62
     7
370
    25
100
AcDbSpline
210
0.0
220
0.0
230
1.0
 70
     8
 71
     3
 72
    17
 73
    13
 74
     0
 42
0.000000001
 43
0.00000001
 40
0.0
 40
0.0
 40
0.0
 40
0.0
 40
0.1052713557196594
 40
0.2148113302334002
 40
0.3243513047471388
 40
0.4338912792608813
 40
0.543431253774622
 40
0.6529712282883631
 40
0.7625112028021062
 40
0.8720511773158444
 40
0.9815911518295853
 40
1.0
 40
1.0
 40
1.0
 40
1.0
 10
7.224234895351426
 20
2.514913534684999
 30
0.0
 10
7.2196703118204
 20
2.519542496795851
 30
0.0
 10
7.210356056735929
 20
2.528988119509021
 30
0.0
 10
7.187686503392522
 20
2.527322625902068
 30
0.0
 10
7.162731519872181
 20
2.513429302913976
 30
0.0
 10
7.138944637225242
 20
2.488227944476565
 30
0.0
 10
7.120376251764857
 20
2.455700727838106
 30
0.0
 10
7.110042507230803
 20
2.420706622587319
 30
0.0
 10
7.109591992428336
 20
2.388071416266263
 30
0.0
 10
7.119864069713051
 20
2.364135252501947
 30
0.0
 10
7.132535559846424
 20
2.35162810412758
 30
0.0
 10
7.142243699459287
 20
2.351715693254841
 30
0.0
 10
7.143640474079024
 20
2.351728295285178
 30
0.0
  0
SPLINE
  5
197
330
1F
100
AcDbEntity
  8
0
  6
Continuous
 62
     7
370
    25
100
AcDbSpline
210
0.0
220
0.0
230
1.0
 70
     8
 71
     3
 72
    17
 73
    13
 74
     0
 42
0.000000001
 43
0.00000001
 40
0.0
 40
0.0
 40
0.0
 40
0.0
 40
0.1052713557196636
 40
0.2148113302334023
 40
0.3243513047471457
 40
0.4338912792608846
 40
0.5434312537746274
 40
0.6529712282883654
 40
0.7625112028021073
 40
0.8720511773158474
 40
0.9815911518295884
 40
1.0
 40
1.0
 40
1.0
 40
1.0
 10
7.246331982263506
 20
2.502157157937769
 30
0.0
 10
7.24176739873248
 20
2.506786120048621
 30
0.0
 10
7.232453143648009
 20
2.516231742761792
 30
0.0
 10
7.209783590304601
 20
2.514566249154838
 30
0.0
 10
7.184828606784259
 20
2.500672926166747
 30
0.0
 10
7.161041724137321
 20
2.475471567729334
 30
0.0
 10
7.142473338676937
 20
2.442944351090876
 30
0.0
 10
7.132139594142882
 20
2.40795024584009
 30
0.0
 10
7.131689079340414
 20
2.375315039519034
 30
0.0
 10
7.141961156625131
 20
2.351378875754716
 30
0.0
 10
7.154632646758503
 20
2.33887172738035
 30
0.0
 10
7.164340786371366
 20
2.338959316507611
 30
0.0
 10
7.165737560991104
 20
2.338971918537948
 30
0.0
  0
LWPOLYLINE
  5
198
330
1F
100
AcDbEntity
  8
0
  6
Continuous
 62
     7
370
    25
100
AcDbPolyline
 90
       14
 70
   128
 43
0.0
 10
7.270347
 20
2.484662
 10
7.26904
 20
2.48894
 10
7.253367
 20
2.500754
 10
7.231549
 20
2.499776
 10
7.20712
 20
2.486032
 10
7.184009
 20
2.461494
 10
7.165943
 20
2.429777
 10
7.155884
 20
2.395587
 10
7.155573
 20
2.364009
 10
7.165269
 20
2.339727
 10
7.183704
 20
2.326319
 10
7.208283
 20
2.325703
 10
7.242802
 20
2.343133
 10
7.242802
 20
2.343133
  0
ARC
  5
199
330
1F
100
AcDbEntity
  8
0
  6
Continuous
 62
     7
370
    25
100
AcDbCircle
 10
7.140935
 20
2.458424
 30
0.0
 40
0.153846629177982
100
AcDbArc
 50
311.462402
 51
338.213191
  0
LWPOLYLINE
  5
19A
330
1F
100
AcDbEntity
  8
0
  6
Continuous
 62
     7
370
    25
100
AcDbPolyline
 90
       17
 70
   128
 43
0.0
 10
7.213644
 20
2.334717
 10
7.199723
 20
2.337813
 10
7.18955
 20
2.347572
 10
7.184163
 20
2.363
 10
7.18411
 20
2.382523
 10
7.189398
 20
2.404152
 10
7.199486
 20
2.42568
 10
7.213347
 20
2.444914
 10
7.229567
 20
2.459893
 10
7.246493
 20
2.469088
 10
7.262399
 20
2.471564
 10
7.275663
 20
2.467067
 10
7.284934
 20
2.456056
 10
7.289266
 20
2.439653
 10
7.288217
 20
2.419531
 10
7.281895
 20
2.397742
 10
7.270943
 20
2.376506
  0
SPLINE
  5
19B
330
1F
100
AcDbEntity
  8
0
  6
Continuous
 62
     7
370
    25
100
AcDbSpline
210
0.0
220
0.0
230
1.0
 70
     8
 71
     3
 72
    21
 73
    17
 74
     0
 42
0.000000001
 43
0.00000001
 40
0.0
 40
0.0
 40
0.0
 40
0.0
 40
0.0780905404521424
 40
0.1558462096654606
 40
0.2314004643706928
 40
0.3070109015320264
 40
0.3803891730845538
 40
0.4534287417184947
 40
0.5250453033426584
 40
0.5955307083653275
 40
0.6653829711928441
 40
0.7333304846853297
 40
0.8013547735182515
 40
0.8668221427801344
 40
0.9322687300889129
 40
1.0
 40
1.0
 40
1.0
 40
1.0
 10
7.283792908398527
 20
2.40132306621715
 30
0.0
 10
7.286997614541643
 20
2.41089851036592
 30
0.0
 10
7.293393284268149
 20
2.430008336829007
 30
0.0
 10
7.293528767802171
 20
2.455569255301882
 30
0.0
 10
7.286676567701471
 20
2.474925164867769
 30
0.0
 10
7.273365472307722
 20
2.485990919987195
 30
0.0
 10
7.25548329907335
 20
2.487549486654319
 30
0.0
 10
7.235288759620466
 20
2.479965243355179
 30
0.0
 10
7.215299900679009
 20
2.463959314732065
 30
0.0
 10
7.197731999176654
 20
2.441897836717537
 30
0.0
 10
7.184840440658157
 20
2.416274314945552
 30
0.0
 10
7.177848613470519
 20
2.390136630072482
 30
0.0
 10
7.17753537783803
 20
2.366550591764407
 30
0.0
 10
7.183932850671598
 20
2.348212829999872
 30
0.0
 10
7.195902861782097
 20
2.336008680667752
 30
0.0
 10
7.207663068464639
 20
2.335152243154704
 30
0.0
 10
7.213644045705549
 20
2.334716678252481
 30
0.0
  0
SPLINE
  5
19C
330
1F
100
AcDbEntity
  8
0
  6
Continuous
 62
     7
370
    25
100
AcDbSpline
210
0.0
220
0.0
230
1.0
 70
     8
 71
     3
 72
    12
 73
     8
 74
     0
 42
0.000000001
 43
0.00000001
 40
0.0
 40
0.0
 40
0.0
 40
0.0
 40
0.0565320997162744
 40
0.3137598794610159
 40
0.5709876592057622
 40
0.828215438950504
 40
0.9999999999999999
 40
0.9999999999999999
 40
0.9999999999999999
 40
0.9999999999999999
 10
7.034568586967847
 20
2.514880306130904
 30
0.0
 10
7.03320117234636
 20
2.512578102377998
 30
0.0
 10
7.02561185850583
 20
2.499800597639419
 30
0.0
 10
7.01919268764571
 20
2.472956687959602
 30
0.0
 10
7.018596497270575
 20
2.441256279964902
 30
0.0
 10
7.026774706450317
 20
2.417788065757027
 30
0.0
 10
7.037814918890618
 20
2.411445420761067
 30
0.0
 10
7.042235626333296
 20
2.408905707137663
 30
0.0
  0
SPLINE
  5
19D
330
1F
100
AcDbEntity
  8
0
  6
Continuous
 62
     7
370
    25
100
AcDbSpline
210
0.0
220
0.0
230
1.0
 70
     8
 71
     3
 72
    16
 73
    12
 74
     0
 42
0.000000001
 43
0.00000001
 40
0.0
 40
0.0
 40
0.0
 40
0.0
 40
0.0415211854159213
 40
0.1665211854159181
 40
0.2915211854159183
 40
0.4165211854159185
 40
0.5415211854159178
 40
0.6665211854159193
 40
0.7915211854159182
 40
0.9165211854159171
 40
1.0
 40
1.0
 40
1.0
 40
1.0
 10
7.145325166424216
 20
2.562206499846675
 30
0.0
 10
7.143672890422461
 20
2.563668411141583
 30
0.0
 10
7.137046418762497
 20
2.569531422983909
 30
0.0
 10
7.118424325753629
 20
2.566799837215104
 30
0.0
 10
7.093735284592906
 20
2.553398931161566
 30
0.0
 10
7.069871376379744
 20
2.528054284183732
 30
0.0
 10
7.05134515082463
 20
2.495607804772411
 30
0.0
 10
7.040919792235719
 20
2.460434039153497
 30
0.0
 10
7.040793573747403
 20
2.428436737077809
 30
0.0
 10
7.048856207616649
 20
2.405041534951203
 30
0.0
 10
7.059907549404064
 20
2.398691859242606
 30
0.0
 10
7.064332713245376
 20
2.396149330390433
 30
0.0
  0
SPLINE
  5
19E
330
1F
100
AcDbEntity
  8
0
  6
Continuous
 62
     7
370
    25
100
AcDbSpline
210
0.0
220
0.0
230
1.0
 70
     8
 71
     3
 72
    16
 73
    12
 74
     0
 42
0.000000001
 43
0.00000001
 40
0.0
 40
0.0
 40
0.0
 40
0.0
 40
0.0415211854159198
 40
0.1665211854159195
 40
0.291521185415922
 40
0.4165211854159191
 40
0.541521185415921
 40
0.6665211854159196
 40
0.791521185415919
 40
0.9165211854159182
 40
1.0
 40
1.0
 40
1.0
 40
1.0
 10
7.167422253336296
 20
2.549450123099446
 30
0.0
 10
7.16576997733454
 20
2.550912034394353
 30
0.0
 10
7.159143505674576
 20
2.556775046236679
 30
0.0
 10
7.140521412665708
 20
2.554043460467873
 30
0.0
 10
7.115832371504984
 20
2.540642554414336
 30
0.0
 10
7.091968463291824
 20
2.515297907436501
 30
0.0
 10
7.073442237736709
 20
2.482851428025181
 30
0.0
 10
7.0630168791478
 20
2.447677662406267
 30
0.0
 10
7.062890660659483
 20
2.415680360330579
 30
0.0
 10
7.070953294528729
 20
2.392285158203973
 30
0.0
 10
7.082004636316143
 20
2.385935482495377
 30
0.0
 10
7.086429800157456
 20
2.383392953643203
 30
0.0
  0
SPLINE
  5
19F
330
1F
100
AcDbEntity
  8
0
  6
Continuous
 62
     7
370
    25
100
AcDbSpline
210
0.0
220
0.0
230
1.0
 70
     8
 71
     3
 72
    16
 73
    12
 74
     0
 42
0.000000001
 43
0.00000001
 40
0.0
 40
0.0
 40
0.0
 40
0.0
 40
0.0415211854159206
 40
0.1665211854159178
 40
0.2915211854159191
 40
0.4165211854159188
 40
0.5415211854159183
 40
0.6665211854159183
 40
0.7915211854159183
 40
0.916521185415919
 40
0.9999999999999999
 40
0.9999999999999999
 40
0.9999999999999999
 40
0.9999999999999999
 10
7.189519340248375
 20
2.536693746352216
 30
0.0
 10
7.187867064246619
 20
2.538155657647124
 30
0.0
 10
7.181240592586656
 20
2.544018669489449
 30
0.0
 10
7.162618499577787
 20
2.541287083720643
 30
0.0
 10
7.137929458417064
 20
2.527886177667106
 30
0.0
 10
7.114065550203904
 20
2.502541530689272
 30
0.0
 10
7.095539324648788
 20
2.47009505127795
 30
0.0
 10
7.085113966059879
 20
2.434921285659037
 30
0.0
 10
7.084987747571562
 20
2.402923983583349
 30
0.0
 10
7.093050381440809
 20
2.379528781456743
 30
0.0
 10
7.104101723228224
 20
2.373179105748147
 30
0.0
 10
7.108526887069535
 20
2.370636576895973
 30
0.0
  0
SPLINE
  5
1A0
330
1F
100
AcDbEntity
  8
0
  6
Continuous
 62
     7
370
    25
100
AcDbSpline
210
0.0
220
0.0
230
1.0
 70
     8
 71
     3
 72
    16
 73
    12
 74
     0
 42
0.000000001
 43
0.00000001
 40
0.0
 40
0.0
 40
0.0
 40
0.0
 40
0.0415211854159193
 40
0.166521185415919
 40
0.2915211854159188
 40
0.4165211854159193
 40
0.5415211854159189
 40
0.6665211854159193
 40
0.7915211854159167
 40
0.9165211854159179
 40
0.9999999999999999
 40
0.9999999999999999
 40
0.9999999999999999
 40
0.9999999999999999
 10
7.211616427160456
 20
2.523937369604986
 30
0.0
 10
7.209964151158699
 20
2.525399280899893
 30
0.0
 10
7.203337679498736
 20
2.531262292742219
 30
0.0
 10
7.184715586489866
 20
2.528530706973414
 30
0.0
 10
7.160026545329144
 20
2.515129800919877
 30
0.0
 10
7.136162637115984
 20
2.489785153942042
 30
0.0
 10
7.117636411560869
 20
2.457338674530721
 30
0.0
 10
7.10721105297196
 20
2.422164908911808
 30
0.0
 10
7.107084834483643
 20
2.39016760683612
 30
0.0
 10
7.115147468352887
 20
2.366772404709513
 30
0.0
 10
7.126198810140303
 20
2.360422729000916
 30
0.0
 10
7.130623973981614
 20
2.357880200148743
 30
0.0
  0
SPLINE
  5
1A1
330
1F
100
AcDbEntity
  8
0
  6
Continuous
 62
     7
370
    25
100
AcDbSpline
210
0.0
220
0.0
230
1.0
 70
     8
 71
     3
 72
    16
 73
    12
 74
     0
 42
0.000000001
 43
0.00000001
 40
0.0
 40
0.0
 40
0.0
 40
0.0
 40
0.0415211854159196
 40
0.1665211854159184
 40
0.2915211854159174
 40
0.4165211854159194
 40
0.541521185415919
 40
0.6665211854159183
 40
0.7915211854159205
 40
0.9165211854159158
 40
1.0
 40
1.0
 40
1.0
 40
1.0
 10
7.233713514072535
 20
2.511180992857756
 30
0.0
 10
7.232061238070779
 20
2.512642904152663
 30
0.0
 10
7.225434766410816
 20
2.518505915994989
 30
0.0
 10
7.206812673401947
 20
2.515774330226184
 30
0.0
 10
7.182123632241223
 20
2.502373424172647
 30
0.0
 10
7.158259724028063
 20
2.477028777194812
 30
0.0
 10
7.139733498472948
 20
2.444582297783491
 30
0.0
 10
7.129308139884039
 20
2.409408532164577
 30
0.0
 10
7.129181921395721
 20
2.37741123008889
 30
0.0
 10
7.137244555264968
 20
2.354016027962283
 30
0.0
 10
7.148295897052383
 20
2.347666352253687
 30
0.0
 10
7.152721060893694
 20
2.345123823401513
 30
0.0
  0
SPLINE
  5
1A2
330
1F
100
AcDbEntity
  8
0
  6
Continuous
 62
     7
370
    25
100
AcDbSpline
210
0.0
220
0.0
230
1.0
 70
     8
 71
     3
 72
    16
 73
    12
 74
     0
 42
0.000000001
 43
0.00000001
 40
0.0
 40
0.0
 40
0.0
 40
0.0
 40
0.04152118541592
 40
0.1665211854159177
 40
0.2915211854159203
 40
0.416521185415918
 40
0.5415211854159203
 40
0.6665211854159179
 40
0.7915211854159179
 40
0.9165211854159152
 40
1.0
 40
1.0
 40
1.0
 40
1.0
 10
7.255810600984614
 20
2.498424616110526
 30
0.0
 10
7.254158324982858
 20
2.499886527405434
 30
0.0
 10
7.247531853322895
 20
2.505749539247759
 30
0.0
 10
7.228909760314026
 20
2.503017953478954
 30
0.0
 10
7.204220719153303
 20
2.489617047425416
 30
0.0
 10
7.180356810940141
 20
2.464272400447582
 30
0.0
 10
7.161830585385028
 20
2.43182592103626
 30
0.0
 10
7.151405226796117
 20
2.396652155417347
 30
0.0
 10
7.1512790083078
 20
2.36465485334166
 30
0.0
 10
7.159341642177046
 20
2.341259651215053
 30
0.0
 10
7.170392983964462
 20
2.334909975506457
 30
0.0
 10
7.174818147805774
 20
2.332367446654283
 30
0.0
  0
SPLINE
  5
1A3
330
1F
100
AcDbEntity
  8
0
  6
Continuous
 62
     7
370
    25
100
AcDbSpline
210
0.0
220
0.0
230
1.0
 70
     8
 71
     3
 72
    10
 73
     6
 74
     0
 42
0.000000001
 43
0.00000001
 40
0.0
 40
0.0
 40
0.0
 40
0.0
 40
0.1361887773435271
 40
0.5655125727915599
 40
1.0
 40
1.0
 40
1.0
 40
1.0
 10
7.223046396093987
 20
2.337478444372823
 30
0.0
 10
7.224841455801442
 20
2.33803484956871
 30
0.0
 10
7.232295291963849
 20
2.340345275875333
 30
0.0
 10
7.246302577390808
 20
2.348479647920128
 30
0.0
 10
7.257051795738376
 20
2.360284569159816
 30
0.0
 10
7.262458532883992
 20
2.366222313105832
 30
0.0
  0
ARC
  5
1A4
330
1F
100
AcDbEntity
  8
0
  6
Continuous
 62
     7
370
    25
100
AcDbCircle
 10
7.281206
 20
2.377252
 30
0.0
 40
0.0830785959333756
100
AcDbArc
 50
140.227928
 51
177.360713
  0
ARC
  5
1A5
330
1F
100
AcDbEntity
  8
0
  6
Continuous
 62
     7
370
    25
100
AcDbCircle
 10
7.221709
 20
2.37725
 30
0.0
 40
0.0238031845513736
100
AcDbArc
 50
170.748121
 51
259.453222
  0
ARC
  5
1A6
330
1F
100
AcDbEntity
  8
0
  6
Continuous
 62
     7
370
    25
100
AcDbCircle
 10
7.214397
 20
2.403165
 30
0.0
 40
0.0494045551392992
100
AcDbArc
 50
273.429538
 51
326.565085
  0
ARC
  5
1A7
330
1F
100
AcDbEntity
  8
0
  6
Continuous
 62
     7
370
    25
100
AcDbCircle
 10
7.191772
 20
2.429092
 30
0.0
 40
0.0830785959333856
100
AcDbArc
 50
320.227928
 51
357.360713
  0
ARC
  5
1A8
330
1F
100
AcDbEntity
  8
0
  6
Continuous
 62
     7
370
    25
100
AcDbCircle
 10
7.251269
 20
2.429094
 30
0.0
 40
0.023803184551376
100
AcDbArc
 50
350.748121
 51
79.453222
  0
ARC
  5
1A9
330
1F
100
AcDbEntity
  8
0
  6
Continuous
 62
     7
370
    25
100
AcDbCircle
 10
7.258581
 20
2.403179
 30
0.0
 40
0.049404555139301
100
AcDbArc
 50
93.429538
 51
146.565085
  0
LINE
  5
1AA
330
1F
100
AcDbEntity
  8
0
  6
Continuous
 62
     7
370
    25
100
AcDbLine
 10
7.213644
 20
2.334717
 30
0.0
 11
7.223046
 21
2.337478
 31
0.0
  0
SPLINE
  5
1AB
330
1F
100
AcDbEntity
  8
0
  6
Continuous
 62
     7
370
    25
100
AcDbSpline
210
0.0
220
0.0
230
1.0
 70
     8
 71
     3
 72
     9
 73
     5
 74
     0
 42
0.000000001
 43
0.00000001
 40
0.0
 40
0.0
 40
0.0
 40
0.0
 40
0.8790684237937527
 40
1.0
 40
1.0
 40
1.0
 40
1.0
 10
7.255625780612176
 20
2.452494795120289
 30
0.0
 10
7.247439558527665
 20
2.450888270222504
 30
0.0
 10
7.238127175255857
 20
2.449060739106266
 30
0.0
 10
7.23241873874232
 20
2.444735239802906
 30
0.0
 10
7.231728408517065
 20
2.444212150354271
 30
0.0
  0
SPLINE
  5
1AC
330
1F
100
AcDbEntity
  8
0
  6
Continuous
 62
     7
370
    25
100
AcDbSpline
210
0.0
220
0.0
230
1.0
 70
     8
 71
     3
 72
    11
 73
     7
 74
     0
 42
0.000000001
 43
0.00000001
 40
0.0
 40
0.0
 40
0.0
 40
0.0
 40
0.1809422465198824
 40
0.5062925772655626
 40
0.8439745107797013
 40
1.0
 40
1.0
 40
1.0
 40
1.0
 10
7.198215864765695
 20
2.381077405593106
 30
0.0
 10
7.198292685330128
 20
2.3801114984649
 30
0.0
 10
7.198507636135161
 20
2.377408803993354
 30
0.0
 10
7.201961140865621
 20
2.370646304748034
 30
0.0
 10
7.209783695725127
 20
2.361520677659625
 30
0.0
 10
7.215534945896223
 20
2.355691565448087
 30
0.0
 10
7.217352503381188
 20
2.353849401359307
 30
0.0
  0
SPLINE
  5
1AD
330
1F
100
AcDbEntity
  8
0
  6
Continuous
 62
     7
370
    25
100
AcDbSpline
210
0.0
220
0.0
230
1.0
 70
     8
 71
     3
 72
    11
 73
     7
 74
     0
 42
0.000000001
 43
0.00000001
 40
0.0
 40
0.0
 40
0.0
 40
0.0
 40
0.1560254892203014
 40
0.4937074227344419
 40
0.8190577534801229
 40
1.0
 40
1.0
 40
1.0
 40
1.0
 10
7.27476241922767
 20
2.42526679088649
 30
0.0
 10
7.272944861742705
 20
2.42710895497527
 30
0.0
 10
7.267193611571607
 20
2.432938067186808
 30
0.0
 10
7.259371056712102
 20
2.442063694275217
 30
0.0
 10
7.255917551981643
 20
2.448826193520537
 30
0.0
 10
7.25570260117661
 20
2.451528887992083
 30
0.0
 10
7.255625780612176
 20
2.452494795120289
 30
0.0
  0
LINE
  5
1AE
330
1F
100
AcDbEntity
  8
0
  6
Continuous
 62
     7
370
    25
100
AcDbLine
 10
7.23739
 20
2.446842
 30
0.0
 11
7.274762
 21
2.425267
 31
0.0
  0
ARC
  5
1AF
330
1F
100
AcDbEntity
  8
0
  6
Continuous
 62
     7
370
    25
100
AcDbCircle
 10
7.164442
 20
2.448219
 30
0.0
 40
0.0638774685978147
100
AcDbArc
 50
338.226117
 51
353.801588
  0
ARC
  5
1B0
330
1F
100
AcDbEntity
  8
0
  6
Continuous
 62
     7
370
    25
100
AcDbCircle
 10
7.154354
 20
2.450515
 30
0.0
 40
0.0741149700447774
100
AcDbArc
 50
307.215899
 51
339.470693
  0
SPLINE
  5
1B1
330
1F
100
AcDbEntity
  8
0
  6
Continuous
 62
     7
370
    25
100
AcDbSpline
210
0.0
220
0.0
230
1.0
 70
     8
 71
     3
 72
    10
 73
     6
 74
     0
 42
0.000000001
 43
0.00000001
 40
0.0
 40
0.0
 40
0.0
 40
0.0
 40
0.439124961422682
 40
0.751373647700825
 40
0.9999999999999999
 40
0.9999999999999999
 40
0.9999999999999999
 40
0.9999999999999999
 10
7.217352503381188
 20
2.353849401359307
 30
0.0
 10
7.220561562967212
 20
2.358323033737303
 30
0.0
 10
7.22605248928356
 20
2.365977732908666
 30
0.0
 10
7.241407763168518
 20
2.372848515760872
 30
0.0
 10
7.251258927319786
 20
2.374993333036325
 30
0.0
 10
7.255625780612176
 20
2.375944094005999
 30
0.0
  0
LINE
  5
1B2
330
1F
100
AcDbEntity
  8
0
  6
Continuous
 62
     7
370
    25
100
AcDbLine
 10
7.199122
 20
2.391162
 30
0.0
 11
7.214194
 21
2.399862
 31
0.0
  0
LINE
  5
1B3
330
1F
100
AcDbEntity
  8
0
  6
Continuous
 62
     7
370
    25
100
AcDbLine
 10
7.214194
 20
2.399862
 30
0.0
 11
7.255626
 21
2.375944
 31
0.0
  0
LINE
  5
1B4
330
1F
100
AcDbEntity
  8
0
  6
Continuous
 62
     7
370
    25
100
AcDbLine
 10
7.214194
 20
2.399862
 30
0.0
 11
7.223762
 21
2.424524
 31
0.0
  0
LINE
  5
1B5
330
1F
100
AcDbEntity
  8
0
  6
Continuous
 62
     7
370
    25
100
AcDbLine
 10
7.223762
 20
2.424524
 30
0.0
 11
7.231307
 21
2.44397
 31
0.0
  0
SPLINE
  5
1B6
330
1F
100
AcDbEntity
  8
0
  6
Continuous
 62
     7
370
    25
100
AcDbSpline
210
0.0
220
0.0
230
1.0
 70
     8
 71
     3
 72
    10
 73
     6
 74
     0
 42
0.000000001
 43
0.00000001
 40
0.0
 40
0.0
 40
0.0
 40
0.0
 40
0.439124961422683
 40
0.7513736477008289
 40
1.0
 40
1.0
 40
1.0
 40
1.0
 10
7.255625780612176
 20
2.375944094005999
 30
0.0
 10
7.256095225742566
 20
2.384315706352985
 30
0.0
 10
7.256898479328686
 20
2.398640122997195
 30
0.0
 10
7.265439476098313
 20
2.415206399915752
 30
0.0
 10
7.271899015447184
 20
2.422176890933323
 30
0.0
 10
7.27476241922767
 20
2.42526679088649
 30
0.0
  0
LWPOLYLINE
  5
1B7
330
1F
100
AcDbEntity
  8
0
  6
Continuous
 62
     7
370
    25
100
AcDbPolyline
 90
        9
 70
   128
 43
0.0
 10
5.264259
 20
2.849633
 10
5.264475
 20
2.837238
 10
5.269659
 20
2.787758
 10
5.281724
 20
2.73868
 10
5.30059
 20
2.690321
 10
5.326136
 20
2.642996
 10
5.358195
 20
2.59701
 10
5.396561
 20
2.552663
 10
5.434189
 20
2.516252
  0
LWPOLYLINE
  5
1B8
330
1F
100
AcDbEntity
  8
0
  6
Continuous
 62
     7
370
    25
100
AcDbPolyline
 90
       21
 70
   128
 43
0.0
 10
5.601665
 20
2.400357
 10
5.607526
 20
2.397213
 10
5.672932
 20
2.365095
 10
5.742603
 20
2.336121
 10
5.816086
 20
2.310476
 10
5.892906
 20
2.288328
 10
5.972564
 20
2.269821
 10
6.054543
 20
2.255074
 10
6.138312
 20
2.244182
 10
6.223327
 20
2.237218
 10
6.309037
 20
2.234225
 10
6.394887
 20
2.235223
 10
6.480319
 20
2.240206
 10
6.56478
 20
2.249141
 10
6.647721
 20
2.261971
 10
6.728605
 20
2.278612
 10
6.806907
 20
2.298956
 10
6.88212
 20
2.322871
 10
6.953755
 20
2.350203
 10
7.021348
 20
2.380774
 10
7.059109
 20
2.400226
  0
LWPOLYLINE
  5
1B9
330
1F
100
AcDbEntity
  8
0
  6
Continuous
 62
     7
370
    25
100
AcDbPolyline
 90
        9
 70
   128
 43
0.0
 10
7.225145
 20
2.514749
 10
7.242985
 20
2.531194
 10
7.284413
 20
2.574614
 10
7.319654
 20
2.619817
 10
7.34848
 20
2.66651
 10
7.370704
 20
2.714391
 10
7.386182
 20
2.763149
 10
7.394813
 20
2.812468
 10
7.396759
 20
2.849633
  0
LWPOLYLINE
  5
1BA
330
1F
100
AcDbEntity
  8
0
  6
Continuous
 62
     7
370
    25
100
AcDbPolyline
 90
       40
 70
   128
 43
0.0
 10
5.554783
 20
2.963184
 10
5.617353
 20
2.927899
 10
5.684722
 20
2.895694
 10
5.756437
 20
2.866786
 10
5.832015
 20
2.841367
 10
5.910948
 20
2.819611
 10
5.992705
 20
2.801662
 10
6.076734
 20
2.787643
 10
6.162472
 20
2.777647
 10
6.24934
 20
2.771741
 10
6.336755
 20
2.769965
 10
6.424127
 20
2.772332
 10
6.51087
 20
2.778825
 10
6.596398
 20
2.7894
 10
6.680138
 20
2.803987
 10
6.761524
 20
2.822487
 10
6.84001
 20
2.844776
 10
6.915067
 20
2.870704
 10
6.986191
 20
2.900096
 10
7.052902
 20
2.932754
 10
7.114752
 20
2.968459
 10
7.171324
 20
3.00697
 10
7.222237
 20
3.048029
 10
7.26715
 20
3.091359
 10
7.30576
 20
3.136668
 10
7.337806
 20
3.183651
 10
7.363074
 20
3.231993
 10
7.381393
 20
3.281368
 10
7.392641
 20
3.331443
 10
7.39674
 20
3.381882
 10
7.393665
 20
3.432345
 10
7.383434
 20
3.482493
 10
7.366118
 20
3.531988
 10
7.341833
 20
3.580498
 10
7.310742
 20
3.627695
 10
7.273055
 20
3.673262
 10
7.229025
 20
3.716892
 10
7.178948
 20
3.758292
 10
7.123161
 20
3.797184
 10
7.06204
 20
3.833305
  0
LINE
  5
1BB
330
1F
100
AcDbEntity
  8
0
  6
Continuous
 62
     7
370
    25
100
AcDbLine
 10
7.06204
 20
3.833305
 30
0.0
 11
7.06204
 21
3.960889
 31
0.0
  0
LWPOLYLINE
  5
1BC
330
1F
100
AcDbEntity
  8
0
  6
Continuous
 62
     7
370
    25
100
AcDbPolyline
 90
       20
 70
   128
 43
0.0
 10
5.554783
 20
3.090768
 10
5.49805
 20
3.128449
 10
5.446793
 20
3.16866
 10
5.40135
 20
3.211137
 10
5.36202
 20
3.2556
 10
5.32906
 20
3.301758
 10
5.302689
 20
3.349305
 10
5.28308
 20
3.397929
 10
5.270361
 20
3.447311
 10
5.264616
 20
3.497126
 10
5.265884
 20
3.547046
 10
5.274155
 20
3.596742
 10
5.289376
 20
3.645887
 10
5.311445
 20
3.694159
 10
5.340219
 20
3.74124
 10
5.375507
 20
3.78682
 10
5.417078
 20
3.830598
 10
5.464658
 20
3.872288
 10
5.517934
 20
3.911615
 10
5.576433
 20
3.948249
  0
LINE
  5
1BD
330
1F
100
AcDbEntity
  8
0
  6
Continuous
 62
     7
370
    25
100
AcDbLine
 10
5.554783
 20
3.090768
 30
0.0
 11
5.554783
 21
2.963184
 31
0.0
  0
SPLINE
  5
1BE
330
1F
100
AcDbEntity
  8
0
  6
Continuous
 62
     7
370
    25
100
AcDbSpline
210
0.0
220
0.0
230
1.0
 70
    11
 71
     3
 72
    26
 73
    22
 74
     0
 42
0.000000001
 43
0.00000001
 40
0.0
 40
0.0
 40
0.0
 40
0.0
 40
0.0535906995280631
 40
0.1071779352585824
 40
0.160855152486257
 40
0.2145920195038233
 40
0.2682307603962171
 40
0.3217667016590031
 40
0.3753555895901911
 40
0.4290704096043991
 40
0.482787931392283
 40
0.5363809635306345
 40
0.5899166199002572
 40
0.6435507086887583
 40
0.697286428682405
 40
0.7509681937072422
 40
0.8045240484856854
 40
0.8580787879944667
 40
0.9117586189851151
 40
0.9654948630179873
 40
1.0
 40
1.0
 40
1.0
 40
1.0
 10
7.084461184041579
 20
2.758863424160754
 30
0.0
 10
7.090617953399102
 20
2.763174019780119
 30
0.0
 10
7.10293109417565
 20
2.771794932406505
 30
0.0
 10
7.118808652213909
 20
2.792661638046914
 30
0.0
 10
7.130675147413088
 20
2.816494011058657
 30
0.0
 10
7.137372619402981
 20
2.841161132440432
 30
0.0
 10
7.138312081580649
 20
2.863571204301488
 30
0.0
 10
7.133429446409149
 20
2.881230513026135
 30
0.0
 10
7.123155371256185
 20
2.892249603641891
 30
0.0
 10
7.108397342830332
 20
2.89551844473433
 30
0.0
 10
7.090592784633991
 20
2.890766241474324
 30
0.0
 10
7.071654641183629
 20
2.878613937719888
 30
0.0
 10
7.053742947662372
 20
2.860438777072906
 30
0.0
 10
7.039006933985342
 20
2.838162738837427
 30
0.0
 10
7.029340529173085
 20
2.814130872479209
 30
0.0
 10
7.026057338564011
 20
2.790961579857238
 30
0.0
 10
7.029589531069583
 20
2.771255264211188
 30
0.0
 10
7.039443587735398
 20
2.757208946284388
 30
0.0
 10
7.054314484003209
 20
2.75063711261273
 30
0.0
 10
7.070233055768515
 20
2.751779830157805
 30
0.0
 10
7.080461530747363
 20
2.756872162938966
 30
0.0
 10
7.084461184041579
 20
2.758863424160754
 30
0.0
  0
SPLINE
  5
1BF
330
1F
100
AcDbEntity
  8
0
  6
Continuous
 62
     7
370
    25
100
AcDbSpline
210
0.0
220
0.0
230
1.0
 70
     8
 71
     3
 72
    14
 73
    10
 74
     0
 42
0.000000001
 43
0.00000001
 40
0.0
 40
0.0
 40
0.0
 40
0.0
 40
0.1591858366219192
 40
0.3183613097243213
 40
0.477805613603511
 40
0.6374259704393487
 40
0.79675478268627
 40
0.9557806101460197
 40
1.0
 40
1.0
 40
1.0
 40
1.0
 10
5.633825253349844
 20
2.460214938257444
 30
0.0
 10
5.633170390953375
 20
2.467701972006471
 30
0.0
 10
5.631860708794124
 20
2.482675552074098
 30
0.0
 10
5.621722779897243
 20
2.506868277420013
 30
0.0
 10
5.607032775478081
 20
2.529026980896432
 30
0.0
 10
5.588961566510543
 20
2.547288810783743
 30
0.0
 10
5.570245398782351
 20
2.558828223610703
 30
0.0
 10
5.556156273680159
 20
2.563670809297684
 30
0.0
 10
5.550148840249648
 20
2.561922988466697
 30
0.0
 10
5.54884182282313
 20
2.561542720868071
 30
0.0
  0
SPLINE
  5
1C0
330
1F
100
AcDbEntity
  8
0
  6
Continuous
 62
     7
370
    25
100
AcDbSpline
210
0.0
220
0.0
230
1.0
 70
     8
 71
     3
 72
     9
 73
     5
 74
     0
 42
0.000000001
 43
0.00000001
 40
0.0
 40
0.0
 40
0.0
 40
0.0
 40
0.3750629837156539
 40
1.0
 40
1.0
 40
1.0
 40
1.0
 10
5.629576644707942
 20
2.441004950086723
 30
0.0
 10
5.630660184547755
 20
2.442975111665074
 30
0.0
 10
5.633549138901706
 20
2.448227993617948
 30
0.0
 10
5.633719062071264
 20
2.455604860856105
 30
0.0
 10
5.633825253349845
 20
2.460214938257444
 30
0.0
  0
LINE
  5
1C1
330
1F
100
AcDbEntity
  8
0
  6
Continuous
 62
     7
370
    25
100
AcDbLine
 10
5.554783
 20
2.963184
 30
0.0
 11
5.991535
 21
3.215315
 31
0.0
  0
LINE
  5
1C2
330
1F
100
AcDbEntity
  8
0
  6
Continuous
 62
     7
370
    25
100
AcDbLine
 10
6.747762
 20
3.651876
 30
0.0
 11
7.06204
 21
3.833305
 31
0.0
  0
LWPOLYLINE
  5
1C3
330
1F
100
AcDbEntity
  8
0
  6
Continuous
 62
     7
370
    25
100
AcDbPolyline
 90
       21
 70
   128
 43
0.0
 10
7.018282
 20
2.376168
 10
7.01817
 20
2.376104
 10
6.957375
 20
2.343868
 10
6.892063
 20
2.314724
 10
6.822706
 20
2.288883
 10
6.749802
 20
2.266531
 10
6.673877
 20
2.247828
 10
6.595478
 20
2.23291
 10
6.51517
 20
2.221884
 10
6.433531
 20
2.214829
 10
6.35115
 20
2.211796
 10
6.268621
 20
2.212808
 10
6.186537
 20
2.217856
 10
6.105491
 20
2.226905
 10
6.026066
 20
2.239889
 10
5.948834
 20
2.256714
 10
5.874353
 20
2.27726
 10
5.803158
 20
2.301379
 10
5.735762
 20
2.328896
 10
5.672652
 20
2.359613
 10
5.642735
 20
2.376168
  0
LINE
  5
1C4
330
1F
100
AcDbEntity
  8
0
  6
Continuous
 62
     7
370
    25
100
AcDbLine
 10
5.621105
 20
3.205606
 30
0.0
 11
5.554783
 21
3.090768
 31
0.0
  0
LINE
  5
1C5
330
1F
100
AcDbEntity
  8
0
  6
Continuous
 62
     7
370
    25
100
AcDbLine
 10
5.621105
 20
3.205606
 30
0.0
 11
6.013664
 21
3.432225
 31
0.0
  0
LINE
  5
1C6
330
1F
100
AcDbEntity
  8
0
  6
Continuous
 62
     7
370
    25
100
AcDbLine
 10
6.055258
 20
3.379686
 30
0.0
 11
6.055258
 21
3.409047
 31
0.0
  0
LINE
  5
1C7
330
1F
100
AcDbEntity
  8
0
  6
Continuous
 62
     7
370
    25
100
AcDbLine
 10
5.991535
 20
3.3429
 30
0.0
 11
6.055258
 21
3.379686
 31
0.0
  0
LINE
  5
1C8
330
1F
100
AcDbEntity
  8
0
  6
Continuous
 62
     7
370
    25
100
AcDbLine
 10
5.991535
 20
3.215315
 30
0.0
 11
5.991535
 21
3.3429
 31
0.0
  0
ARC
  5
1C9
330
1F
100
AcDbEntity
  8
0
  6
Continuous
 62
     7
370
    25
100
AcDbCircle
 10
6.399305
 20
2.852015
 30
0.0
 40
1.292916902180513
100
AcDbArc
 50
62.529456
 51
81.953932
  0
LWPOLYLINE
  5
1CA
330
1F
100
AcDbEntity
  8
0
  6
Continuous
 62
     7
370
    25
100
AcDbPolyline
 90
       26
 70
   128
 43
0.0
 10
6.082807
 20
4.132519
 10
6.068758
 20
4.130318
 10
5.989749
 20
4.115443
 10
5.913228
 20
4.096728
 10
5.839754
 20
4.07431
 10
5.769864
 20
4.048352
 10
5.704068
 20
4.019045
 10
5.642847
 20
3.986601
 10
5.586648
 20
3.951259
 10
5.53588
 20
3.913276
 10
5.490916
 20
3.872929
 10
5.452082
 20
3.830514
 10
5.419663
 20
3.786339
 10
5.393896
 20
3.740728
 10
5.374968
 20
3.694014
 10
5.363019
 20
3.646537
 10
5.358134
 20
3.598644
 10
5.36035
 20
3.550686
 10
5.369651
 20
3.503012
 10
5.385969
 20
3.45597
 10
5.409184
 20
3.409905
 10
5.439127
 20
3.365152
 10
5.475579
 20
3.322038
 10
5.518275
 20
3.280878
 10
5.566902
 20
3.241972
 10
5.621105
 20
3.205606
  0
LINE
  5
1CB
330
1F
100
AcDbEntity
  8
0
  6
Continuous
 62
     7
370
    25
100
AcDbLine
 10
7.06204
 20
3.960889
 30
0.0
 11
6.995718
 21
3.999153
 31
0.0
  0
LINE
  5
1CC
330
1F
100
AcDbEntity
  8
0
  6
Continuous
 62
     7
370
    25
100
AcDbLine
 10
6.699369
 20
3.828075
 30
0.0
 11
6.995718
 21
3.999153
 31
0.0
  0
LINE
  5
1CD
330
1F
100
AcDbEntity
  8
0
  6
Continuous
 62
     7
370
    25
100
AcDbLine
 10
6.518334
 20
4.265971
 30
0.0
 11
6.606722
 21
4.316997
 31
0.0
  0
LWPOLYLINE
  5
1CE
330
1F
100
AcDbEntity
  8
0
  6
Continuous
 62
     7
370
    25
100
AcDbPolyline
 90
       13
 70
   128
 43
0.0
 10
5.954858
 20
4.97395
 10
6.000128
 20
4.950644
 10
6.049704
 20
4.930468
 10
6.102941
 20
4.913686
 10
6.159145
 20
4.900518
 10
6.217583
 20
4.891133
 10
6.277493
 20
4.885655
 10
6.338095
 20
4.884156
 10
6.398597
 20
4.886654
 10
6.458212
 20
4.893117
 10
6.516161
 20
4.903461
 10
6.571691
 20
4.917551
 10
6.606722
 20
4.928836
  0
LWPOLYLINE
  5
1CF
330
1F
100
AcDbEntity
  8
0
  6
Continuous
 62
     7
370
    25
100
AcDbPolyline
 90
       27
 70
   128
 43
0.0
 10
6.606722
 20
5.45278
 10
6.58511
 20
5.459979
 10
6.5303
 20
5.474978
 10
6.472885
 20
5.486273
 10
6.413614
 20
5.493717
 10
6.35326
 20
5.497211
 10
6.29261
 20
5.496711
 10
6.232453
 20
5.492223
 10
6.173575
 20
5.483806
 10
6.116742
 20
5.471569
 10
6.062697
 20
5.455672
 10
6.012142
 20
5.436322
 10
5.965738
 20
5.413771
 10
5.92409
 20
5.388314
 10
5.887739
 20
5.360282
 10
5.857161
 20
5.33004
 10
5.832754
 20
5.297984
 10
5.814836
 20
5.26453
 10
5.80364
 20
5.230115
 10
5.799313
 20
5.195188
 10
5.80191
 20
5.160203
 10
5.811399
 20
5.125618
 10
5.827656
 20
5.091883
 10
5.850467
 20
5.059437
 10
5.879537
 20
5.028704
 10
5.914486
 20
5.000084
 10
5.954858
 20
4.97395
  0
ARC
  5
1D0
330
1F
100
AcDbEntity
  8
0
  6
Continuous
 62
     7
370
    25
100
AcDbCircle
 10
6.331655
 20
5.582196
 30
0.0
 40
0.6570026098574181
100
AcDbArc
 50
242.770792
 51
294.750642
  0
LWPOLYLINE
  5
1D1
330
1F
100
AcDbEntity
  8
0
  6
Continuous
 62
     7
370
    25
100
AcDbPolyline
 90
       25
 70
   128
 43
0.0
 10
6.606722
 20
5.35621
 10
6.567207
 20
5.373616
 10
6.520354
 20
5.389425
 10
6.470385
 20
5.401645
 10
6.418118
 20
5.410077
 10
6.364413
 20
5.41458
 10
6.310152
 20
5.415082
 10
6.256224
 20
5.411575
 10
6.203517
 20
5.404115
 10
6.152894
 20
5.392825
 10
6.105188
 20
5.377891
 10
6.061182
 20
5.359558
 10
6.021598
 20
5.338127
 10
5.987086
 20
5.313949
 10
5.958214
 20
5.287423
 10
5.935454
 20
5.258982
 10
5.919181
 20
5.229095
 10
5.909663
 20
5.198252
 10
5.907054
 20
5.16696
 10
5.911399
 20
5.135732
 10
5.922625
 20
5.105081
 10
5.940549
 20
5.07551
 10
5.964876
 20
5.047506
 10
5.995206
 20
5.021527
 10
6.031043
 20
4.998
  0
LWPOLYLINE
  5
1D2
330
1F
100
AcDbEntity
  8
0
  6
Continuous
 62
     7
370
    25
100
AcDbPolyline
 90
       14
 70
   128
 43
0.0
 10
6.11564
 20
5.000182
 10
6.150957
 20
4.9827
 10
6.190484
 20
4.968537
 10
6.233292
 20
4.958022
 10
6.278379
 20
4.951403
 10
6.324688
 20
4.948834
 10
6.371133
 20
4.950377
 10
6.416626
 20
4.955994
 10
6.460101
 20
4.965555
 10
6.500538
 20
4.978834
 10
6.53699
 20
4.995521
 10
6.568602
 20
5.015225
 10
6.594633
 20
5.037484
 10
6.606722
 20
5.051102
  0
LWPOLYLINE
  5
1D3
330
1F
100
AcDbEntity
  8
0
  6
Continuous
 62
     7
370
    25
100
AcDbPolyline
 90
       25
 70
   128
 43
0.0
 10
6.606722
 20
5.197343
 10
6.588684
 20
5.216738
 10
6.561195
 20
5.238405
 10
6.528299
 20
5.257395
 10
6.490767
 20
5.273264
 10
6.449478
 20
5.28564
 10
6.405401
 20
5.294232
 10
6.359569
 20
5.298839
 10
6.313055
 20
5.299354
 10
6.266951
 20
5.295763
 10
6.222336
 20
5.288152
 10
6.180257
 20
5.276698
 10
6.141699
 20
5.261671
 10
6.107567
 20
5.243422
 10
6.078661
 20
5.222379
 10
6.055658
 20
5.199035
 10
6.039096
 20
5.173937
 10
6.029366
 20
5.147675
 10
6.026694
 20
5.120863
 10
6.031143
 20
5.094129
 10
6.042609
 20
5.068101
 10
6.060823
 20
5.043388
 10
6.085358
 20
5.02057
 10
6.11564
 20
5.000182
 10
6.11564
 20
5.000182
  0
LWPOLYLINE
  5
1D4
330
1F
100
AcDbEntity
  8
0
  6
Continuous
 62
     7
370
    25
100
AcDbPolyline
 90
       13
 70
   128
 43
0.0
 10
6.214543
 20
5.059969
 10
6.241188
 20
5.047513
 10
6.271736
 20
5.038527
 10
6.304853
 20
5.033405
 10
6.339092
 20
5.032369
 10
6.372955
 20
5.035465
 10
6.404963
 20
5.042558
 10
6.433717
 20
5.053338
 10
6.457961
 20
5.067333
 10
6.476634
 20
5.083932
 10
6.48892
 20
5.10241
 10
6.494284
 20
5.121959
 10
6.494509
 20
5.126957
  0
ARC
  5
1D5
330
1F
100
AcDbEntity
  8
0
  6
Continuous
 62
     7
370
    25
100
AcDbCircle
 10
6.247786
 20
5.134547
 30
0.0
 40
0.0816520136036977
100
AcDbArc
 50
185.49555
 51
245.975667
  0
LWPOLYLINE
  5
1D6
330
1F
100
AcDbEntity
  8
0
  6
Continuous
 62
     7
370
    25
100
AcDbPolyline
 90
       25
 70
   128
 43
0.0
 10
6.066215
 20
3.637475
 10
6.104035
 20
3.618095
 10
6.146074
 20
3.60187
 10
6.191548
 20
3.5891
 10
6.239611
 20
3.580023
 10
6.289368
 20
3.574809
 10
6.33989
 20
3.573555
 10
6.390238
 20
3.576284
 10
6.439474
 20
3.582945
 10
6.486679
 20
3.593415
 10
6.530975
 20
3.607498
 10
6.571537
 20
3.624931
 10
6.607609
 20
3.645391
 10
6.63852
 20
3.668496
 10
6.663692
 20
3.693815
 10
6.682658
 20
3.720877
 10
6.695064
 20
3.749178
 10
6.700679
 20
3.77819
 10
6.699399
 20
3.807374
 10
6.691247
 20
3.836185
 10
6.676375
 20
3.864087
 10
6.65506
 20
3.890561
 10
6.627699
 20
3.915112
 10
6.594802
 20
3.937283
 10
6.572749
 20
3.949225
  0
LWPOLYLINE
  5
1D7
330
1F
100
AcDbEntity
  8
0
  6
Continuous
 62
     7
370
    25
100
AcDbPolyline
 90
       13
 70
   128
 43
0.0
 10
6.083004
 20
3.946548
 10
6.053408
 20
3.929367
 10
6.022498
 20
3.906262
 10
5.997325
 20
3.880943
 10
5.978359
 20
3.853881
 10
5.965953
 20
3.82558
 10
5.960338
 20
3.796567
 10
5.961618
 20
3.767384
 10
5.969771
 20
3.738572
 10
5.984643
 20
3.71067
 10
6.005958
 20
3.684197
 10
6.033318
 20
3.659646
 10
6.066215
 20
3.637475
  0
ENDSEC
  0
SECTION
  2
OBJECTS
  0
DICTIONARY
  5
C
330
0
100
AcDbDictionary
281
     1
  3
ACAD_GROUP
350
D
  3
ACAD_IMAGE_DICT
350
161A
  3
ACAD_LAYOUT
350
1A
  3
ACAD_MATERIAL
350
160C
  3
ACAD_MLEADERSTYLE
350
1620
  3
ACAD_MLINESTYLE
350
17
  3
ACAD_PLOTSETTINGS
350
19
  3
ACAD_PLOTSTYLENAME
350
E
  3
ACAD_SCALELIST
350
47
  3
ACAD_TABLESTYLE
350
1616
  3
ACAD_VISUALSTYLE
350
15F3
  3
AcDbVariableDictionary
350
161F
  3
DWGPROPS
350
1626
  3
HOST_DOC_SETTINGS
350
1618
  3
MCS_STREAM_DICT
350
1612
  0
DICTIONARY
  5
1627
330
8
100
AcDbDictionary
280
     1
281
     1
  3
ACAD_XREC_ROUNDTRIP
360
1628
  0
DICTIONARY
  5
D
102
{ACAD_REACTORS
330
C
102
}
330
C
100
AcDbDictionary
281
     1
  0
DICTIONARY
  5
161A
102
{ACAD_REACTORS
330
C
102
}
330
C
100
AcDbDictionary
281
     1
  0
DICTIONARY
  5
1A
102
{ACAD_REACTORS
330
C
102
}
330
C
100
AcDbDictionary
281
     1
  3
Layout1
350
1E
  3
Layout2
350
26
  3
Model
350
22
  0
DICTIONARY
  5
160C
102
{ACAD_REACTORS
330
C
102
}
330
C
100
AcDbDictionary
281
     1
  3
ByBlock
350
160E
  3
ByLayer
350
160D
  3
Global
350
160F
  0
DICTIONARY
  5
1620
102
{ACAD_REACTORS
330
C
102
}
330
C
100
AcDbDictionary
281
     1
  0
DICTIONARY
  5
17
102
{ACAD_REACTORS
330
C
102
}
330
C
100
AcDbDictionary
281
     1
  3
Standard
350
18
  0
DICTIONARY
  5
19
102
{ACAD_REACTORS
330
C
102
}
330
C
100
AcDbDictionary
281
     1
  0
ACDBDICTIONARYWDFLT
  5
E
102
{ACAD_REACTORS
330
C
102
}
330
C
100
AcDbDictionary
281
     1
  3
Normal
350
F
100
AcDbDictionaryWithDefault
340
F
  0
DICTIONARY
  5
47
102
{ACAD_REACTORS
330
C
102
}
330
C
100
AcDbDictionary
281
     1
  3
A0
350
48
  3
A1
350
49
  3
A2
350
4A
  3
A3
350
4B
  3
A4
350
4C
  3
A5
350
4D
  3
A6
350
4E
  3
A7
350
4F
  3
A8
350
50
  3
A9
350
51
  3
B1
350
52
  3
B2
350
53
  3
B3
350
54
  3
B4
350
55
  3
B5
350
56
  3
B6
350
57
  3
B7
350
58
  0
DICTIONARY
  5
1616
102
{ACAD_REACTORS
330
C
102
}
330
C
100
AcDbDictionary
281
     1
  3
Standard
350
1617
  0
DICTIONARY
  5
15F3
102
{ACAD_REACTORS
330
C
102
}
330
C
100
AcDbDictionary
281
     1
  3
2dWireframe
350
15F8
  3
Basic
350
15FB
  3
Brighten
350
15FF
  3
ColorChange
350
1603
  3
Conceptual
350
15FD
  3
Dim
350
15FE
  3
EdgeColorOff
350
1606
  3
Facepattern
350
1602
  3
Flat
350
15F4
  3
FlatWithEdges
350
15F5
  3
Gouraud
350
15F6
  3
GouraudWithEdges
350
15F7
  3
Hidden
350
15FA
  3
JitterOff
350
1604
  3
Linepattern
350
1601
  3
OverhangOff
350
1605
  3
Realistic
350
15FC
  3
Shaded
350
160B
  3
Shaded with edges
350
160A
  3
Shades of Gray
350
1607
  3
Sketchy
350
1608
  3
Thicken
350
1600
  3
Wireframe
350
15F9
  3
X-Ray
350
1609
  0
DICTIONARY
  5
161F
102
{ACAD_REACTORS
330
C
102
}
330
C
100
AcDbDictionary
281
     1
  3
DIMASSOC
350
1624
  3
HIDETEXT
350
1625
  3
MSLTSCALE
350
1621
  0
XRECORD
  5
1626
102
{ACAD_REACTORS
330
C
102
}
330
C
100
AcDbXrecord
280
     1
  1
DWGPROPS COOKIE
  2

  3

  4

  6

  7

  8
maika.huard
  9

300
=
301
=
302
=
303
=
304
=
305
=
306
=
307
=
308
=
309
=
 40
0.0
 41
2460726.561036
 42
2460726.579527
  1

 90
        0
  0
DICTIONARY
  5
1618
102
{ACAD_REACTORS
330
C
102
}
330
C
100
AcDbDictionary
281
     1
  3
NCDocParameters
350
1619
  0
DICTIONARY
  5
1612
102
{ACAD_REACTORS
330
C
102
}
330
C
100
AcDbDictionary
281
     1
  3
MC_VERSION_DATA
350
161D
  3
MCS_DOCUMENT_ID
350
1613
  3
MCS_PARAMS_DATA
350
161B
  0
XRECORD
  5
1628
102
{ACAD_REACTORS
330
1627
102
}
330
1627
100
AcDbXrecord
280
     1
102
VTR_0.000_0.000_1.000_1.000_VISUALSTYLE
340
15F8
102
VTR_0.000_0.000_1.000_1.000_GRIDDISPLAY
 70
     3
102
VTR_0.000_0.000_1.000_1.000_GRIDMAJOR
 70
     5
102
VTR_0.000_0.000_1.000_1.000_DEFAULTLIGHTING
280
     1
102
VTR_0.000_0.000_1.000_1.000_DEFAULTLIGHTINGTYPE
 70
     1
102
VTR_0.000_0.000_1.000_1.000_BRIGHTNESS
141
0.0
102
VTR_0.000_0.000_1.000_1.000_CONTRAST
142
0.0
  0
LAYOUT
  5
1E
102
{ACAD_REACTORS
330
1A
102
}
330
1A
100
AcDbPlotSettings
  1

  2
none_device
  4

  6

 40
0.0
 41
0.0
 42
0.0
 43
0.0
 44
0.0
 45
0.0
 46
0.0
 47
0.0
 48
0.0
 49
0.0
140
0.0
141
0.0
142
1.0
143
1.0
 70
   688
 72
     0
 73
     0
 74
     5
  7

 75
    16
147
1.0
148
0.0
149
0.0
100
AcDbLayout
  1
Layout1
 70
     0
 71
     1
 10
0.0
 20
0.0
 11
12.0
 21
9.0
 12
0.0
 22
0.0
 32
0.0
 14
1.000000E+20
 24
1.000000E+20
 34
1.000000E+20
 15
-1.000000E+20
 25
-1.000000E+20
 35
-1.000000E+20
146
0.0
 13
0.0
 23
0.0
 33
0.0
 16
1.0
 26
0.0
 36
0.0
 17
0.0
 27
1.0
 37
0.0
 76
     0
330
1B
  0
LAYOUT
  5
26
102
{ACAD_REACTORS
330
1A
102
}
330
1A
100
AcDbPlotSettings
  1

  2
none_device
  4

  6

 40
0.0
 41
0.0
 42
0.0
 43
0.0
 44
0.0
 45
0.0
 46
0.0
 47
0.0
 48
0.0
 49
0.0
140
0.0
141
0.0
142
1.0
143
1.0
 70
   688
 72
     0
 73
     0
 74
     5
  7

 75
    16
147
1.0
148
0.0
149
0.0
100
AcDbLayout
  1
Layout2
 70
     1
 71
     2
 10
0.0
 20
0.0
 11
0.0
 21
0.0
 12
0.0
 22
0.0
 32
0.0
 14
0.0
 24
0.0
 34
0.0
 15
0.0
 25
0.0
 35
0.0
146
0.0
 13
0.0
 23
0.0
 33
0.0
 16
1.0
 26
0.0
 36
0.0
 17
0.0
 27
1.0
 37
0.0
 76
     0
330
23
  0
LAYOUT
  5
22
102
{ACAD_REACTORS
330
1A
102
}
330
1A
100
AcDbPlotSettings
  1

  2
none_device
  4
Letter_(8.50_x_11.00_Inches)
  6

 40
6.35
 41
6.35
 42
6.350005
 43
6.350005
 44
215.9
 45
279.4
 46
0.0
 47
0.0
 48
0.0
 49
0.0
140
0.0
141
0.0
142
1.0
143
1.0
 70
  1712
 72
     0
 73
     0
 74
     0
  7

 75
     0
147
1.0
148
0.0
149
0.0
100
AcDbLayout
  1
Model
 70
     1
 71
     0
 10
0.0
 20
0.0
 11
11.0
 21
8.5
 12
0.0
 22
0.0
 32
0.0
 14
0.0
 24
0.0
 34
0.0
 15
11.0
 25
8.5
 35
0.0
146
0.0
 13
0.0
 23
0.0
 33
0.0
 16
1.0
 26
0.0
 36
0.0
 17
0.0
 27
1.0
 37
0.0
 76
     0
330
1F
331
29
  0
MATERIAL
  5
160E
102
{ACAD_REACTORS
330
160C
102
}
102
{ACAD_XDICTIONARY
360
165B
102
}
330
160C
100
AcDbMaterial
  1
ByBlock
  0
MATERIAL
  5
160D
102
{ACAD_REACTORS
330
160C
102
}
102
{ACAD_XDICTIONARY
360
1659
102
}
330
160C
100
AcDbMaterial
  1
ByLayer
  0
MATERIAL
  5
160F
102
{ACAD_REACTORS
330
160C
102
}
102
{ACAD_XDICTIONARY
360
165D
102
}
330
160C
100
AcDbMaterial
  1
Global
  0
MLINESTYLE
  5
18
102
{ACAD_REACTORS
330
17
102
}
330
17
100
AcDbMlineStyle
  2
Standard
 70
     0
  3

 62
   256
 51
90.0
 52
90.0
 71
     2
 49
0.5
 62
   256
  6
BYLAYER
 49
-0.5
 62
   256
  6
BYLAYER
  0
ACDBPLACEHOLDER
  5
F
102
{ACAD_REACTORS
330
E
102
}
330
E
  0
SCALE
  5
48
102
{ACAD_REACTORS
330
47
102
}
330
47
100
AcDbScale
 70
     0
300
1:1
140
1.0
141
1.0
290
     1
  0
SCALE
  5
49
102
{ACAD_REACTORS
330
47
102
}
330
47
100
AcDbScale
 70
     0
300
1/128" = 1'-0"
140
0.007812
141
12.0
290
     0
  0
SCALE
  5
4A
102
{ACAD_REACTORS
330
47
102
}
330
47
100
AcDbScale
 70
     0
300
1/64" = 1'-0"
140
0.015625
141
12.0
290
     0
  0
SCALE
  5
4B
102
{ACAD_REACTORS
330
47
102
}
330
47
100
AcDbScale
 70
     0
300
1/32" = 1'-0"
140
0.03125
141
12.0
290
     0
  0
SCALE
  5
4C
102
{ACAD_REACTORS
330
47
102
}
330
47
100
AcDbScale
 70
     0
300
1/16" = 1'-0"
140
0.0625
141
12.0
290
     0
  0
SCALE
  5
4D
102
{ACAD_REACTORS
330
47
102
}
330
47
100
AcDbScale
 70
     0
300
3/32" = 1'-0"
140
0.09375
141
12.0
290
     0
  0
SCALE
  5
4E
102
{ACAD_REACTORS
330
47
102
}
330
47
100
AcDbScale
 70
     0
300
1/8" = 1'-0"
140
0.125
141
12.0
290
     0
  0
SCALE
  5
4F
102
{ACAD_REACTORS
330
47
102
}
330
47
100
AcDbScale
 70
     0
300
3/16" = 1'-0"
140
0.1875
141
12.0
290
     0
  0
SCALE
  5
50
102
{ACAD_REACTORS
330
47
102
}
330
47
100
AcDbScale
 70
     0
300
1/4" = 1'-0"
140
0.25
141
12.0
290
     0
  0
SCALE
  5
51
102
{ACAD_REACTORS
330
47
102
}
330
47
100
AcDbScale
 70
     0
300
3/8" = 1'-0"
140
0.375
141
12.0
290
     0
  0
SCALE
  5
52
102
{ACAD_REACTORS
330
47
102
}
330
47
100
AcDbScale
 70
     0
300
1/2" = 1'-0"
140
0.5
141
12.0
290
     0
  0
SCALE
  5
53
102
{ACAD_REACTORS
330
47
102
}
330
47
100
AcDbScale
 70
     0
300
3/4" = 1'-0"
140
0.75
141
12.0
290
     0
  0
SCALE
  5
54
102
{ACAD_REACTORS
330
47
102
}
330
47
100
AcDbScale
 70
     0
300
1" = 1'-0"
140
1.0
141
12.0
290
     0
  0
SCALE
  5
55
102
{ACAD_REACTORS
330
47
102
}
330
47
100
AcDbScale
 70
     0
300
1-1/2" = 1'-0"
140
1.5
141
12.0
290
     0
  0
SCALE
  5
56
102
{ACAD_REACTORS
330
47
102
}
330
47
100
AcDbScale
 70
     0
300
3" = 1'-0"
140
3.0
141
12.0
290
     0
  0
SCALE
  5
57
102
{ACAD_REACTORS
330
47
102
}
330
47
100
AcDbScale
 70
     0
300
6" = 1'-0"
140
6.0
141
12.0
290
     0
  0
SCALE
  5
58
102
{ACAD_REACTORS
330
47
102
}
330
47
100
AcDbScale
 70
     0
300
1'-0" = 1'-0"
140
12.0
141
12.0
290
     0
  0
TABLESTYLE
  5
1617
102
{ACAD_REACTORS
330
1616
102
}
330
1616
100
AcDbTableStyle
  3
Standard
 70
     0
 71
     8
 40
0.06
 41
0.06
280
     0
281
     0
  7
Standard
140
4.5
170
     2
 62
     0
 63
   257
283
     0
274
    -2
284
     1
 64
     0
275
    -2
285
     1
 65
     0
276
    -2
286
     1
 66
     0
277
    -2
287
     1
 67
     0
278
    -2
288
     1
 68
     0
279
    -2
289
     1
 69
     0
  7
Standard
140
6.0
170
     5
 62
     0
 63
   257
283
     0
274
    -2
284
     1
 64
     0
275
    -2
285
     1
 65
     0
276
    -2
286
     1
 66
     0
277
    -2
287
     1
 67
     0
278
    -2
288
     1
 68
     0
279
    -2
289
     1
 69
     0
  7
Standard
140
4.5
170
     5
 62
     0
 63
   257
283
     0
274
    -2
284
     1
 64
     0
275
    -2
285
     1
 65
     0
276
    -2
286
     1
 66
     0
277
    -2
287
     1
 67
     0
278
    -2
288
     1
 68
     0
279
    -2
289
     1
 69
     0
  0
VISUALSTYLE
  5
15F8
102
{ACAD_REACTORS
330
15F3
102
}
102
{ACAD_XDICTIONARY
360
1631
102
}
330
15F3
100
AcDbVisualStyle
  2
2dWireframe
 70
     4
 71
     0
 72
     2
 73
     0
 90
        0
 40
0.6
 41
30.0
 62
     5
 63
     7
 74
     1
 91
        4
 64
     7
 65
   257
 75
     1
175
     1
 42
1.0
 92
        0
 66
   257
 43
1.0
 76
     1
 77
     6
 78
     2
 67
     7
 79
     5
170
     0
171
     0
290
     0
174
     0
 93
        1
 44
0.0
173
     0
291
     0
 45
0.0
1001
ACAD
1000
AcDbSavedByObjectVersion
1070
     0
  0
VISUALSTYLE
  5
15FB
102
{ACAD_REACTORS
330
15F3
102
}
102
{ACAD_XDICTIONARY
360
1637
102
}
330
15F3
100
AcDbVisualStyle
  2
Basic
 70
     7
 71
     1
 72
     0
 73
     1
 90
        0
 40
0.6
 41
30.0
 62
     5
 63
     7
 74
     0
 91
        4
 64
     7
 65
   257
 75
     1
175
     1
 42
1.0
 92
        8
 66
     7
 43
1.0
 76
     1
 77
     6
 78
     2
 67
     7
 79
     5
170
     0
171
     0
290
     0
174
     0
 93
        1
 44
0.0
173
     0
291
     1
 45
0.0
1001
ACAD
1000
AcDbSavedByObjectVersion
1070
     0
  0
VISUALSTYLE
  5
15FF
102
{ACAD_REACTORS
330
15F3
102
}
102
{ACAD_XDICTIONARY
360
163F
102
}
330
15F3
100
AcDbVisualStyle
  2
Brighten
 70
    12
 71
     2
 72
     2
 73
     0
 90
        0
 40
0.6
 41
30.0
 62
     5
 63
     7
 74
     1
 91
        4
 64
     7
 65
   257
 75
     1
175
     1
 42
1.0
 92
        8
 66
     7
 43
1.0
 76
     1
 77
     6
 78
     2
 67
     7
 79
     5
170
     0
171
     0
290
     0
174
     0
 93
        1
 44
50.0
173
     0
291
     1
 45
0.0
1001
ACAD
1000
AcDbSavedByObjectVersion
1070
     0
  0
VISUALSTYLE
  5
1603
102
{ACAD_REACTORS
330
15F3
102
}
102
{ACAD_XDICTIONARY
360
1647
102
}
330
15F3
100
AcDbVisualStyle
  2
ColorChange
 70
    16
 71
     2
 72
     2
 73
     3
 90
        0
 40
0.6
 41
30.0
 62
     5
 63
     8
 74
     1
 91
        4
 64
     7
 65
   257
 75
     1
175
     1
 42
1.0
 92
        8
 66
     8
 43
1.0
 76
     1
 77
     6
 78
     2
 67
     7
 79
     5
170
     0
171
     0
290
     0
174
     0
 93
        1
 44
0.0
173
     0
291
     1
 45
0.0
1001
ACAD
1000
AcDbSavedByObjectVersion
1070
     0
  0
VISUALSTYLE
  5
15FD
102
{ACAD_REACTORS
330
15F3
102
}
102
{ACAD_XDICTIONARY
360
163B
102
}
330
15F3
100
AcDbVisualStyle
  2
Conceptual
 70
     9
 71
     3
 72
     2
 73
     0
 90
        0
 40
0.6
 41
30.0
 62
     5
 63
     7
 74
     2
 91
        2
 64
     7
 65
   257
 75
     1
175
     1
 42
179.0
 92
        8
 66
     7
 43
1.0
 76
     1
 77
     6
 78
     2
 67
     7
 79
     3
170
     0
171
     0
290
     0
174
     0
 93
        1
 44
0.0
173
     0
291
     0
 45
0.0
1001
ACAD
1000
AcDbSavedByObjectVersion
1070
     0
  0
VISUALSTYLE
  5
15FE
102
{ACAD_REACTORS
330
15F3
102
}
102
{ACAD_XDICTIONARY
360
163D
102
}
330
15F3
100
AcDbVisualStyle
  2
Dim
 70
    11
 71
     2
 72
     2
 73
     0
 90
        0
 40
0.6
 41
30.0
 62
     5
 63
     7
 74
     1
 91
        4
 64
     7
 65
   257
 75
     1
175
     1
 42
1.0
 92
        8
 66
     7
 43
1.0
 76
     1
 77
     6
 78
     2
 67
     7
 79
     5
170
     0
171
     0
290
     0
174
     0
 93
        1
 44
-50.0
173
     0
291
     1
 45
0.0
1001
ACAD
1000
AcDbSavedByObjectVersion
1070
     0
  0
VISUALSTYLE
  5
1606
102
{ACAD_REACTORS
330
15F3
102
}
102
{ACAD_XDICTIONARY
360
164D
102
}
330
15F3
100
AcDbVisualStyle
  2
EdgeColorOff
 70
    22
 71
     2
 72
     2
 73
     0
 90
        0
 40
0.6
 41
30.0
 62
     5
 63
     7
 74
     1
 91
        4
 64
     7
 65
   257
 75
     1
175
     1
 42
1.0
 92
        8
 66
     7
 43
1.0
 76
     1
 77
     6
 78
     2
 67
     7
 79
     5
170
     0
171
     0
290
     0
174
     0
 93
        1
 44
0.0
173
     0
291
     1
 45
0.0
1001
ACAD
1000
AcDbSavedByObjectVersion
1070
     0
  0
VISUALSTYLE
  5
1602
102
{ACAD_REACTORS
330
15F3
102
}
102
{ACAD_XDICTIONARY
360
1645
102
}
330
15F3
100
AcDbVisualStyle
  2
Facepattern
 70
    15
 71
     2
 72
     2
 73
     0
 90
        0
 40
0.6
 41
30.0
 62
     5
 63
     7
 74
     1
 91
        4
 64
     7
 65
   257
 75
     1
175
     1
 42
1.0
 92
        8
 66
     7
 43
1.0
 76
     1
 77
     6
 78
     2
 67
     7
 79
     5
170
     0
171
     0
290
     0
174
     0
 93
        1
 44
0.0
173
     0
291
     1
 45
0.0
1001
ACAD
1000
AcDbSavedByObjectVersion
1070
     0
  0
VISUALSTYLE
  5
15F4
102
{ACAD_REACTORS
330
15F3
102
}
102
{ACAD_XDICTIONARY
360
1629
102
}
330
15F3
100
AcDbVisualStyle
  2
Flat
 70
     0
 71
     2
 72
     1
 73
     1
 90
        2
 40
0.6
 41
30.0
 62
     5
 63
     7
 74
     0
 91
        0
 64
     7
 65
   257
 75
     1
175
     1
 42
1.0
 92
        8
 66
     7
 43
1.0
 76
     1
 77
     6
 78
     2
 67
     7
 79
     5
170
     0
171
     0
290
     0
174
     0
 93
       13
 44
0.0
173
     0
291
     1
 45
0.0
1001
ACAD
1000
AcDbSavedByObjectVersion
1070
     0
  0
VISUALSTYLE
  5
15F5
102
{ACAD_REACTORS
330
15F3
102
}
102
{ACAD_XDICTIONARY
360
162B
102
}
330
15F3
100
AcDbVisualStyle
  2
FlatWithEdges
 70
     1
 71
     2
 72
     1
 73
     1
 90
        2
 40
0.6
 41
30.0
 62
     5
 63
     7
 74
     1
 91
        0
 64
     7
 65
   257
 75
     1
175
     1
 42
1.0
 92
        0
 66
   257
 43
1.0
 76
     1
 77
     6
 78
     2
 67
     7
 79
     5
170
     0
171
     0
290
     0
174
     0
 93
       13
 44
0.0
173
     0
291
     1
 45
0.0
1001
ACAD
1000
AcDbSavedByObjectVersion
1070
     0
  0
VISUALSTYLE
  5
15F6
102
{ACAD_REACTORS
330
15F3
102
}
102
{ACAD_XDICTIONARY
360
162D
102
}
330
15F3
100
AcDbVisualStyle
  2
Gouraud
 70
     2
 71
     2
 72
     2
 73
     1
 90
        2
 40
0.6
 41
30.0
 62
     5
 63
     7
 74
     0
 91
        0
 64
     7
 65
   257
 75
     1
175
     1
 42
1.0
 92
        0
 66
     7
 43
1.0
 76
     1
 77
     6
 78
     2
 67
     7
 79
     5
170
     0
171
     0
290
     0
174
     0
 93
       13
 44
0.0
173
     0
291
     1
 45
0.0
1001
ACAD
1000
AcDbSavedByObjectVersion
1070
     0
  0
VISUALSTYLE
  5
15F7
102
{ACAD_REACTORS
330
15F3
102
}
102
{ACAD_XDICTIONARY
360
162F
102
}
330
15F3
100
AcDbVisualStyle
  2
GouraudWithEdges
 70
     3
 71
     2
 72
     2
 73
     1
 90
        2
 40
0.6
 41
30.0
 62
     5
 63
     7
 74
     1
 91
        0
 64
     7
 65
   257
 75
     1
175
     1
 42
1.0
 92
        0
 66
   257
 43
1.0
 76
     1
 77
     6
 78
     2
 67
     7
 79
     5
170
     0
171
     0
290
     0
174
     0
 93
       13
 44
0.0
173
     0
291
     1
 45
0.0
1001
ACAD
1000
AcDbSavedByObjectVersion
1070
     0
  0
VISUALSTYLE
  5
15FA
102
{ACAD_REACTORS
330
15F3
102
}
102
{ACAD_XDICTIONARY
360
1635
102
}
330
15F3
100
AcDbVisualStyle
  2
Hidden
 70
     6
 71
     1
 72
     2
 73
     2
 90
        0
 40
0.6
 41
30.0
 62
     5
 63
     7
 74
     2
 91
        2
 64
     7
 65
   257
 75
     2
175
     1
 42
40.0
 92
        0
 66
   257
 43
1.0
 76
     1
 77
     6
 78
     2
 67
     7
 79
     3
170
     0
171
     0
290
     0
174
     0
 93
        1
 44
0.0
173
     0
291
     0
 45
0.0
1001
ACAD
1000
AcDbSavedByObjectVersion
1070
     0
  0
VISUALSTYLE
  5
1604
102
{ACAD_REACTORS
330
15F3
102
}
102
{ACAD_XDICTIONARY
360
1649
102
}
330
15F3
100
AcDbVisualStyle
  2
JitterOff
 70
    20
 71
     2
 72
     2
 73
     0
 90
        0
 40
0.6
 41
30.0
 62
     5
 63
     7
 74
     1
 91
        4
 64
     7
 65
   257
 75
     1
175
     1
 42
1.0
 92
       10
 66
     7
 43
1.0
 76
     1
 77
     6
 78
     2
 67
     7
 79
     5
170
     0
171
     0
290
     0
174
     0
 93
        1
 44
0.0
173
     0
291
     1
 45
0.0
1001
ACAD
1000
AcDbSavedByObjectVersion
1070
     0
  0
VISUALSTYLE
  5
1601
102
{ACAD_REACTORS
330
15F3
102
}
102
{ACAD_XDICTIONARY
360
1643
102
}
330
15F3
100
AcDbVisualStyle
  2
Linepattern
 70
    14
 71
     2
 72
     2
 73
     0
 90
        0
 40
0.6
 41
30.0
 62
     5
 63
     7
 74
     1
 91
        4
 64
     7
 65
   257
 75
     7
175
     7
 42
1.0
 92
        8
 66
     7
 43
1.0
 76
     1
 77
     6
 78
     2
 67
     7
 79
     5
170
     0
171
     0
290
     0
174
     0
 93
        1
 44
0.0
173
     0
291
     1
 45
0.0
1001
ACAD
1000
AcDbSavedByObjectVersion
1070
     0
  0
VISUALSTYLE
  5
1605
102
{ACAD_REACTORS
330
15F3
102
}
102
{ACAD_XDICTIONARY
360
164B
102
}
330
15F3
100
AcDbVisualStyle
  2
OverhangOff
 70
    21
 71
     2
 72
     2
 73
     0
 90
        0
 40
0.6
 41
30.0
 62
     5
 63
     7
 74
     1
 91
        4
 64
     7
 65
   257
 75
     1
175
     1
 42
1.0
 92
        9
 66
     7
 43
1.0
 76
     1
 77
     6
 78
     2
 67
     7
 79
     5
170
     0
171
     0
290
     0
174
     0
 93
        1
 44
0.0
173
     0
291
     1
 45
0.0
1001
ACAD
1000
AcDbSavedByObjectVersion
1070
     0
  0
VISUALSTYLE
  5
15FC
102
{ACAD_REACTORS
330
15F3
102
}
102
{ACAD_XDICTIONARY
360
1639
102
}
330
15F3
100
AcDbVisualStyle
  2
Realistic
 70
     8
 71
     2
 72
     3
 73
     0
 90
        2
 40
0.6
 41
30.0
 62
     5
 63
     7
 74
     0
 91
        0
 64
     7
 65
   257
 75
     1
175
     1
 42
1.0
 92
        8
 66
   257
 43
1.0
 76
     1
 77
     6
 78
     2
 67
     7
 79
     3
170
     0
171
     0
290
     0
174
     0
 93
       13
 44
0.0
173
     0
291
     0
 45
0.0
1001
ACAD
1000
AcDbSavedByObjectVersion
1070
     0
  0
VISUALSTYLE
  5
160B
102
{ACAD_REACTORS
330
15F3
102
}
102
{ACAD_XDICTIONARY
360
1657
102
}
330
15F3
100
AcDbVisualStyle
  2
Shaded
 70
    27
 71
     2
 72
     2
 73
     1
 90
        2
 40
0.6
 41
30.0
 62
     5
 63
     7
 74
     0
 91
        4
 64
     7
 65
   257
 75
     1
175
     1
 42
1.0
 92
        8
 66
   257
 43
1.0
 76
     1
 77
     6
 78
     2
 67
     8
 79
     3
170
     0
171
     0
290
     0
174
     0
 93
        5
 44
0.0
173
     0
291
     0
 45
0.0
1001
ACAD
1000
AcDbSavedByObjectVersion
1070
     0
  0
VISUALSTYLE
  5
160A
102
{ACAD_REACTORS
330
15F3
102
}
102
{ACAD_XDICTIONARY
360
1655
102
}
330
15F3
100
AcDbVisualStyle
  2
Shaded with edges
 70
    26
 71
     2
 72
     2
 73
     1
 90
        2
 40
0.6
 41
30.0
 62
     5
 63
     7
 74
     1
 91
       10
 64
     7
 65
   257
 75
     2
175
     1
 42
1.0
 92
        8
 66
   257
 43
1.0
 76
     1
 77
     6
 78
     2
 67
     7
 79
     3
170
     0
171
     0
290
     0
174
     0
 93
        5
 44
0.0
173
     0
291
     0
 45
0.0
1001
ACAD
1000
AcDbSavedByObjectVersion
1070
     0
  0
VISUALSTYLE
  5
1607
102
{ACAD_REACTORS
330
15F3
102
}
102
{ACAD_XDICTIONARY
360
164F
102
}
330
15F3
100
AcDbVisualStyle
  2
Shades of Gray
 70
    23
 71
     2
 72
     2
 73
     3
 90
        0
 40
0.6
 41
30.0
 62
     5
 63
     7
 74
     2
 91
        2
 64
     7
 65
     7
 75
     1
175
     1
 42
40.0
 92
        8
 66
     7
 43
1.0
 76
     1
 77
     6
 78
     2
 67
     7
 79
     3
170
     0
171
     0
290
     0
174
     0
 93
        1
 44
0.0
173
     0
291
     0
 45
0.0
1001
ACAD
1000
AcDbSavedByObjectVersion
1070
     0
  0
VISUALSTYLE
  5
1608
102
{ACAD_REACTORS
330
15F3
102
}
102
{ACAD_XDICTIONARY
360
1651
102
}
330
15F3
100
AcDbVisualStyle
  2
Sketchy
 70
    24
 71
     1
 72
     2
 73
     2
 90
        0
 40
0.6
 41
30.0
 62
     5
 63
     7
 74
     2
 91
        2
 64
     7
 65
     7
 75
     1
175
     1
 42
40.0
 92
       11
 66
     7
 43
1.0
 76
     1
 77
     6
 78
     2
 67
     7
 79
     6
170
     0
171
     0
290
     0
174
     0
 93
        1
 44
0.0
173
     0
291
     0
 45
0.0
1001
ACAD
1000
AcDbSavedByObjectVersion
1070
     0
  0
VISUALSTYLE
  5
1600
102
{ACAD_REACTORS
330
15F3
102
}
102
{ACAD_XDICTIONARY
360
1641
102
}
330
15F3
100
AcDbVisualStyle
  2
Thicken
 70
    13
 71
     2
 72
     2
 73
     0
 90
        0
 40
0.6
 41
30.0
 62
     5
 63
     7
 74
     1
 91
        4
 64
     7
 65
   257
 75
     1
175
     1
 42
1.0
 92
       12
 66
     7
 43
1.0
 76
     1
 77
     6
 78
     2
 67
     7
 79
     5
170
     0
171
     0
290
     0
174
     0
 93
        1
 44
0.0
173
     0
291
     1
 45
0.0
1001
ACAD
1000
AcDbSavedByObjectVersion
1070
     0
  0
VISUALSTYLE
  5
15F9
102
{ACAD_REACTORS
330
15F3
102
}
102
{ACAD_XDICTIONARY
360
1633
102
}
330
15F3
100
AcDbVisualStyle
  2
Wireframe
 70
     5
 71
     0
 72
     2
 73
     0
 90
        0
 40
0.6
 41
30.0
 62
     5
 63
     7
 74
     1
 91
        4
 64
     7
 65
   257
 75
     1
175
     1
 42
1.0
 92
        0
 66
   257
 43
1.0
 76
     1
 77
     6
 78
     2
 67
     7
 79
     3
170
     0
171
     0
290
     0
174
     0
 93
        1
 44
0.0
173
     0
291
     0
 45
0.0
1001
ACAD
1000
AcDbSavedByObjectVersion
1070
     0
  0
VISUALSTYLE
  5
1609
102
{ACAD_REACTORS
330
15F3
102
}
102
{ACAD_XDICTIONARY
360
1653
102
}
330
15F3
100
AcDbVisualStyle
  2
X-Ray
 70
    25
 71
     2
 72
     2
 73
     1
 90
        1
 40
0.5
 41
30.0
 62
     5
 63
     7
 74
     1
 91
        0
 64
     7
 65
   257
 75
     1
175
     1
 42
1.0
 92
        8
 66
     7
 43
1.0
 76
     1
 77
     6
 78
     2
 67
     7
 79
     3
170
     0
171
     0
290
     0
174
     0
 93
       13
 44
0.0
173
     0
291
     0
 45
0.0
1001
ACAD
1000
AcDbSavedByObjectVersion
1070
     0
  0
DICTIONARYVAR
  5
1624
102
{ACAD_REACTORS
330
161F
102
}
330
161F
100
DictionaryVariables
280
     0
  1
2
  0
DICTIONARYVAR
  5
1625
102
{ACAD_REACTORS
330
161F
102
}
330
161F
100
DictionaryVariables
280
     0
  1
1
  0
DICTIONARYVAR
  5
1621
102
{ACAD_REACTORS
330
161F
102
}
330
161F
100
DictionaryVariables
280
     0
  1
0
  0
CSACDOCUMENTOPTIONS
  5
1619
102
{ACAD_REACTORS
330
1618
102
}
330
1618
  0
XRECORD
  5
161D
102
{ACAD_REACTORS
330
1612
102
}
330
1612
100
AcDbXrecord
280
     1
300
MC_VERSION_DATA
 90
       95
310
0600000002000000570000001C000000E404000000000000000000007801936764E5D8CFFA9993818115C460606066E0646662626666706006F218793899F8DE3171E725E6E53B3BBA2878E6951050AF75FEFFFFFF520036E40F2657000000
  0
XRECORD
  5
1613
102
{ACAD_REACTORS
330
1612
102
}
330
1612
100
AcDbXrecord
280
     1
300
MCS_DOCUMENT_ID
 90
       60
310
0600000002000000150000001C000000E404000000000000000000007801E3DD63C490265819E5D61A37A3EE40D5429FFF40000058250AA815000000
  0
XRECORD
  5
161B
102
{ACAD_REACTORS
330
1612
102
}
330
1612
100
AcDbXrecord
280
     1
300
MCS_PARAMS_DATA
 90
     3313
310
0600000002000000F64B00001C000000E404000000000000000000007801C55C5B6C5CC519DE9D595FD6B9DF494B53970A1A6F4A58DF92A6426A1A1210527090E23EF0543976A2BA75E25CAC160A6DA92AF5A55255A96AD556551F4A49A0CF15A03EC0438190865E482021147221409310B6900B3826B1FB7F7366CEFC73E6
310
1CAFBDDE3D9B07D8FF3F73CEF7DFE6FB67E6ECBA757EA3143929F767A4FCCE8636299AA49C90529036BB402C105929F279912F89C6DEAF6FD8BC69AB14A46C51EAC2B9898909BA39945F872C1FCD848A834A91A13B1AD51D6D5266E8A9FAF627E9AABE92BD45CA6F03BD81A3CFC24D59D990C96408C7E066656E0232E13A03
310
14B0AB01724443F05CC3F08780DFC8F19B03FC710A073DC8486413411B49060E3311A05C24C45064703B01D7CCE196A818E5C59C9268B967CBD6DED68ED59DC52EEB78BEF08E09F8223D745649346F1DE9DB35D0B777C089FC5FC3C8EB60BF1A286CF47FE3467F17CC59C5CD990B0CD948C1A77FB9F5CA0E4F479188EA541E
310
3C25A2E22BC99C8892456878B2821857F6B05492C2AD881B41409C21325211340605C9C6DC6006EC49AC088A0CCBB25B1159B72248E415019155047D5453031360047082A7405D92B72AB0F03379693EAB50870260AC609E2C6F6510BB3D081DFE4EF5EFECD71494A7B3590EC7F12C5B25CB32539229914732934ECE22AF1D
310
D259AC8B7B7649E437DE7BDFA69EADF76EE95186E95A7ED74C032DBFA66A9BF1CEF341B19B78E45DDED9EF56FE29189043E4814BF734E1FF34659991678231F23A51010DA578E8294D435524988818E84710A7B2643B4F7C134F5CC6936D1E4176D01398C4D0A83AE0A6BDC86B0BB5C3E1E8299D70A5A945AC12322FE697C4
310
9C8DC3BBBE34D2BA77FBEEA1BEFEED79D15C120DF70F0FEE1A093EF60C8FF47F4BCAB3B0ED666EDB17F5733E2B445B5E2C298985C507BB8BEBBA3A3A3774178B1D777FA5B36B9D327BBE1ED84C030BC74C9EDAB5B64D88BC405AEF1E1CD9D73A34B88F70838775AD5DDBD1B9B6BBABBB73A0ABA37F5D7BE0E757F57D1DB80F
310
037BFBB60D6D6F1DDED1DA3B3CB47D6FDF2EF8A0AD5933506CEF2FF6F7ADD9D6B56D5DFF9A60D6A95222FF670B51F8295953F8455019945B7EE9315C7A8AFEC352DE9D4B4A5050256AA6D1B42D5F0C265BEED4473538E9811F770DEFDCDD3732B86D706870E4A1D69DC303E45F6349C807B6EFCB8B8692103DC352AE816545
310
9E9E798813B5E9A692C86DD9B1A355A5424F8E0BF018466AF90D150136590E2905AA568F782650907D5A7180140B84AD0159F8156902B8F63BDA8BE1A72E29AF48322EA98B5F578631B6F5489B26184C63434803DB221A328E6B58DEAED6DB808FEB6DC068BD0DF8A4DE065CABB7018B3045EB390B3EAD7704C6EA6DC07518
310
10B79C17773A0DB6C361F03BDD064B22C8C7303844629E5064B47323116EB9039777E096BB70247238880C6E39831B9F221C81B3E543C57019D4736C30574EE2DD4AD73B12B9771099772B997713E97A974DF4CECD5D9582B938116EC00926492C777A7F676A8F441E4C882C98032C983211AE26DE8974E196022EC7174366
310
F9AE62C95769E105B5C4B012E2E82ED8CD3516C5E34D519CF0D1F6765A8551C6CC0505130A3E8ABEC46EF81CED54DC1DA04AB7BC4DB0CA082453194AB29B82400C2B438BA6322032B88FE093B3E13470C11297490C8EEF78E88158D51A8AD42283A38F61044E78707A57F8BBDFE2DF2167F36975041D1DA7FCF59430C35792
310
05112533A905D5D3CAAB4759DBB4CA160F3E9309466F934A1794E7E1154C402D3088858048DCDF7EA3E7FECD5B7A7B376D5480CBF43A7E5E49CCBE6BEB37D945B2402FC65F52AB73B67E7F3A58AE93F37A04F6B7011D680556EBCCA2819BC8A21C320F385BBDB4EE56E6E32CE2CB18E358AD7676B4C7C096B1674BAF7B1278
310
1E906198B0DF8681EA696AF34D20563061CAB731C0DB01185B8B0DCA46538BD880EB0E2C6FC3120B40E62289BC162112587895C11513E18290E892090EBF46A9321968C513E0BB89A0AE8F2431B88A7DFC9E07A7BD0A8E668E3AF3CDEA083A3A8ECFB770A00AB53712018F2859D8DB3D93C2E4D422CB77A40BB73A5DB807A7
310
0857A5727AC8838BE45965D0D3D5B29CBEEF99145F4E558AC0C3E9C23D922EDC0FD285FBA107E7958EEDE721E98018A3E3AAC64E7F5C166D7ABA81B65C437BB31D766C74A6ED6E1FBC2766B7AFDAD87156F9771BF44A2A724C461AB43EE729AAFB710D63E2111810BBA3ABC9AE6037E09AB9BF3AB40BE8309F8736AB64CAB2
310
BE7E3364E5AC569CA6976081AF5A311628A8EF68C5B3A4609E3E86AC3AA156E3E83562F4B5A292099A878C61EB3B549CF92354989982613F016CE7AD5A4D09AA1F5126387AAD451EE384D9C035A925859E39C1AA865EE9A9B8DA21CEE289167F7CF1D4C4BC7A125EC5AED5D8BB0B5A9D9144D134CFA71BF85A8D44BE568348
310
F6AA55A2F3CAEACF6982FD29118CC249D3CBF852A586F278BA70FBD3853B90085793EDE51E143F0AD06C6B4CB2242BDDBDD1419166C2865E85F9CE1648F3CBF54B2E655D5432557AB8C599EEE6E763403914E55050D879E2BFFA30F366F009F0CB378371CA9B99D05949929DD07465EA8797A3808B6B06B9536E64AF9C844C
310
903AF2F3709D3783A318A078E4F37AEBBCEC2DD1B228B722F785DC2DB9D64C476675A63353CC74E937B1FA39BFA7DB58A6AFC19E49583A4A9B6110A6BA038D3C80418F79D091B18A763C1D8524AA5361F194EC4CC4B23EDBA3192533E95398E41423EB6DCA1C239B4DBF91D13F6D762A6897D7013D496371DC8BECCAA7D45E
310
0C251095ABC98AA38E1B6540CD3DACF829EF15C38D27C2B92DA64A071D13897001094F16523EC1C9E5A99FF465029665AB5B13C49AF8984D174EA40B273D389D33BB29A272F6749622C2719C22AC925104534E7A8CF33714555C6B3CF3BE4BE0AF28994CA9B8353E0F28878DD26D8D2F007FBAAD11BD305CEB4EAB35BE08B8
310
B8D678FEB81BD9134AB6ADF10A644BBEF9C2334A81E4EAA6772450D87DD2AF49C178F020A0EBD3055FF292CC5B8AB3FC4114C86BA708ACDB15F49C43C04EBBE7FCBD0CA8A1CB2AF59CC3897035E1E39713E16AD873FE91085A131FFF19C04DBEDBF8D75406FD3B3A2842E56C8ABE82A171BC3BF89ECB0E0F287926BC7B0450
310
75E4DDA3C09F2EEF56BE2579157071BCBBE7881BD93E255BDE7D04B225A07C61BD5230DE1DBA8C1158736B225E412358525F03747D78F79897E472BCCBAF5BAF2BA0DDE3804E9B765F2F035A65DA3D910857134A7A2311AE52DA8D6E0E9C1341735A873DD47F12A16BE2E99BE9C275792B70532835F1AEDB838B7404B509F7
310
74C449519D9AA19EB28205FF5B08785CE3F9307262735AC933693C270155C7C6730AF8E9359ED3808B6B3CA387DDC6734EC9B6F1C897238DE72006D89713F9C2E58B91C6F3388D608DE70CA0A7DA7866D30F8008DC16BEAA2D26A2AAB848F4108A0CF46D0F54D7A73989E2C56D75B6B8431D2F6EAB64C5CD94644C04869974
310
1626C5B6A280378D1BEE62BCE2C3917700E714386FAA719B1D7E7D464DF7DD444F8317374E8CAA75BEF65E19D0F8F0523EC21D7470DCC60B8CAEF29753FC38EF4760CFDBF99B4673F680D0869F6742513F06849341B61DF57EE3400A02734628D75C0DBC8B68A868B98655ECA330208EA3C6F1B52E3DF1E8849E2433679564
310
431A886148B568E62C4406F75F64308EFD2F9D7039EA6D259B5B2BF91AD8396F72B01004EFC5CD6C88F911E8CCDF849C077E5C64E9488747967101058B73015D99FA9B900B808B63FFB117DCC85E50324556799F2F34BC086EC70CD18A4318C0D9FF2AB6807CDB718046B0A4BE0FE8B4D9FFA207EA504E3D7E65FA014C7226
310
B329B0E8D703AAFEBAA304E869379E693123CD68457958A4FF2F11AE86ECFF6119D078F6E7138AD87FF2370F86D6E1E34789702D76FED2134932CCA824CB8C811832A3160D33426421BD940847AF6F0C11D33DEECB1CFE9B7175D1F926045DE5BD8DBFBDBE9C081764D0049324E6DDB40A8607F34A225C4D16463974B5B836
310
F3B3A32E193EACE499B49986C93A780A6DA631A981D7A6CD34012EAECDFCF23937B23F51B26D337F80CCDBCC36A5C0ECD07DE7E7A7236D663D8D6033A419D0536D33E07F56B8C4CA7C0D48229F9610695A461A0883CE7B494E8DD95B004DF38E8247AB09FE45AC1A52EDAC32A0861DD8DA85D8A76276989D08579353913989
310
700119397510D9BB4CAB9DF096393711B4263ECE4B176E7EBA700B3C389DB3F0B5335AA6A7234288EA142D784A9083AFB414616018456CF64C3293C4CD2F49D3E5A5F0410CEE3E0F2E6A6FEA11580893E29AEE529C2FC11C4DF48D4AA628982DB44A422820F8563073C8F989CF2240392BED74F7768B819FDEDE6E09E0E29A
310
EE0AFA030B3CB273954C91D5916E83CC9BEE074FAB1E6B73B11CFB6CBEB73B4C23589D2D05F4CC9AAE2E4C768646F0614DBB4BD40606BDCC4B726A4DF72640A7DD749797013521AB4ED3C5971C1BF2225712D922FD192CAA82F186C253F467B664EED8B163100EA1787299890C1D4314EEF90B040C236113FD72905624B8F0
310
99FF03A92412CEF64B0000
  0
DICTIONARY
  5
165B
330
160E
100
AcDbDictionary
280
     1
281
     1
  3
ACAD_XREC_ROUNDTRIP
360
165C
  0
DICTIONARY
  5
1659
330
160D
100
AcDbDictionary
280
     1
281
     1
  3
ACAD_XREC_ROUNDTRIP
360
165A
  0
DICTIONARY
  5
165D
330
160F
100
AcDbDictionary
280
     1
281
     1
  3
ACAD_XREC_ROUNDTRIP
360
165E
  0
DICTIONARY
  5
1631
330
15F8
100
AcDbDictionary
280
     1
281
     1
  3
ACAD_XREC_ROUNDTRIP
360
1632
  0
DICTIONARY
  5
1637
330
15FB
100
AcDbDictionary
280
     1
281
     1
  3
ACAD_XREC_ROUNDTRIP
360
1638
  0
DICTIONARY
  5
163F
330
15FF
100
AcDbDictionary
280
     1
281
     1
  3
ACAD_XREC_ROUNDTRIP
360
1640
  0
DICTIONARY
  5
1647
330
1603
100
AcDbDictionary
280
     1
281
     1
  3
ACAD_XREC_ROUNDTRIP
360
1648
  0
DICTIONARY
  5
163B
330
15FD
100
AcDbDictionary
280
     1
281
     1
  3
ACAD_XREC_ROUNDTRIP
360
163C
  0
DICTIONARY
  5
163D
330
15FE
100
AcDbDictionary
280
     1
281
     1
  3
ACAD_XREC_ROUNDTRIP
360
163E
  0
DICTIONARY
  5
164D
330
1606
100
AcDbDictionary
280
     1
281
     1
  3
ACAD_XREC_ROUNDTRIP
360
164E
  0
DICTIONARY
  5
1645
330
1602
100
AcDbDictionary
280
     1
281
     1
  3
ACAD_XREC_ROUNDTRIP
360
1646
  0
DICTIONARY
  5
1629
330
15F4
100
AcDbDictionary
280
     1
281
     1
  3
ACAD_XREC_ROUNDTRIP
360
162A
  0
DICTIONARY
  5
162B
330
15F5
100
AcDbDictionary
280
     1
281
     1
  3
ACAD_XREC_ROUNDTRIP
360
162C
  0
DICTIONARY
  5
162D
330
15F6
100
AcDbDictionary
280
     1
281
     1
  3
ACAD_XREC_ROUNDTRIP
360
162E
  0
DICTIONARY
  5
162F
330
15F7
100
AcDbDictionary
280
     1
281
     1
  3
ACAD_XREC_ROUNDTRIP
360
1630
  0
DICTIONARY
  5
1635
330
15FA
100
AcDbDictionary
280
     1
281
     1
  3
ACAD_XREC_ROUNDTRIP
360
1636
  0
DICTIONARY
  5
1649
330
1604
100
AcDbDictionary
280
     1
281
     1
  3
ACAD_XREC_ROUNDTRIP
360
164A
  0
DICTIONARY
  5
1643
330
1601
100
AcDbDictionary
280
     1
281
     1
  3
ACAD_XREC_ROUNDTRIP
360
1644
  0
DICTIONARY
  5
164B
330
1605
100
AcDbDictionary
280
     1
281
     1
  3
ACAD_XREC_ROUNDTRIP
360
164C
  0
DICTIONARY
  5
1639
330
15FC
100
AcDbDictionary
280
     1
281
     1
  3
ACAD_XREC_ROUNDTRIP
360
163A
  0
DICTIONARY
  5
1657
330
160B
100
AcDbDictionary
280
     1
281
     1
  3
ACAD_XREC_ROUNDTRIP
360
1658
  0
DICTIONARY
  5
1655
330
160A
100
AcDbDictionary
280
     1
281
     1
  3
ACAD_XREC_ROUNDTRIP
360
1656
  0
DICTIONARY
  5
164F
330
1607
100
AcDbDictionary
280
     1
281
     1
  3
ACAD_XREC_ROUNDTRIP
360
1650
  0
DICTIONARY
  5
1651
330
1608
100
AcDbDictionary
280
     1
281
     1
  3
ACAD_XREC_ROUNDTRIP
360
1652
  0
DICTIONARY
  5
1641
330
1600
100
AcDbDictionary
280
     1
281
     1
  3
ACAD_XREC_ROUNDTRIP
360
1642
  0
DICTIONARY
  5
1633
330
15F9
100
AcDbDictionary
280
     1
281
     1
  3
ACAD_XREC_ROUNDTRIP
360
1634
  0
DICTIONARY
  5
1653
330
1609
100
AcDbDictionary
280
     1
281
     1
  3
ACAD_XREC_ROUNDTRIP
360
1654
  0
XRECORD
  5
165C
102
{ACAD_REACTORS
330
165B
102
}
330
165B
100
AcDbXrecord
280
     1
102
MATERIAL
148
0.0
149
0.0
149
0.0
 93
        0
 94
      127
282
     0
 72
     1
 77
     1
171
     1
175
     1
179
     1
273
     0
  0
XRECORD
  5
165A
102
{ACAD_REACTORS
330
1659
102
}
330
1659
100
AcDbXrecord
280
     1
102
MATERIAL
148
0.0
149
0.0
149
0.0
 93
        0
 94
      127
282
     0
 72
     1
 77
     1
171
     1
175
     1
179
     1
273
     0
  0
XRECORD
  5
165E
102
{ACAD_REACTORS
330
165D
102
}
330
165D
100
AcDbXrecord
280
     1
102
MATERIAL
148
0.0
149
0.0
149
0.0
 93
        0
 94
      127
282
     0
 72
     1
 77
     1
171
     1
175
     1
179
     1
273
     0
  0
XRECORD
  5
1632
102
{ACAD_REACTORS
330
1631
102
}
330
1631
100
AcDbXrecord
280
     1
102
RTVSPropertyOp0
 70
     1
102
RTVSPropertyOp1
 70
     1
102
RTVSPropertyOp2
 70
     1
102
RTVSPropertyOp3
 70
     1
102
RTVSPropertyOp4
 70
     1
102
RTVSPropertyOp5
 70
     1
102
RTVSPropertyOp6
 70
     1
102
RTVSPropertyOp7
 70
     1
102
RTVSPropertyOp8
 70
     1
102
RTVSPropertyOp9
 70
     1
102
RTVSPropertyOp10
 70
     1
102
RTVSPropertyOp11
 70
     1
102
RTVSPropertyOp12
 70
     1
102
RTVSPropertyOp13
 70
     1
102
RTVSPropertyOp14
 70
     1
102
RTVSPropertyOp15
 70
     1
102
RTVSPropertyOp16
 70
     1
102
RTVSPropertyOp17
 70
     1
102
RTVSPropertyOp18
 70
     1
102
RTVSPropertyOp19
 70
     1
102
RTVSPropertyOp20
 70
     1
102
RTVSPropertyOp21
 70
     1
102
RTVSPropertyOp22
 70
     1
102
RTVSPropertyOp23
 70
     1
102
RTVSPropertyOp24
 70
     1
102
RTVSPropertyOp25
 70
     1
102
RTVSPropertyOp26
 70
     1
102
RTVSPropertyOp27
 70
     1
102
RTVSPropertyOp28
 70
     1
102
RTVSPropertyOp29
 70
     1
102
RTVSPropertyOp30
 70
     1
102
RTVSPropertyOp31
 70
     1
102
RTVSPropertyOp32
 70
     1
102
RTVSPropertyOp33
 70
     1
102
RTVSPropertyOp34
 70
     1
102
RTVSPropertyOp35
 70
     1
102
RTVSPropertyOp36
 70
     1
102
RTVSPropertyOp37
 70
     1
102
RTVSPropertyOp38
 70
     1
102
RTVSPropertyOp39
 70
     1
102
RTVSPropertyOp40
 70
     1
102
RTVSPropertyOp41
 70
     1
102
RTVSPropertyOp42
 70
     1
102
RTVSPropertyOp43
 70
     1
102
RTVSPropertyOp44
 70
     1
102
RTVSPropertyOp45
 70
     1
102
RTVSPropertyOp46
 70
     1
102
RTVSPropertyOp47
 70
     1
102
RTVSPropertyOp48
 70
     1
102
RTVSPropertyOp49
 70
     1
102
RTVSPropertyOp50
 70
     1
102
RTVSPropertyOp51
 70
     0
102
RTVSPropertyOp52
 70
     0
102
RTVSPropertyOp53
 70
     1
102
RTVSPropertyOp54
 70
     1
102
RTVSPropertyOp55
 70
     1
102
RTVSPropertyOp56
 70
     1
102
RTVSPropertyOp57
 70
     1
102
RTVSPost2010Prop28
280
     1
102
RTVSPost2010PropOp28
 70
     1
102
RTVSPost2010Prop29
280
     1
102
RTVSPost2010PropOp29
 70
     1
102
RTVSPost2010Prop30
280
     0
102
RTVSPost2010PropOp30
 70
     1
102
RTVSPost2010Prop31
280
     0
102
RTVSPost2010PropOp31
 70
     1
102
RTVSPost2010Prop32
280
     0
102
RTVSPost2010PropOp32
 70
     1
102
RTVSPost2010Prop33
280
     0
102
RTVSPost2010PropOp33
 70
     1
102
RTVSPost2010Prop34
280
     0
102
RTVSPost2010PropOp34
 70
     1
102
RTVSPost2010Prop35
280
     0
102
RTVSPost2010PropOp35
 70
     1
102
RTVSPost2010Prop36
280
     0
102
RTVSPost2010PropOp36
 70
     1
102
RTVSPost2010Prop37
 90
       50
102
RTVSPost2010PropOp37
 70
     1
102
RTVSPost2010Prop38
140
0.0
102
RTVSPost2010PropOp38
 70
     1
102
RTVSPost2010Prop39
140
1.0
102
RTVSPost2010PropOp39
 70
     1
102
RTVSPost2010Prop40
 90
        0
102
RTVSPost2010PropOp40
 70
     1
102
RTVSPost2010Prop41ColorIndex
 90
       18
102
RTVSPost2010Prop41ColorRGB
 90
        0
102
RTVSPost2010PropOp41
 70
     1
102
RTVSPost2010Prop42
 90
       50
102
RTVSPost2010PropOp42
 70
     1
102
RTVSPost2010Prop43
 90
        3
102
RTVSPost2010PropOp43
 70
     1
102
RTVSPost2010Prop44ColorIndex
 90
        5
102
RTVSPost2010Prop44ColorRGB
 90
      255
102
RTVSPost2010PropOp44
 70
     1
102
RTVSPost2010Prop45
280
     0
102
RTVSPost2010PropOp45
 70
     1
102
RTVSPost2010Prop46
 90
       50
102
RTVSPost2010PropOp46
 70
     1
102
RTVSPost2010Prop47
 90
       50
102
RTVSPost2010PropOp47
 70
     1
102
RTVSPost2010Prop48
 90
       50
102
RTVSPost2010PropOp48
 70
     1
102
RTVSPost2010Prop49
280
     0
102
RTVSPost2010PropOp49
 70
     1
102
RTVSPost2010Prop50
 90
       50
102
RTVSPost2010PropOp50
 70
     1
102
RTVSPost2010Prop51ColorIndex
 90
      256
102
RTVSPost2010Prop51ColorRGB
 90
-16777216
102
RTVSPost2010PropOp51
 70
     0
102
RTVSPost2010Prop52
140
1.0
102
RTVSPost2010PropOp52
 70
     0
102
RTVSPost2010Prop53
 90
        2
102
RTVSPost2010PropOp53
 70
     1
102
RTVSPost2010Prop54
  1
strokes_ogs.tif
102
RTVSPost2010PropOp54
 70
     1
102
RTVSPost2010Prop55
280
     0
102
RTVSPost2010PropOp55
 70
     1
102
RTVSPost2010Prop56
140
1.0
102
RTVSPost2010PropOp56
 70
     1
102
RTVSPost2010Prop57
140
1.0
102
RTVSPost2010PropOp57
 70
     1
  0
XRECORD
  5
1638
102
{ACAD_REACTORS
330
1637
102
}
330
1637
100
AcDbXrecord
280
     1
102
RTVSPropertyOp0
 70
     1
102
RTVSPropertyOp1
 70
     1
102
RTVSPropertyOp2
 70
     1
102
RTVSPropertyOp3
 70
     1
102
RTVSPropertyOp4
 70
     1
102
RTVSPropertyOp5
 70
     1
102
RTVSPropertyOp6
 70
     1
102
RTVSPropertyOp7
 70
     1
102
RTVSPropertyOp8
 70
     1
102
RTVSPropertyOp9
 70
     1
102
RTVSPropertyOp10
 70
     1
102
RTVSPropertyOp11
 70
     1
102
RTVSPropertyOp12
 70
     1
102
RTVSPropertyOp13
 70
     1
102
RTVSPropertyOp14
 70
     1
102
RTVSPropertyOp15
 70
     1
102
RTVSPropertyOp16
 70
     1
102
RTVSPropertyOp17
 70
     1
102
RTVSPropertyOp18
 70
     1
102
RTVSPropertyOp19
 70
     1
102
RTVSPropertyOp20
 70
     1
102
RTVSPropertyOp21
 70
     1
102
RTVSPropertyOp22
 70
     1
102
RTVSPropertyOp23
 70
     1
102
RTVSPropertyOp24
 70
     1
102
RTVSPropertyOp25
 70
     1
102
RTVSPropertyOp26
 70
     1
102
RTVSPropertyOp27
 70
     1
102
RTVSPropertyOp28
 70
     1
102
RTVSPropertyOp29
 70
     1
102
RTVSPropertyOp30
 70
     1
102
RTVSPropertyOp31
 70
     1
102
RTVSPropertyOp32
 70
     1
102
RTVSPropertyOp33
 70
     1
102
RTVSPropertyOp34
 70
     1
102
RTVSPropertyOp35
 70
     1
102
RTVSPropertyOp36
 70
     1
102
RTVSPropertyOp37
 70
     1
102
RTVSPropertyOp38
 70
     1
102
RTVSPropertyOp39
 70
     1
102
RTVSPropertyOp40
 70
     1
102
RTVSPropertyOp41
 70
     1
102
RTVSPropertyOp42
 70
     1
102
RTVSPropertyOp43
 70
     1
102
RTVSPropertyOp44
 70
     1
102
RTVSPropertyOp45
 70
     1
102
RTVSPropertyOp46
 70
     1
102
RTVSPropertyOp47
 70
     1
102
RTVSPropertyOp48
 70
     1
102
RTVSPropertyOp49
 70
     1
102
RTVSPropertyOp50
 70
     1
102
RTVSPropertyOp51
 70
     0
102
RTVSPropertyOp52
 70
     0
102
RTVSPropertyOp53
 70
     1
102
RTVSPropertyOp54
 70
     1
102
RTVSPropertyOp55
 70
     1
102
RTVSPropertyOp56
 70
     1
102
RTVSPropertyOp57
 70
     1
102
RTVSPost2010Prop28
280
     0
102
RTVSPost2010PropOp28
 70
     1
102
RTVSPost2010Prop29
280
     1
102
RTVSPost2010PropOp29
 70
     1
102
RTVSPost2010Prop30
280
     1
102
RTVSPost2010PropOp30
 70
     1
102
RTVSPost2010Prop31
280
     0
102
RTVSPost2010PropOp31
 70
     1
102
RTVSPost2010Prop32
280
     0
102
RTVSPost2010PropOp32
 70
     1
102
RTVSPost2010Prop33
280
     0
102
RTVSPost2010PropOp33
 70
     1
102
RTVSPost2010Prop34
280
     0
102
RTVSPost2010PropOp34
 70
     1
102
RTVSPost2010Prop35
280
     0
102
RTVSPost2010PropOp35
 70
     1
102
RTVSPost2010Prop36
280
     0
102
RTVSPost2010PropOp36
 70
     1
102
RTVSPost2010Prop37
 90
       50
102
RTVSPost2010PropOp37
 70
     1
102
RTVSPost2010Prop38
140
0.0
102
RTVSPost2010PropOp38
 70
     1
102
RTVSPost2010Prop39
140
1.0
102
RTVSPost2010PropOp39
 70
     1
102
RTVSPost2010Prop40
 90
        0
102
RTVSPost2010PropOp40
 70
     1
102
RTVSPost2010Prop41ColorIndex
 90
       18
102
RTVSPost2010Prop41ColorRGB
 90
        0
102
RTVSPost2010PropOp41
 70
     1
102
RTVSPost2010Prop42
 90
       50
102
RTVSPost2010PropOp42
 70
     1
102
RTVSPost2010Prop43
 90
        3
102
RTVSPost2010PropOp43
 70
     1
102
RTVSPost2010Prop44ColorIndex
 90
        5
102
RTVSPost2010Prop44ColorRGB
 90
      255
102
RTVSPost2010PropOp44
 70
     1
102
RTVSPost2010Prop45
280
     0
102
RTVSPost2010PropOp45
 70
     1
102
RTVSPost2010Prop46
 90
       50
102
RTVSPost2010PropOp46
 70
     1
102
RTVSPost2010Prop47
 90
       50
102
RTVSPost2010PropOp47
 70
     1
102
RTVSPost2010Prop48
 90
       50
102
RTVSPost2010PropOp48
 70
     1
102
RTVSPost2010Prop49
280
     0
102
RTVSPost2010PropOp49
 70
     1
102
RTVSPost2010Prop50
 90
       50
102
RTVSPost2010PropOp50
 70
     1
102
RTVSPost2010Prop51ColorIndex
 90
      256
102
RTVSPost2010Prop51ColorRGB
 90
-16777216
102
RTVSPost2010PropOp51
 70
     0
102
RTVSPost2010Prop52
140
1.0
102
RTVSPost2010PropOp52
 70
     0
102
RTVSPost2010Prop53
 90
        2
102
RTVSPost2010PropOp53
 70
     1
102
RTVSPost2010Prop54
  1
strokes_ogs.tif
102
RTVSPost2010PropOp54
 70
     1
102
RTVSPost2010Prop55
280
     0
102
RTVSPost2010PropOp55
 70
     1
102
RTVSPost2010Prop56
140
1.0
102
RTVSPost2010PropOp56
 70
     1
102
RTVSPost2010Prop57
140
1.0
102
RTVSPost2010PropOp57
 70
     1
  0
XRECORD
  5
1640
102
{ACAD_REACTORS
330
163F
102
}
330
163F
100
AcDbXrecord
280
     1
102
RTVSPropertyOp0
 70
     1
102
RTVSPropertyOp1
 70
     1
102
RTVSPropertyOp2
 70
     1
102
RTVSPropertyOp3
 70
     1
102
RTVSPropertyOp4
 70
     1
102
RTVSPropertyOp5
 70
     1
102
RTVSPropertyOp6
 70
     1
102
RTVSPropertyOp7
 70
     1
102
RTVSPropertyOp8
 70
     1
102
RTVSPropertyOp9
 70
     1
102
RTVSPropertyOp10
 70
     1
102
RTVSPropertyOp11
 70
     1
102
RTVSPropertyOp12
 70
     1
102
RTVSPropertyOp13
 70
     1
102
RTVSPropertyOp14
 70
     1
102
RTVSPropertyOp15
 70
     1
102
RTVSPropertyOp16
 70
     1
102
RTVSPropertyOp17
 70
     1
102
RTVSPropertyOp18
 70
     1
102
RTVSPropertyOp19
 70
     1
102
RTVSPropertyOp20
 70
     1
102
RTVSPropertyOp21
 70
     1
102
RTVSPropertyOp22
 70
     1
102
RTVSPropertyOp23
 70
     1
102
RTVSPropertyOp24
 70
     1
102
RTVSPropertyOp25
 70
     1
102
RTVSPropertyOp26
 70
     1
102
RTVSPropertyOp27
 70
     1
102
RTVSPropertyOp28
 70
     1
102
RTVSPropertyOp29
 70
     1
102
RTVSPropertyOp30
 70
     1
102
RTVSPropertyOp31
 70
     1
102
RTVSPropertyOp32
 70
     1
102
RTVSPropertyOp33
 70
     1
102
RTVSPropertyOp34
 70
     1
102
RTVSPropertyOp35
 70
     1
102
RTVSPropertyOp36
 70
     1
102
RTVSPropertyOp37
 70
     1
102
RTVSPropertyOp38
 70
     1
102
RTVSPropertyOp39
 70
     1
102
RTVSPropertyOp40
 70
     1
102
RTVSPropertyOp41
 70
     1
102
RTVSPropertyOp42
 70
     1
102
RTVSPropertyOp43
 70
     1
102
RTVSPropertyOp44
 70
     1
102
RTVSPropertyOp45
 70
     1
102
RTVSPropertyOp46
 70
     1
102
RTVSPropertyOp47
 70
     1
102
RTVSPropertyOp48
 70
     1
102
RTVSPropertyOp49
 70
     1
102
RTVSPropertyOp50
 70
     1
102
RTVSPropertyOp51
 70
     0
102
RTVSPropertyOp52
 70
     0
102
RTVSPropertyOp53
 70
     1
102
RTVSPropertyOp54
 70
     1
102
RTVSPropertyOp55
 70
     1
102
RTVSPropertyOp56
 70
     1
102
RTVSPropertyOp57
 70
     1
102
RTVSPost2010Prop28
280
     0
102
RTVSPost2010PropOp28
 70
     1
102
RTVSPost2010Prop29
280
     1
102
RTVSPost2010PropOp29
 70
     1
102
RTVSPost2010Prop30
280
     1
102
RTVSPost2010PropOp30
 70
     1
102
RTVSPost2010Prop31
280
     0
102
RTVSPost2010PropOp31
 70
     1
102
RTVSPost2010Prop32
280
     0
102
RTVSPost2010PropOp32
 70
     1
102
RTVSPost2010Prop33
280
     0
102
RTVSPost2010PropOp33
 70
     1
102
RTVSPost2010Prop34
280
     0
102
RTVSPost2010PropOp34
 70
     1
102
RTVSPost2010Prop35
280
     0
102
RTVSPost2010PropOp35
 70
     1
102
RTVSPost2010Prop36
280
     0
102
RTVSPost2010PropOp36
 70
     1
102
RTVSPost2010Prop37
 90
       50
102
RTVSPost2010PropOp37
 70
     1
102
RTVSPost2010Prop38
140
0.0
102
RTVSPost2010PropOp38
 70
     1
102
RTVSPost2010Prop39
140
1.0
102
RTVSPost2010PropOp39
 70
     1
102
RTVSPost2010Prop40
 90
        0
102
RTVSPost2010PropOp40
 70
     1
102
RTVSPost2010Prop41ColorIndex
 90
       18
102
RTVSPost2010Prop41ColorRGB
 90
        0
102
RTVSPost2010PropOp41
 70
     1
102
RTVSPost2010Prop42
 90
       50
102
RTVSPost2010PropOp42
 70
     1
102
RTVSPost2010Prop43
 90
        3
102
RTVSPost2010PropOp43
 70
     1
102
RTVSPost2010Prop44ColorIndex
 90
        5
102
RTVSPost2010Prop44ColorRGB
 90
      255
102
RTVSPost2010PropOp44
 70
     1
102
RTVSPost2010Prop45
280
     0
102
RTVSPost2010PropOp45
 70
     1
102
RTVSPost2010Prop46
 90
       50
102
RTVSPost2010PropOp46
 70
     1
102
RTVSPost2010Prop47
 90
       50
102
RTVSPost2010PropOp47
 70
     1
102
RTVSPost2010Prop48
 90
       50
102
RTVSPost2010PropOp48
 70
     1
102
RTVSPost2010Prop49
280
     0
102
RTVSPost2010PropOp49
 70
     1
102
RTVSPost2010Prop50
 90
       50
102
RTVSPost2010PropOp50
 70
     1
102
RTVSPost2010Prop51ColorIndex
 90
      256
102
RTVSPost2010Prop51ColorRGB
 90
-16777216
102
RTVSPost2010PropOp51
 70
     0
102
RTVSPost2010Prop52
140
1.0
102
RTVSPost2010PropOp52
 70
     0
102
RTVSPost2010Prop53
 90
        2
102
RTVSPost2010PropOp53
 70
     1
102
RTVSPost2010Prop54
  1
strokes_ogs.tif
102
RTVSPost2010PropOp54
 70
     1
102
RTVSPost2010Prop55
280
     0
102
RTVSPost2010PropOp55
 70
     1
102
RTVSPost2010Prop56
140
1.0
102
RTVSPost2010PropOp56
 70
     1
102
RTVSPost2010Prop57
140
1.0
102
RTVSPost2010PropOp57
 70
     1
  0
XRECORD
  5
1648
102
{ACAD_REACTORS
330
1647
102
}
330
1647
100
AcDbXrecord
280
     1
102
RTVSPropertyOp0
 70
     1
102
RTVSPropertyOp1
 70
     1
102
RTVSPropertyOp2
 70
     1
102
RTVSPropertyOp3
 70
     1
102
RTVSPropertyOp4
 70
     1
102
RTVSPropertyOp5
 70
     1
102
RTVSPropertyOp6
 70
     1
102
RTVSPropertyOp7
 70
     1
102
RTVSPropertyOp8
 70
     1
102
RTVSPropertyOp9
 70
     1
102
RTVSPropertyOp10
 70
     1
102
RTVSPropertyOp11
 70
     1
102
RTVSPropertyOp12
 70
     1
102
RTVSPropertyOp13
 70
     1
102
RTVSPropertyOp14
 70
     1
102
RTVSPropertyOp15
 70
     1
102
RTVSPropertyOp16
 70
     1
102
RTVSPropertyOp17
 70
     1
102
RTVSPropertyOp18
 70
     1
102
RTVSPropertyOp19
 70
     1
102
RTVSPropertyOp20
 70
     1
102
RTVSPropertyOp21
 70
     1
102
RTVSPropertyOp22
 70
     1
102
RTVSPropertyOp23
 70
     1
102
RTVSPropertyOp24
 70
     1
102
RTVSPropertyOp25
 70
     1
102
RTVSPropertyOp26
 70
     1
102
RTVSPropertyOp27
 70
     1
102
RTVSPropertyOp28
 70
     1
102
RTVSPropertyOp29
 70
     1
102
RTVSPropertyOp30
 70
     1
102
RTVSPropertyOp31
 70
     1
102
RTVSPropertyOp32
 70
     1
102
RTVSPropertyOp33
 70
     1
102
RTVSPropertyOp34
 70
     1
102
RTVSPropertyOp35
 70
     1
102
RTVSPropertyOp36
 70
     1
102
RTVSPropertyOp37
 70
     1
102
RTVSPropertyOp38
 70
     1
102
RTVSPropertyOp39
 70
     1
102
RTVSPropertyOp40
 70
     1
102
RTVSPropertyOp41
 70
     1
102
RTVSPropertyOp42
 70
     1
102
RTVSPropertyOp43
 70
     1
102
RTVSPropertyOp44
 70
     1
102
RTVSPropertyOp45
 70
     1
102
RTVSPropertyOp46
 70
     1
102
RTVSPropertyOp47
 70
     1
102
RTVSPropertyOp48
 70
     1
102
RTVSPropertyOp49
 70
     1
102
RTVSPropertyOp50
 70
     1
102
RTVSPropertyOp51
 70
     0
102
RTVSPropertyOp52
 70
     0
102
RTVSPropertyOp53
 70
     1
102
RTVSPropertyOp54
 70
     1
102
RTVSPropertyOp55
 70
     1
102
RTVSPropertyOp56
 70
     1
102
RTVSPropertyOp57
 70
     1
102
RTVSPost2010Prop28
280
     0
102
RTVSPost2010PropOp28
 70
     1
102
RTVSPost2010Prop29
280
     1
102
RTVSPost2010PropOp29
 70
     1
102
RTVSPost2010Prop30
280
     1
102
RTVSPost2010PropOp30
 70
     1
102
RTVSPost2010Prop31
280
     0
102
RTVSPost2010PropOp31
 70
     1
102
RTVSPost2010Prop32
280
     0
102
RTVSPost2010PropOp32
 70
     1
102
RTVSPost2010Prop33
280
     0
102
RTVSPost2010PropOp33
 70
     1
102
RTVSPost2010Prop34
280
     0
102
RTVSPost2010PropOp34
 70
     1
102
RTVSPost2010Prop35
280
     0
102
RTVSPost2010PropOp35
 70
     1
102
RTVSPost2010Prop36
280
     0
102
RTVSPost2010PropOp36
 70
     1
102
RTVSPost2010Prop37
 90
       50
102
RTVSPost2010PropOp37
 70
     1
102
RTVSPost2010Prop38
140
0.0
102
RTVSPost2010PropOp38
 70
     1
102
RTVSPost2010Prop39
140
1.0
102
RTVSPost2010PropOp39
 70
     1
102
RTVSPost2010Prop40
 90
        0
102
RTVSPost2010PropOp40
 70
     1
102
RTVSPost2010Prop41ColorIndex
 90
       18
102
RTVSPost2010Prop41ColorRGB
 90
        0
102
RTVSPost2010PropOp41
 70
     1
102
RTVSPost2010Prop42
 90
       50
102
RTVSPost2010PropOp42
 70
     1
102
RTVSPost2010Prop43
 90
        3
102
RTVSPost2010PropOp43
 70
     1
102
RTVSPost2010Prop44ColorIndex
 90
        5
102
RTVSPost2010Prop44ColorRGB
 90
      255
102
RTVSPost2010PropOp44
 70
     1
102
RTVSPost2010Prop45
280
     0
102
RTVSPost2010PropOp45
 70
     1
102
RTVSPost2010Prop46
 90
       50
102
RTVSPost2010PropOp46
 70
     1
102
RTVSPost2010Prop47
 90
       50
102
RTVSPost2010PropOp47
 70
     1
102
RTVSPost2010Prop48
 90
       50
102
RTVSPost2010PropOp48
 70
     1
102
RTVSPost2010Prop49
280
     0
102
RTVSPost2010PropOp49
 70
     1
102
RTVSPost2010Prop50
 90
       50
102
RTVSPost2010PropOp50
 70
     1
102
RTVSPost2010Prop51ColorIndex
 90
      256
102
RTVSPost2010Prop51ColorRGB
 90
-16777216
102
RTVSPost2010PropOp51
 70
     0
102
RTVSPost2010Prop52
140
1.0
102
RTVSPost2010PropOp52
 70
     0
102
RTVSPost2010Prop53
 90
        2
102
RTVSPost2010PropOp53
 70
     1
102
RTVSPost2010Prop54
  1
strokes_ogs.tif
102
RTVSPost2010PropOp54
 70
     1
102
RTVSPost2010Prop55
280
     0
102
RTVSPost2010PropOp55
 70
     1
102
RTVSPost2010Prop56
140
1.0
102
RTVSPost2010PropOp56
 70
     1
102
RTVSPost2010Prop57
140
1.0
102
RTVSPost2010PropOp57
 70
     1
  0
XRECORD
  5
163C
102
{ACAD_REACTORS
330
163B
102
}
330
163B
100
AcDbXrecord
280
     1
102
RTVSPropertyOp0
 70
     1
102
RTVSPropertyOp1
 70
     1
102
RTVSPropertyOp2
 70
     1
102
RTVSPropertyOp3
 70
     1
102
RTVSPropertyOp4
 70
     1
102
RTVSPropertyOp5
 70
     1
102
RTVSPropertyOp6
 70
     1
102
RTVSPropertyOp7
 70
     1
102
RTVSPropertyOp8
 70
     1
102
RTVSPropertyOp9
 70
     1
102
RTVSPropertyOp10
 70
     1
102
RTVSPropertyOp11
 70
     1
102
RTVSPropertyOp12
 70
     1
102
RTVSPropertyOp13
 70
     1
102
RTVSPropertyOp14
 70
     1
102
RTVSPropertyOp15
 70
     1
102
RTVSPropertyOp16
 70
     1
102
RTVSPropertyOp17
 70
     1
102
RTVSPropertyOp18
 70
     1
102
RTVSPropertyOp19
 70
     1
102
RTVSPropertyOp20
 70
     1
102
RTVSPropertyOp21
 70
     1
102
RTVSPropertyOp22
 70
     1
102
RTVSPropertyOp23
 70
     1
102
RTVSPropertyOp24
 70
     1
102
RTVSPropertyOp25
 70
     1
102
RTVSPropertyOp26
 70
     1
102
RTVSPropertyOp27
 70
     1
102
RTVSPropertyOp28
 70
     1
102
RTVSPropertyOp29
 70
     1
102
RTVSPropertyOp30
 70
     1
102
RTVSPropertyOp31
 70
     1
102
RTVSPropertyOp32
 70
     1
102
RTVSPropertyOp33
 70
     1
102
RTVSPropertyOp34
 70
     1
102
RTVSPropertyOp35
 70
     1
102
RTVSPropertyOp36
 70
     1
102
RTVSPropertyOp37
 70
     1
102
RTVSPropertyOp38
 70
     1
102
RTVSPropertyOp39
 70
     1
102
RTVSPropertyOp40
 70
     1
102
RTVSPropertyOp41
 70
     1
102
RTVSPropertyOp42
 70
     1
102
RTVSPropertyOp43
 70
     1
102
RTVSPropertyOp44
 70
     1
102
RTVSPropertyOp45
 70
     1
102
RTVSPropertyOp46
 70
     1
102
RTVSPropertyOp47
 70
     1
102
RTVSPropertyOp48
 70
     1
102
RTVSPropertyOp49
 70
     1
102
RTVSPropertyOp50
 70
     1
102
RTVSPropertyOp51
 70
     0
102
RTVSPropertyOp52
 70
     0
102
RTVSPropertyOp53
 70
     1
102
RTVSPropertyOp54
 70
     1
102
RTVSPropertyOp55
 70
     1
102
RTVSPropertyOp56
 70
     1
102
RTVSPropertyOp57
 70
     1
102
RTVSPost2010Prop28
280
     0
102
RTVSPost2010PropOp28
 70
     1
102
RTVSPost2010Prop29
280
     1
102
RTVSPost2010PropOp29
 70
     1
102
RTVSPost2010Prop30
280
     1
102
RTVSPost2010PropOp30
 70
     1
102
RTVSPost2010Prop31
280
     0
102
RTVSPost2010PropOp31
 70
     1
102
RTVSPost2010Prop32
280
     0
102
RTVSPost2010PropOp32
 70
     1
102
RTVSPost2010Prop33
280
     0
102
RTVSPost2010PropOp33
 70
     1
102
RTVSPost2010Prop34
280
     0
102
RTVSPost2010PropOp34
 70
     1
102
RTVSPost2010Prop35
280
     0
102
RTVSPost2010PropOp35
 70
     1
102
RTVSPost2010Prop36
280
     0
102
RTVSPost2010PropOp36
 70
     1
102
RTVSPost2010Prop37
 90
       50
102
RTVSPost2010PropOp37
 70
     1
102
RTVSPost2010Prop38
140
0.0
102
RTVSPost2010PropOp38
 70
     1
102
RTVSPost2010Prop39
140
1.0
102
RTVSPost2010PropOp39
 70
     1
102
RTVSPost2010Prop40
 90
        0
102
RTVSPost2010PropOp40
 70
     1
102
RTVSPost2010Prop41ColorIndex
 90
       18
102
RTVSPost2010Prop41ColorRGB
 90
        0
102
RTVSPost2010PropOp41
 70
     1
102
RTVSPost2010Prop42
 90
       50
102
RTVSPost2010PropOp42
 70
     1
102
RTVSPost2010Prop43
 90
        3
102
RTVSPost2010PropOp43
 70
     1
102
RTVSPost2010Prop44ColorIndex
 90
        5
102
RTVSPost2010Prop44ColorRGB
 90
      255
102
RTVSPost2010PropOp44
 70
     1
102
RTVSPost2010Prop45
280
     0
102
RTVSPost2010PropOp45
 70
     1
102
RTVSPost2010Prop46
 90
       50
102
RTVSPost2010PropOp46
 70
     1
102
RTVSPost2010Prop47
 90
       50
102
RTVSPost2010PropOp47
 70
     1
102
RTVSPost2010Prop48
 90
       50
102
RTVSPost2010PropOp48
 70
     1
102
RTVSPost2010Prop49
280
     0
102
RTVSPost2010PropOp49
 70
     1
102
RTVSPost2010Prop50
 90
       50
102
RTVSPost2010PropOp50
 70
     1
102
RTVSPost2010Prop51ColorIndex
 90
      256
102
RTVSPost2010Prop51ColorRGB
 90
-16777216
102
RTVSPost2010PropOp51
 70
     0
102
RTVSPost2010Prop52
140
1.0
102
RTVSPost2010PropOp52
 70
     0
102
RTVSPost2010Prop53
 90
        2
102
RTVSPost2010PropOp53
 70
     1
102
RTVSPost2010Prop54
  1
strokes_ogs.tif
102
RTVSPost2010PropOp54
 70
     1
102
RTVSPost2010Prop55
280
     0
102
RTVSPost2010PropOp55
 70
     1
102
RTVSPost2010Prop56
140
1.0
102
RTVSPost2010PropOp56
 70
     1
102
RTVSPost2010Prop57
140
1.0
102
RTVSPost2010PropOp57
 70
     1
  0
XRECORD
  5
163E
102
{ACAD_REACTORS
330
163D
102
}
330
163D
100
AcDbXrecord
280
     1
102
RTVSPropertyOp0
 70
     1
102
RTVSPropertyOp1
 70
     1
102
RTVSPropertyOp2
 70
     1
102
RTVSPropertyOp3
 70
     1
102
RTVSPropertyOp4
 70
     1
102
RTVSPropertyOp5
 70
     1
102
RTVSPropertyOp6
 70
     1
102
RTVSPropertyOp7
 70
     1
102
RTVSPropertyOp8
 70
     1
102
RTVSPropertyOp9
 70
     1
102
RTVSPropertyOp10
 70
     1
102
RTVSPropertyOp11
 70
     1
102
RTVSPropertyOp12
 70
     1
102
RTVSPropertyOp13
 70
     1
102
RTVSPropertyOp14
 70
     1
102
RTVSPropertyOp15
 70
     1
102
RTVSPropertyOp16
 70
     1
102
RTVSPropertyOp17
 70
     1
102
RTVSPropertyOp18
 70
     1
102
RTVSPropertyOp19
 70
     1
102
RTVSPropertyOp20
 70
     1
102
RTVSPropertyOp21
 70
     1
102
RTVSPropertyOp22
 70
     1
102
RTVSPropertyOp23
 70
     1
102
RTVSPropertyOp24
 70
     1
102
RTVSPropertyOp25
 70
     1
102
RTVSPropertyOp26
 70
     1
102
RTVSPropertyOp27
 70
     1
102
RTVSPropertyOp28
 70
     1
102
RTVSPropertyOp29
 70
     1
102
RTVSPropertyOp30
 70
     1
102
RTVSPropertyOp31
 70
     1
102
RTVSPropertyOp32
 70
     1
102
RTVSPropertyOp33
 70
     1
102
RTVSPropertyOp34
 70
     1
102
RTVSPropertyOp35
 70
     1
102
RTVSPropertyOp36
 70
     1
102
RTVSPropertyOp37
 70
     1
102
RTVSPropertyOp38
 70
     1
102
RTVSPropertyOp39
 70
     1
102
RTVSPropertyOp40
 70
     1
102
RTVSPropertyOp41
 70
     1
102
RTVSPropertyOp42
 70
     1
102
RTVSPropertyOp43
 70
     1
102
RTVSPropertyOp44
 70
     1
102
RTVSPropertyOp45
 70
     1
102
RTVSPropertyOp46
 70
     1
102
RTVSPropertyOp47
 70
     1
102
RTVSPropertyOp48
 70
     1
102
RTVSPropertyOp49
 70
     1
102
RTVSPropertyOp50
 70
     1
102
RTVSPropertyOp51
 70
     0
102
RTVSPropertyOp52
 70
     0
102
RTVSPropertyOp53
 70
     1
102
RTVSPropertyOp54
 70
     1
102
RTVSPropertyOp55
 70
     1
102
RTVSPropertyOp56
 70
     1
102
RTVSPropertyOp57
 70
     1
102
RTVSPost2010Prop28
280
     0
102
RTVSPost2010PropOp28
 70
     1
102
RTVSPost2010Prop29
280
     1
102
RTVSPost2010PropOp29
 70
     1
102
RTVSPost2010Prop30
280
     1
102
RTVSPost2010PropOp30
 70
     1
102
RTVSPost2010Prop31
280
     0
102
RTVSPost2010PropOp31
 70
     1
102
RTVSPost2010Prop32
280
     0
102
RTVSPost2010PropOp32
 70
     1
102
RTVSPost2010Prop33
280
     0
102
RTVSPost2010PropOp33
 70
     1
102
RTVSPost2010Prop34
280
     0
102
RTVSPost2010PropOp34
 70
     1
102
RTVSPost2010Prop35
280
     0
102
RTVSPost2010PropOp35
 70
     1
102
RTVSPost2010Prop36
280
     0
102
RTVSPost2010PropOp36
 70
     1
102
RTVSPost2010Prop37
 90
       50
102
RTVSPost2010PropOp37
 70
     1
102
RTVSPost2010Prop38
140
0.0
102
RTVSPost2010PropOp38
 70
     1
102
RTVSPost2010Prop39
140
1.0
102
RTVSPost2010PropOp39
 70
     1
102
RTVSPost2010Prop40
 90
        0
102
RTVSPost2010PropOp40
 70
     1
102
RTVSPost2010Prop41ColorIndex
 90
       18
102
RTVSPost2010Prop41ColorRGB
 90
        0
102
RTVSPost2010PropOp41
 70
     1
102
RTVSPost2010Prop42
 90
       50
102
RTVSPost2010PropOp42
 70
     1
102
RTVSPost2010Prop43
 90
        3
102
RTVSPost2010PropOp43
 70
     1
102
RTVSPost2010Prop44ColorIndex
 90
        5
102
RTVSPost2010Prop44ColorRGB
 90
      255
102
RTVSPost2010PropOp44
 70
     1
102
RTVSPost2010Prop45
280
     0
102
RTVSPost2010PropOp45
 70
     1
102
RTVSPost2010Prop46
 90
       50
102
RTVSPost2010PropOp46
 70
     1
102
RTVSPost2010Prop47
 90
       50
102
RTVSPost2010PropOp47
 70
     1
102
RTVSPost2010Prop48
 90
       50
102
RTVSPost2010PropOp48
 70
     1
102
RTVSPost2010Prop49
280
     0
102
RTVSPost2010PropOp49
 70
     1
102
RTVSPost2010Prop50
 90
       50
102
RTVSPost2010PropOp50
 70
     1
102
RTVSPost2010Prop51ColorIndex
 90
      256
102
RTVSPost2010Prop51ColorRGB
 90
-16777216
102
RTVSPost2010PropOp51
 70
     0
102
RTVSPost2010Prop52
140
1.0
102
RTVSPost2010PropOp52
 70
     0
102
RTVSPost2010Prop53
 90
        2
102
RTVSPost2010PropOp53
 70
     1
102
RTVSPost2010Prop54
  1
strokes_ogs.tif
102
RTVSPost2010PropOp54
 70
     1
102
RTVSPost2010Prop55
280
     0
102
RTVSPost2010PropOp55
 70
     1
102
RTVSPost2010Prop56
140
1.0
102
RTVSPost2010PropOp56
 70
     1
102
RTVSPost2010Prop57
140
1.0
102
RTVSPost2010PropOp57
 70
     1
  0
XRECORD
  5
164E
102
{ACAD_REACTORS
330
164D
102
}
330
164D
100
AcDbXrecord
280
     1
102
RTVSPropertyOp0
 70
     0
102
RTVSPropertyOp1
 70
     0
102
RTVSPropertyOp2
 70
     0
102
RTVSPropertyOp3
 70
     0
102
RTVSPropertyOp4
 70
     0
102
RTVSPropertyOp5
 70
     0
102
RTVSPropertyOp6
 70
     0
102
RTVSPropertyOp7
 70
     0
102
RTVSPropertyOp8
 70
     0
102
RTVSPropertyOp9
 70
     0
102
RTVSPropertyOp10
 70
     0
102
RTVSPropertyOp11
 70
     0
102
RTVSPropertyOp12
 70
     0
102
RTVSPropertyOp13
 70
     0
102
RTVSPropertyOp14
 70
     2
102
RTVSPropertyOp15
 70
     0
102
RTVSPropertyOp16
 70
     0
102
RTVSPropertyOp17
 70
     0
102
RTVSPropertyOp18
 70
     0
102
RTVSPropertyOp19
 70
     0
102
RTVSPropertyOp20
 70
     0
102
RTVSPropertyOp21
 70
     0
102
RTVSPropertyOp22
 70
     0
102
RTVSPropertyOp23
 70
     0
102
RTVSPropertyOp24
 70
     0
102
RTVSPropertyOp25
 70
     0
102
RTVSPropertyOp26
 70
     0
102
RTVSPropertyOp27
 70
     0
102
RTVSPropertyOp28
 70
     0
102
RTVSPropertyOp29
 70
     0
102
RTVSPropertyOp30
 70
     0
102
RTVSPropertyOp31
 70
     0
102
RTVSPropertyOp32
 70
     0
102
RTVSPropertyOp33
 70
     0
102
RTVSPropertyOp34
 70
     0
102
RTVSPropertyOp35
 70
     0
102
RTVSPropertyOp36
 70
     0
102
RTVSPropertyOp37
 70
     0
102
RTVSPropertyOp38
 70
     0
102
RTVSPropertyOp39
 70
     0
102
RTVSPropertyOp40
 70
     0
102
RTVSPropertyOp41
 70
     0
102
RTVSPropertyOp42
 70
     0
102
RTVSPropertyOp43
 70
     0
102
RTVSPropertyOp44
 70
     0
102
RTVSPropertyOp45
 70
     0
102
RTVSPropertyOp46
 70
     0
102
RTVSPropertyOp47
 70
     0
102
RTVSPropertyOp48
 70
     0
102
RTVSPropertyOp49
 70
     0
102
RTVSPropertyOp50
 70
     0
102
RTVSPropertyOp51
 70
     0
102
RTVSPropertyOp52
 70
     0
102
RTVSPropertyOp53
 70
     0
102
RTVSPropertyOp54
 70
     0
102
RTVSPropertyOp55
 70
     0
102
RTVSPropertyOp56
 70
     0
102
RTVSPropertyOp57
 70
     0
102
RTVSPost2010Prop28
280
     0
102
RTVSPost2010PropOp28
 70
     0
102
RTVSPost2010Prop29
280
     1
102
RTVSPost2010PropOp29
 70
     0
102
RTVSPost2010Prop30
280
     1
102
RTVSPost2010PropOp30
 70
     0
102
RTVSPost2010Prop31
280
     0
102
RTVSPost2010PropOp31
 70
     0
102
RTVSPost2010Prop32
280
     0
102
RTVSPost2010PropOp32
 70
     0
102
RTVSPost2010Prop33
280
     0
102
RTVSPost2010PropOp33
 70
     0
102
RTVSPost2010Prop34
280
     0
102
RTVSPost2010PropOp34
 70
     0
102
RTVSPost2010Prop35
280
     0
102
RTVSPost2010PropOp35
 70
     0
102
RTVSPost2010Prop36
280
     0
102
RTVSPost2010PropOp36
 70
     0
102
RTVSPost2010Prop37
 90
       50
102
RTVSPost2010PropOp37
 70
     0
102
RTVSPost2010Prop38
140
0.0
102
RTVSPost2010PropOp38
 70
     0
102
RTVSPost2010Prop39
140
1.0
102
RTVSPost2010PropOp39
 70
     0
102
RTVSPost2010Prop40
 90
        0
102
RTVSPost2010PropOp40
 70
     0
102
RTVSPost2010Prop41ColorIndex
 90
       18
102
RTVSPost2010Prop41ColorRGB
 90
        0
102
RTVSPost2010PropOp41
 70
     0
102
RTVSPost2010Prop42
 90
       50
102
RTVSPost2010PropOp42
 70
     0
102
RTVSPost2010Prop43
 90
        3
102
RTVSPost2010PropOp43
 70
     0
102
RTVSPost2010Prop44ColorIndex
 90
        5
102
RTVSPost2010Prop44ColorRGB
 90
      255
102
RTVSPost2010PropOp44
 70
     0
102
RTVSPost2010Prop45
280
     0
102
RTVSPost2010PropOp45
 70
     0
102
RTVSPost2010Prop46
 90
       50
102
RTVSPost2010PropOp46
 70
     0
102
RTVSPost2010Prop47
 90
       50
102
RTVSPost2010PropOp47
 70
     0
102
RTVSPost2010Prop48
 90
       50
102
RTVSPost2010PropOp48
 70
     0
102
RTVSPost2010Prop49
280
     0
102
RTVSPost2010PropOp49
 70
     0
102
RTVSPost2010Prop50
 90
       50
102
RTVSPost2010PropOp50
 70
     0
102
RTVSPost2010Prop51ColorIndex
 90
      256
102
RTVSPost2010Prop51ColorRGB
 90
-16777216
102
RTVSPost2010PropOp51
 70
     0
102
RTVSPost2010Prop52
140
1.0
102
RTVSPost2010PropOp52
 70
     0
102
RTVSPost2010Prop53
 90
        2
102
RTVSPost2010PropOp53
 70
     0
102
RTVSPost2010Prop54
  1
strokes_ogs.tif
102
RTVSPost2010PropOp54
 70
     0
102
RTVSPost2010Prop55
280
     0
102
RTVSPost2010PropOp55
 70
     0
102
RTVSPost2010Prop56
140
1.0
102
RTVSPost2010PropOp56
 70
     0
102
RTVSPost2010Prop57
140
1.0
102
RTVSPost2010PropOp57
 70
     0
  0
XRECORD
  5
1646
102
{ACAD_REACTORS
330
1645
102
}
330
1645
100
AcDbXrecord
280
     1
102
RTVSPropertyOp0
 70
     1
102
RTVSPropertyOp1
 70
     1
102
RTVSPropertyOp2
 70
     1
102
RTVSPropertyOp3
 70
     1
102
RTVSPropertyOp4
 70
     1
102
RTVSPropertyOp5
 70
     1
102
RTVSPropertyOp6
 70
     1
102
RTVSPropertyOp7
 70
     1
102
RTVSPropertyOp8
 70
     1
102
RTVSPropertyOp9
 70
     1
102
RTVSPropertyOp10
 70
     1
102
RTVSPropertyOp11
 70
     1
102
RTVSPropertyOp12
 70
     1
102
RTVSPropertyOp13
 70
     1
102
RTVSPropertyOp14
 70
     1
102
RTVSPropertyOp15
 70
     1
102
RTVSPropertyOp16
 70
     1
102
RTVSPropertyOp17
 70
     1
102
RTVSPropertyOp18
 70
     1
102
RTVSPropertyOp19
 70
     1
102
RTVSPropertyOp20
 70
     1
102
RTVSPropertyOp21
 70
     1
102
RTVSPropertyOp22
 70
     1
102
RTVSPropertyOp23
 70
     1
102
RTVSPropertyOp24
 70
     1
102
RTVSPropertyOp25
 70
     1
102
RTVSPropertyOp26
 70
     1
102
RTVSPropertyOp27
 70
     1
102
RTVSPropertyOp28
 70
     1
102
RTVSPropertyOp29
 70
     1
102
RTVSPropertyOp30
 70
     1
102
RTVSPropertyOp31
 70
     1
102
RTVSPropertyOp32
 70
     1
102
RTVSPropertyOp33
 70
     1
102
RTVSPropertyOp34
 70
     1
102
RTVSPropertyOp35
 70
     1
102
RTVSPropertyOp36
 70
     1
102
RTVSPropertyOp37
 70
     1
102
RTVSPropertyOp38
 70
     1
102
RTVSPropertyOp39
 70
     1
102
RTVSPropertyOp40
 70
     1
102
RTVSPropertyOp41
 70
     1
102
RTVSPropertyOp42
 70
     1
102
RTVSPropertyOp43
 70
     1
102
RTVSPropertyOp44
 70
     1
102
RTVSPropertyOp45
 70
     1
102
RTVSPropertyOp46
 70
     1
102
RTVSPropertyOp47
 70
     1
102
RTVSPropertyOp48
 70
     1
102
RTVSPropertyOp49
 70
     1
102
RTVSPropertyOp50
 70
     1
102
RTVSPropertyOp51
 70
     0
102
RTVSPropertyOp52
 70
     0
102
RTVSPropertyOp53
 70
     1
102
RTVSPropertyOp54
 70
     1
102
RTVSPropertyOp55
 70
     1
102
RTVSPropertyOp56
 70
     1
102
RTVSPropertyOp57
 70
     1
102
RTVSPost2010Prop28
280
     0
102
RTVSPost2010PropOp28
 70
     1
102
RTVSPost2010Prop29
280
     1
102
RTVSPost2010PropOp29
 70
     1
102
RTVSPost2010Prop30
280
     1
102
RTVSPost2010PropOp30
 70
     1
102
RTVSPost2010Prop31
280
     0
102
RTVSPost2010PropOp31
 70
     1
102
RTVSPost2010Prop32
280
     0
102
RTVSPost2010PropOp32
 70
     1
102
RTVSPost2010Prop33
280
     0
102
RTVSPost2010PropOp33
 70
     1
102
RTVSPost2010Prop34
280
     0
102
RTVSPost2010PropOp34
 70
     1
102
RTVSPost2010Prop35
280
     0
102
RTVSPost2010PropOp35
 70
     1
102
RTVSPost2010Prop36
280
     0
102
RTVSPost2010PropOp36
 70
     1
102
RTVSPost2010Prop37
 90
       50
102
RTVSPost2010PropOp37
 70
     1
102
RTVSPost2010Prop38
140
0.0
102
RTVSPost2010PropOp38
 70
     1
102
RTVSPost2010Prop39
140
1.0
102
RTVSPost2010PropOp39
 70
     1
102
RTVSPost2010Prop40
 90
        0
102
RTVSPost2010PropOp40
 70
     1
102
RTVSPost2010Prop41ColorIndex
 90
       18
102
RTVSPost2010Prop41ColorRGB
 90
        0
102
RTVSPost2010PropOp41
 70
     1
102
RTVSPost2010Prop42
 90
       50
102
RTVSPost2010PropOp42
 70
     1
102
RTVSPost2010Prop43
 90
        3
102
RTVSPost2010PropOp43
 70
     1
102
RTVSPost2010Prop44ColorIndex
 90
        5
102
RTVSPost2010Prop44ColorRGB
 90
      255
102
RTVSPost2010PropOp44
 70
     1
102
RTVSPost2010Prop45
280
     0
102
RTVSPost2010PropOp45
 70
     1
102
RTVSPost2010Prop46
 90
       50
102
RTVSPost2010PropOp46
 70
     1
102
RTVSPost2010Prop47
 90
       50
102
RTVSPost2010PropOp47
 70
     1
102
RTVSPost2010Prop48
 90
       50
102
RTVSPost2010PropOp48
 70
     1
102
RTVSPost2010Prop49
280
     0
102
RTVSPost2010PropOp49
 70
     1
102
RTVSPost2010Prop50
 90
       50
102
RTVSPost2010PropOp50
 70
     1
102
RTVSPost2010Prop51ColorIndex
 90
      256
102
RTVSPost2010Prop51ColorRGB
 90
-16777216
102
RTVSPost2010PropOp51
 70
     0
102
RTVSPost2010Prop52
140
1.0
102
RTVSPost2010PropOp52
 70
     0
102
RTVSPost2010Prop53
 90
        2
102
RTVSPost2010PropOp53
 70
     1
102
RTVSPost2010Prop54
  1
strokes_ogs.tif
102
RTVSPost2010PropOp54
 70
     1
102
RTVSPost2010Prop55
280
     0
102
RTVSPost2010PropOp55
 70
     1
102
RTVSPost2010Prop56
140
1.0
102
RTVSPost2010PropOp56
 70
     1
102
RTVSPost2010Prop57
140
1.0
102
RTVSPost2010PropOp57
 70
     1
  0
XRECORD
  5
162A
102
{ACAD_REACTORS
330
1629
102
}
330
1629
100
AcDbXrecord
280
     1
102
RTVSPropertyOp0
 70
     1
102
RTVSPropertyOp1
 70
     1
102
RTVSPropertyOp2
 70
     1
102
RTVSPropertyOp3
 70
     1
102
RTVSPropertyOp4
 70
     1
102
RTVSPropertyOp5
 70
     1
102
RTVSPropertyOp6
 70
     1
102
RTVSPropertyOp7
 70
     1
102
RTVSPropertyOp8
 70
     1
102
RTVSPropertyOp9
 70
     1
102
RTVSPropertyOp10
 70
     1
102
RTVSPropertyOp11
 70
     1
102
RTVSPropertyOp12
 70
     1
102
RTVSPropertyOp13
 70
     1
102
RTVSPropertyOp14
 70
     1
102
RTVSPropertyOp15
 70
     1
102
RTVSPropertyOp16
 70
     1
102
RTVSPropertyOp17
 70
     1
102
RTVSPropertyOp18
 70
     1
102
RTVSPropertyOp19
 70
     1
102
RTVSPropertyOp20
 70
     1
102
RTVSPropertyOp21
 70
     1
102
RTVSPropertyOp22
 70
     1
102
RTVSPropertyOp23
 70
     1
102
RTVSPropertyOp24
 70
     1
102
RTVSPropertyOp25
 70
     1
102
RTVSPropertyOp26
 70
     1
102
RTVSPropertyOp27
 70
     1
102
RTVSPropertyOp28
 70
     1
102
RTVSPropertyOp29
 70
     1
102
RTVSPropertyOp30
 70
     1
102
RTVSPropertyOp31
 70
     1
102
RTVSPropertyOp32
 70
     1
102
RTVSPropertyOp33
 70
     1
102
RTVSPropertyOp34
 70
     1
102
RTVSPropertyOp35
 70
     1
102
RTVSPropertyOp36
 70
     1
102
RTVSPropertyOp37
 70
     1
102
RTVSPropertyOp38
 70
     1
102
RTVSPropertyOp39
 70
     1
102
RTVSPropertyOp40
 70
     1
102
RTVSPropertyOp41
 70
     1
102
RTVSPropertyOp42
 70
     1
102
RTVSPropertyOp43
 70
     1
102
RTVSPropertyOp44
 70
     1
102
RTVSPropertyOp45
 70
     1
102
RTVSPropertyOp46
 70
     1
102
RTVSPropertyOp47
 70
     1
102
RTVSPropertyOp48
 70
     1
102
RTVSPropertyOp49
 70
     1
102
RTVSPropertyOp50
 70
     1
102
RTVSPropertyOp51
 70
     0
102
RTVSPropertyOp52
 70
     0
102
RTVSPropertyOp53
 70
     1
102
RTVSPropertyOp54
 70
     1
102
RTVSPropertyOp55
 70
     1
102
RTVSPropertyOp56
 70
     1
102
RTVSPropertyOp57
 70
     1
102
RTVSPost2010Prop28
280
     0
102
RTVSPost2010PropOp28
 70
     1
102
RTVSPost2010Prop29
280
     1
102
RTVSPost2010PropOp29
 70
     1
102
RTVSPost2010Prop30
280
     1
102
RTVSPost2010PropOp30
 70
     1
102
RTVSPost2010Prop31
280
     0
102
RTVSPost2010PropOp31
 70
     1
102
RTVSPost2010Prop32
280
     0
102
RTVSPost2010PropOp32
 70
     1
102
RTVSPost2010Prop33
280
     0
102
RTVSPost2010PropOp33
 70
     1
102
RTVSPost2010Prop34
280
     0
102
RTVSPost2010PropOp34
 70
     1
102
RTVSPost2010Prop35
280
     0
102
RTVSPost2010PropOp35
 70
     1
102
RTVSPost2010Prop36
280
     0
102
RTVSPost2010PropOp36
 70
     1
102
RTVSPost2010Prop37
 90
       50
102
RTVSPost2010PropOp37
 70
     1
102
RTVSPost2010Prop38
140
0.0
102
RTVSPost2010PropOp38
 70
     1
102
RTVSPost2010Prop39
140
1.0
102
RTVSPost2010PropOp39
 70
     1
102
RTVSPost2010Prop40
 90
        0
102
RTVSPost2010PropOp40
 70
     1
102
RTVSPost2010Prop41ColorIndex
 90
       18
102
RTVSPost2010Prop41ColorRGB
 90
        0
102
RTVSPost2010PropOp41
 70
     1
102
RTVSPost2010Prop42
 90
       50
102
RTVSPost2010PropOp42
 70
     1
102
RTVSPost2010Prop43
 90
        3
102
RTVSPost2010PropOp43
 70
     1
102
RTVSPost2010Prop44ColorIndex
 90
        5
102
RTVSPost2010Prop44ColorRGB
 90
      255
102
RTVSPost2010PropOp44
 70
     1
102
RTVSPost2010Prop45
280
     0
102
RTVSPost2010PropOp45
 70
     1
102
RTVSPost2010Prop46
 90
       50
102
RTVSPost2010PropOp46
 70
     1
102
RTVSPost2010Prop47
 90
       50
102
RTVSPost2010PropOp47
 70
     1
102
RTVSPost2010Prop48
 90
       50
102
RTVSPost2010PropOp48
 70
     1
102
RTVSPost2010Prop49
280
     0
102
RTVSPost2010PropOp49
 70
     1
102
RTVSPost2010Prop50
 90
       50
102
RTVSPost2010PropOp50
 70
     1
102
RTVSPost2010Prop51ColorIndex
 90
      256
102
RTVSPost2010Prop51ColorRGB
 90
-16777216
102
RTVSPost2010PropOp51
 70
     0
102
RTVSPost2010Prop52
140
1.0
102
RTVSPost2010PropOp52
 70
     0
102
RTVSPost2010Prop53
 90
        2
102
RTVSPost2010PropOp53
 70
     1
102
RTVSPost2010Prop54
  1
strokes_ogs.tif
102
RTVSPost2010PropOp54
 70
     1
102
RTVSPost2010Prop55
280
     0
102
RTVSPost2010PropOp55
 70
     1
102
RTVSPost2010Prop56
140
1.0
102
RTVSPost2010PropOp56
 70
     1
102
RTVSPost2010Prop57
140
1.0
102
RTVSPost2010PropOp57
 70
     1
  0
XRECORD
  5
162C
102
{ACAD_REACTORS
330
162B
102
}
330
162B
100
AcDbXrecord
280
     1
102
RTVSPropertyOp0
 70
     1
102
RTVSPropertyOp1
 70
     1
102
RTVSPropertyOp2
 70
     1
102
RTVSPropertyOp3
 70
     1
102
RTVSPropertyOp4
 70
     1
102
RTVSPropertyOp5
 70
     1
102
RTVSPropertyOp6
 70
     1
102
RTVSPropertyOp7
 70
     1
102
RTVSPropertyOp8
 70
     1
102
RTVSPropertyOp9
 70
     1
102
RTVSPropertyOp10
 70
     1
102
RTVSPropertyOp11
 70
     1
102
RTVSPropertyOp12
 70
     1
102
RTVSPropertyOp13
 70
     1
102
RTVSPropertyOp14
 70
     1
102
RTVSPropertyOp15
 70
     1
102
RTVSPropertyOp16
 70
     1
102
RTVSPropertyOp17
 70
     1
102
RTVSPropertyOp18
 70
     1
102
RTVSPropertyOp19
 70
     1
102
RTVSPropertyOp20
 70
     1
102
RTVSPropertyOp21
 70
     1
102
RTVSPropertyOp22
 70
     1
102
RTVSPropertyOp23
 70
     1
102
RTVSPropertyOp24
 70
     1
102
RTVSPropertyOp25
 70
     1
102
RTVSPropertyOp26
 70
     1
102
RTVSPropertyOp27
 70
     1
102
RTVSPropertyOp28
 70
     1
102
RTVSPropertyOp29
 70
     1
102
RTVSPropertyOp30
 70
     1
102
RTVSPropertyOp31
 70
     1
102
RTVSPropertyOp32
 70
     1
102
RTVSPropertyOp33
 70
     1
102
RTVSPropertyOp34
 70
     1
102
RTVSPropertyOp35
 70
     1
102
RTVSPropertyOp36
 70
     1
102
RTVSPropertyOp37
 70
     1
102
RTVSPropertyOp38
 70
     1
102
RTVSPropertyOp39
 70
     1
102
RTVSPropertyOp40
 70
     1
102
RTVSPropertyOp41
 70
     1
102
RTVSPropertyOp42
 70
     1
102
RTVSPropertyOp43
 70
     1
102
RTVSPropertyOp44
 70
     1
102
RTVSPropertyOp45
 70
     1
102
RTVSPropertyOp46
 70
     1
102
RTVSPropertyOp47
 70
     1
102
RTVSPropertyOp48
 70
     1
102
RTVSPropertyOp49
 70
     1
102
RTVSPropertyOp50
 70
     1
102
RTVSPropertyOp51
 70
     0
102
RTVSPropertyOp52
 70
     0
102
RTVSPropertyOp53
 70
     1
102
RTVSPropertyOp54
 70
     1
102
RTVSPropertyOp55
 70
     1
102
RTVSPropertyOp56
 70
     1
102
RTVSPropertyOp57
 70
     1
102
RTVSPost2010Prop28
280
     0
102
RTVSPost2010PropOp28
 70
     1
102
RTVSPost2010Prop29
280
     1
102
RTVSPost2010PropOp29
 70
     1
102
RTVSPost2010Prop30
280
     1
102
RTVSPost2010PropOp30
 70
     1
102
RTVSPost2010Prop31
280
     0
102
RTVSPost2010PropOp31
 70
     1
102
RTVSPost2010Prop32
280
     0
102
RTVSPost2010PropOp32
 70
     1
102
RTVSPost2010Prop33
280
     0
102
RTVSPost2010PropOp33
 70
     1
102
RTVSPost2010Prop34
280
     0
102
RTVSPost2010PropOp34
 70
     1
102
RTVSPost2010Prop35
280
     0
102
RTVSPost2010PropOp35
 70
     1
102
RTVSPost2010Prop36
280
     0
102
RTVSPost2010PropOp36
 70
     1
102
RTVSPost2010Prop37
 90
       50
102
RTVSPost2010PropOp37
 70
     1
102
RTVSPost2010Prop38
140
0.0
102
RTVSPost2010PropOp38
 70
     1
102
RTVSPost2010Prop39
140
1.0
102
RTVSPost2010PropOp39
 70
     1
102
RTVSPost2010Prop40
 90
        0
102
RTVSPost2010PropOp40
 70
     1
102
RTVSPost2010Prop41ColorIndex
 90
       18
102
RTVSPost2010Prop41ColorRGB
 90
        0
102
RTVSPost2010PropOp41
 70
     1
102
RTVSPost2010Prop42
 90
       50
102
RTVSPost2010PropOp42
 70
     1
102
RTVSPost2010Prop43
 90
        3
102
RTVSPost2010PropOp43
 70
     1
102
RTVSPost2010Prop44ColorIndex
 90
        5
102
RTVSPost2010Prop44ColorRGB
 90
      255
102
RTVSPost2010PropOp44
 70
     1
102
RTVSPost2010Prop45
280
     0
102
RTVSPost2010PropOp45
 70
     1
102
RTVSPost2010Prop46
 90
       50
102
RTVSPost2010PropOp46
 70
     1
102
RTVSPost2010Prop47
 90
       50
102
RTVSPost2010PropOp47
 70
     1
102
RTVSPost2010Prop48
 90
       50
102
RTVSPost2010PropOp48
 70
     1
102
RTVSPost2010Prop49
280
     0
102
RTVSPost2010PropOp49
 70
     1
102
RTVSPost2010Prop50
 90
       50
102
RTVSPost2010PropOp50
 70
     1
102
RTVSPost2010Prop51ColorIndex
 90
      256
102
RTVSPost2010Prop51ColorRGB
 90
-16777216
102
RTVSPost2010PropOp51
 70
     0
102
RTVSPost2010Prop52
140
1.0
102
RTVSPost2010PropOp52
 70
     0
102
RTVSPost2010Prop53
 90
        2
102
RTVSPost2010PropOp53
 70
     1
102
RTVSPost2010Prop54
  1
strokes_ogs.tif
102
RTVSPost2010PropOp54
 70
     1
102
RTVSPost2010Prop55
280
     0
102
RTVSPost2010PropOp55
 70
     1
102
RTVSPost2010Prop56
140
1.0
102
RTVSPost2010PropOp56
 70
     1
102
RTVSPost2010Prop57
140
1.0
102
RTVSPost2010PropOp57
 70
     1
  0
XRECORD
  5
162E
102
{ACAD_REACTORS
330
162D
102
}
330
162D
100
AcDbXrecord
280
     1
102
RTVSPropertyOp0
 70
     1
102
RTVSPropertyOp1
 70
     1
102
RTVSPropertyOp2
 70
     1
102
RTVSPropertyOp3
 70
     1
102
RTVSPropertyOp4
 70
     1
102
RTVSPropertyOp5
 70
     1
102
RTVSPropertyOp6
 70
     1
102
RTVSPropertyOp7
 70
     1
102
RTVSPropertyOp8
 70
     1
102
RTVSPropertyOp9
 70
     1
102
RTVSPropertyOp10
 70
     1
102
RTVSPropertyOp11
 70
     1
102
RTVSPropertyOp12
 70
     1
102
RTVSPropertyOp13
 70
     1
102
RTVSPropertyOp14
 70
     1
102
RTVSPropertyOp15
 70
     1
102
RTVSPropertyOp16
 70
     1
102
RTVSPropertyOp17
 70
     1
102
RTVSPropertyOp18
 70
     1
102
RTVSPropertyOp19
 70
     1
102
RTVSPropertyOp20
 70
     1
102
RTVSPropertyOp21
 70
     1
102
RTVSPropertyOp22
 70
     1
102
RTVSPropertyOp23
 70
     1
102
RTVSPropertyOp24
 70
     1
102
RTVSPropertyOp25
 70
     1
102
RTVSPropertyOp26
 70
     1
102
RTVSPropertyOp27
 70
     1
102
RTVSPropertyOp28
 70
     1
102
RTVSPropertyOp29
 70
     1
102
RTVSPropertyOp30
 70
     1
102
RTVSPropertyOp31
 70
     1
102
RTVSPropertyOp32
 70
     1
102
RTVSPropertyOp33
 70
     1
102
RTVSPropertyOp34
 70
     1
102
RTVSPropertyOp35
 70
     1
102
RTVSPropertyOp36
 70
     1
102
RTVSPropertyOp37
 70
     1
102
RTVSPropertyOp38
 70
     1
102
RTVSPropertyOp39
 70
     1
102
RTVSPropertyOp40
 70
     1
102
RTVSPropertyOp41
 70
     1
102
RTVSPropertyOp42
 70
     1
102
RTVSPropertyOp43
 70
     1
102
RTVSPropertyOp44
 70
     1
102
RTVSPropertyOp45
 70
     1
102
RTVSPropertyOp46
 70
     1
102
RTVSPropertyOp47
 70
     1
102
RTVSPropertyOp48
 70
     1
102
RTVSPropertyOp49
 70
     1
102
RTVSPropertyOp50
 70
     1
102
RTVSPropertyOp51
 70
     0
102
RTVSPropertyOp52
 70
     0
102
RTVSPropertyOp53
 70
     1
102
RTVSPropertyOp54
 70
     1
102
RTVSPropertyOp55
 70
     1
102
RTVSPropertyOp56
 70
     1
102
RTVSPropertyOp57
 70
     1
102
RTVSPost2010Prop28
280
     0
102
RTVSPost2010PropOp28
 70
     1
102
RTVSPost2010Prop29
280
     1
102
RTVSPost2010PropOp29
 70
     1
102
RTVSPost2010Prop30
280
     1
102
RTVSPost2010PropOp30
 70
     1
102
RTVSPost2010Prop31
280
     0
102
RTVSPost2010PropOp31
 70
     1
102
RTVSPost2010Prop32
280
     0
102
RTVSPost2010PropOp32
 70
     1
102
RTVSPost2010Prop33
280
     0
102
RTVSPost2010PropOp33
 70
     1
102
RTVSPost2010Prop34
280
     0
102
RTVSPost2010PropOp34
 70
     1
102
RTVSPost2010Prop35
280
     0
102
RTVSPost2010PropOp35
 70
     1
102
RTVSPost2010Prop36
280
     0
102
RTVSPost2010PropOp36
 70
     1
102
RTVSPost2010Prop37
 90
       50
102
RTVSPost2010PropOp37
 70
     1
102
RTVSPost2010Prop38
140
0.0
102
RTVSPost2010PropOp38
 70
     1
102
RTVSPost2010Prop39
140
1.0
102
RTVSPost2010PropOp39
 70
     1
102
RTVSPost2010Prop40
 90
        0
102
RTVSPost2010PropOp40
 70
     1
102
RTVSPost2010Prop41ColorIndex
 90
       18
102
RTVSPost2010Prop41ColorRGB
 90
        0
102
RTVSPost2010PropOp41
 70
     1
102
RTVSPost2010Prop42
 90
       50
102
RTVSPost2010PropOp42
 70
     1
102
RTVSPost2010Prop43
 90
        3
102
RTVSPost2010PropOp43
 70
     1
102
RTVSPost2010Prop44ColorIndex
 90
        5
102
RTVSPost2010Prop44ColorRGB
 90
      255
102
RTVSPost2010PropOp44
 70
     1
102
RTVSPost2010Prop45
280
     0
102
RTVSPost2010PropOp45
 70
     1
102
RTVSPost2010Prop46
 90
       50
102
RTVSPost2010PropOp46
 70
     1
102
RTVSPost2010Prop47
 90
       50
102
RTVSPost2010PropOp47
 70
     1
102
RTVSPost2010Prop48
 90
       50
102
RTVSPost2010PropOp48
 70
     1
102
RTVSPost2010Prop49
280
     0
102
RTVSPost2010PropOp49
 70
     1
102
RTVSPost2010Prop50
 90
       50
102
RTVSPost2010PropOp50
 70
     1
102
RTVSPost2010Prop51ColorIndex
 90
      256
102
RTVSPost2010Prop51ColorRGB
 90
-16777216
102
RTVSPost2010PropOp51
 70
     0
102
RTVSPost2010Prop52
140
1.0
102
RTVSPost2010PropOp52
 70
     0
102
RTVSPost2010Prop53
 90
        2
102
RTVSPost2010PropOp53
 70
     1
102
RTVSPost2010Prop54
  1
strokes_ogs.tif
102
RTVSPost2010PropOp54
 70
     1
102
RTVSPost2010Prop55
280
     0
102
RTVSPost2010PropOp55
 70
     1
102
RTVSPost2010Prop56
140
1.0
102
RTVSPost2010PropOp56
 70
     1
102
RTVSPost2010Prop57
140
1.0
102
RTVSPost2010PropOp57
 70
     1
  0
XRECORD
  5
1630
102
{ACAD_REACTORS
330
162F
102
}
330
162F
100
AcDbXrecord
280
     1
102
RTVSPropertyOp0
 70
     1
102
RTVSPropertyOp1
 70
     1
102
RTVSPropertyOp2
 70
     1
102
RTVSPropertyOp3
 70
     1
102
RTVSPropertyOp4
 70
     1
102
RTVSPropertyOp5
 70
     1
102
RTVSPropertyOp6
 70
     1
102
RTVSPropertyOp7
 70
     1
102
RTVSPropertyOp8
 70
     1
102
RTVSPropertyOp9
 70
     1
102
RTVSPropertyOp10
 70
     1
102
RTVSPropertyOp11
 70
     1
102
RTVSPropertyOp12
 70
     1
102
RTVSPropertyOp13
 70
     1
102
RTVSPropertyOp14
 70
     1
102
RTVSPropertyOp15
 70
     1
102
RTVSPropertyOp16
 70
     1
102
RTVSPropertyOp17
 70
     1
102
RTVSPropertyOp18
 70
     1
102
RTVSPropertyOp19
 70
     1
102
RTVSPropertyOp20
 70
     1
102
RTVSPropertyOp21
 70
     1
102
RTVSPropertyOp22
 70
     1
102
RTVSPropertyOp23
 70
     1
102
RTVSPropertyOp24
 70
     1
102
RTVSPropertyOp25
 70
     1
102
RTVSPropertyOp26
 70
     1
102
RTVSPropertyOp27
 70
     1
102
RTVSPropertyOp28
 70
     1
102
RTVSPropertyOp29
 70
     1
102
RTVSPropertyOp30
 70
     1
102
RTVSPropertyOp31
 70
     1
102
RTVSPropertyOp32
 70
     1
102
RTVSPropertyOp33
 70
     1
102
RTVSPropertyOp34
 70
     1
102
RTVSPropertyOp35
 70
     1
102
RTVSPropertyOp36
 70
     1
102
RTVSPropertyOp37
 70
     1
102
RTVSPropertyOp38
 70
     1
102
RTVSPropertyOp39
 70
     1
102
RTVSPropertyOp40
 70
     1
102
RTVSPropertyOp41
 70
     1
102
RTVSPropertyOp42
 70
     1
102
RTVSPropertyOp43
 70
     1
102
RTVSPropertyOp44
 70
     1
102
RTVSPropertyOp45
 70
     1
102
RTVSPropertyOp46
 70
     1
102
RTVSPropertyOp47
 70
     1
102
RTVSPropertyOp48
 70
     1
102
RTVSPropertyOp49
 70
     1
102
RTVSPropertyOp50
 70
     1
102
RTVSPropertyOp51
 70
     0
102
RTVSPropertyOp52
 70
     0
102
RTVSPropertyOp53
 70
     1
102
RTVSPropertyOp54
 70
     1
102
RTVSPropertyOp55
 70
     1
102
RTVSPropertyOp56
 70
     1
102
RTVSPropertyOp57
 70
     1
102
RTVSPost2010Prop28
280
     0
102
RTVSPost2010PropOp28
 70
     1
102
RTVSPost2010Prop29
280
     1
102
RTVSPost2010PropOp29
 70
     1
102
RTVSPost2010Prop30
280
     1
102
RTVSPost2010PropOp30
 70
     1
102
RTVSPost2010Prop31
280
     0
102
RTVSPost2010PropOp31
 70
     1
102
RTVSPost2010Prop32
280
     0
102
RTVSPost2010PropOp32
 70
     1
102
RTVSPost2010Prop33
280
     0
102
RTVSPost2010PropOp33
 70
     1
102
RTVSPost2010Prop34
280
     0
102
RTVSPost2010PropOp34
 70
     1
102
RTVSPost2010Prop35
280
     0
102
RTVSPost2010PropOp35
 70
     1
102
RTVSPost2010Prop36
280
     0
102
RTVSPost2010PropOp36
 70
     1
102
RTVSPost2010Prop37
 90
       50
102
RTVSPost2010PropOp37
 70
     1
102
RTVSPost2010Prop38
140
0.0
102
RTVSPost2010PropOp38
 70
     1
102
RTVSPost2010Prop39
140
1.0
102
RTVSPost2010PropOp39
 70
     1
102
RTVSPost2010Prop40
 90
        0
102
RTVSPost2010PropOp40
 70
     1
102
RTVSPost2010Prop41ColorIndex
 90
       18
102
RTVSPost2010Prop41ColorRGB
 90
        0
102
RTVSPost2010PropOp41
 70
     1
102
RTVSPost2010Prop42
 90
       50
102
RTVSPost2010PropOp42
 70
     1
102
RTVSPost2010Prop43
 90
        3
102
RTVSPost2010PropOp43
 70
     1
102
RTVSPost2010Prop44ColorIndex
 90
        5
102
RTVSPost2010Prop44ColorRGB
 90
      255
102
RTVSPost2010PropOp44
 70
     1
102
RTVSPost2010Prop45
280
     0
102
RTVSPost2010PropOp45
 70
     1
102
RTVSPost2010Prop46
 90
       50
102
RTVSPost2010PropOp46
 70
     1
102
RTVSPost2010Prop47
 90
       50
102
RTVSPost2010PropOp47
 70
     1
102
RTVSPost2010Prop48
 90
       50
102
RTVSPost2010PropOp48
 70
     1
102
RTVSPost2010Prop49
280
     0
102
RTVSPost2010PropOp49
 70
     1
102
RTVSPost2010Prop50
 90
       50
102
RTVSPost2010PropOp50
 70
     1
102
RTVSPost2010Prop51ColorIndex
 90
      256
102
RTVSPost2010Prop51ColorRGB
 90
-16777216
102
RTVSPost2010PropOp51
 70
     0
102
RTVSPost2010Prop52
140
1.0
102
RTVSPost2010PropOp52
 70
     0
102
RTVSPost2010Prop53
 90
        2
102
RTVSPost2010PropOp53
 70
     1
102
RTVSPost2010Prop54
  1
strokes_ogs.tif
102
RTVSPost2010PropOp54
 70
     1
102
RTVSPost2010Prop55
280
     0
102
RTVSPost2010PropOp55
 70
     1
102
RTVSPost2010Prop56
140
1.0
102
RTVSPost2010PropOp56
 70
     1
102
RTVSPost2010Prop57
140
1.0
102
RTVSPost2010PropOp57
 70
     1
  0
XRECORD
  5
1636
102
{ACAD_REACTORS
330
1635
102
}
330
1635
100
AcDbXrecord
280
     1
102
RTVSPropertyOp0
 70
     1
102
RTVSPropertyOp1
 70
     1
102
RTVSPropertyOp2
 70
     1
102
RTVSPropertyOp3
 70
     1
102
RTVSPropertyOp4
 70
     1
102
RTVSPropertyOp5
 70
     1
102
RTVSPropertyOp6
 70
     1
102
RTVSPropertyOp7
 70
     1
102
RTVSPropertyOp8
 70
     1
102
RTVSPropertyOp9
 70
     1
102
RTVSPropertyOp10
 70
     1
102
RTVSPropertyOp11
 70
     1
102
RTVSPropertyOp12
 70
     1
102
RTVSPropertyOp13
 70
     1
102
RTVSPropertyOp14
 70
     1
102
RTVSPropertyOp15
 70
     1
102
RTVSPropertyOp16
 70
     1
102
RTVSPropertyOp17
 70
     1
102
RTVSPropertyOp18
 70
     1
102
RTVSPropertyOp19
 70
     1
102
RTVSPropertyOp20
 70
     1
102
RTVSPropertyOp21
 70
     1
102
RTVSPropertyOp22
 70
     1
102
RTVSPropertyOp23
 70
     1
102
RTVSPropertyOp24
 70
     1
102
RTVSPropertyOp25
 70
     1
102
RTVSPropertyOp26
 70
     1
102
RTVSPropertyOp27
 70
     1
102
RTVSPropertyOp28
 70
     1
102
RTVSPropertyOp29
 70
     1
102
RTVSPropertyOp30
 70
     1
102
RTVSPropertyOp31
 70
     1
102
RTVSPropertyOp32
 70
     1
102
RTVSPropertyOp33
 70
     1
102
RTVSPropertyOp34
 70
     1
102
RTVSPropertyOp35
 70
     1
102
RTVSPropertyOp36
 70
     1
102
RTVSPropertyOp37
 70
     1
102
RTVSPropertyOp38
 70
     1
102
RTVSPropertyOp39
 70
     1
102
RTVSPropertyOp40
 70
     1
102
RTVSPropertyOp41
 70
     1
102
RTVSPropertyOp42
 70
     1
102
RTVSPropertyOp43
 70
     1
102
RTVSPropertyOp44
 70
     1
102
RTVSPropertyOp45
 70
     1
102
RTVSPropertyOp46
 70
     1
102
RTVSPropertyOp47
 70
     1
102
RTVSPropertyOp48
 70
     1
102
RTVSPropertyOp49
 70
     1
102
RTVSPropertyOp50
 70
     1
102
RTVSPropertyOp51
 70
     0
102
RTVSPropertyOp52
 70
     0
102
RTVSPropertyOp53
 70
     1
102
RTVSPropertyOp54
 70
     1
102
RTVSPropertyOp55
 70
     1
102
RTVSPropertyOp56
 70
     1
102
RTVSPropertyOp57
 70
     1
102
RTVSPost2010Prop28
280
     0
102
RTVSPost2010PropOp28
 70
     1
102
RTVSPost2010Prop29
280
     1
102
RTVSPost2010PropOp29
 70
     1
102
RTVSPost2010Prop30
280
     1
102
RTVSPost2010PropOp30
 70
     1
102
RTVSPost2010Prop31
280
     0
102
RTVSPost2010PropOp31
 70
     1
102
RTVSPost2010Prop32
280
     0
102
RTVSPost2010PropOp32
 70
     1
102
RTVSPost2010Prop33
280
     0
102
RTVSPost2010PropOp33
 70
     1
102
RTVSPost2010Prop34
280
     0
102
RTVSPost2010PropOp34
 70
     1
102
RTVSPost2010Prop35
280
     0
102
RTVSPost2010PropOp35
 70
     1
102
RTVSPost2010Prop36
280
     0
102
RTVSPost2010PropOp36
 70
     1
102
RTVSPost2010Prop37
 90
       50
102
RTVSPost2010PropOp37
 70
     1
102
RTVSPost2010Prop38
140
0.0
102
RTVSPost2010PropOp38
 70
     1
102
RTVSPost2010Prop39
140
1.0
102
RTVSPost2010PropOp39
 70
     1
102
RTVSPost2010Prop40
 90
        0
102
RTVSPost2010PropOp40
 70
     1
102
RTVSPost2010Prop41ColorIndex
 90
       18
102
RTVSPost2010Prop41ColorRGB
 90
        0
102
RTVSPost2010PropOp41
 70
     1
102
RTVSPost2010Prop42
 90
       50
102
RTVSPost2010PropOp42
 70
     1
102
RTVSPost2010Prop43
 90
        3
102
RTVSPost2010PropOp43
 70
     1
102
RTVSPost2010Prop44ColorIndex
 90
        5
102
RTVSPost2010Prop44ColorRGB
 90
      255
102
RTVSPost2010PropOp44
 70
     1
102
RTVSPost2010Prop45
280
     0
102
RTVSPost2010PropOp45
 70
     1
102
RTVSPost2010Prop46
 90
       50
102
RTVSPost2010PropOp46
 70
     1
102
RTVSPost2010Prop47
 90
       50
102
RTVSPost2010PropOp47
 70
     1
102
RTVSPost2010Prop48
 90
       50
102
RTVSPost2010PropOp48
 70
     1
102
RTVSPost2010Prop49
280
     0
102
RTVSPost2010PropOp49
 70
     1
102
RTVSPost2010Prop50
 90
       50
102
RTVSPost2010PropOp50
 70
     1
102
RTVSPost2010Prop51ColorIndex
 90
      256
102
RTVSPost2010Prop51ColorRGB
 90
-16777216
102
RTVSPost2010PropOp51
 70
     0
102
RTVSPost2010Prop52
140
1.0
102
RTVSPost2010PropOp52
 70
     0
102
RTVSPost2010Prop53
 90
        2
102
RTVSPost2010PropOp53
 70
     1
102
RTVSPost2010Prop54
  1
strokes_ogs.tif
102
RTVSPost2010PropOp54
 70
     1
102
RTVSPost2010Prop55
280
     0
102
RTVSPost2010PropOp55
 70
     1
102
RTVSPost2010Prop56
140
1.0
102
RTVSPost2010PropOp56
 70
     1
102
RTVSPost2010Prop57
140
1.0
102
RTVSPost2010PropOp57
 70
     1
  0
XRECORD
  5
164A
102
{ACAD_REACTORS
330
1649
102
}
330
1649
100
AcDbXrecord
280
     1
102
RTVSPropertyOp0
 70
     0
102
RTVSPropertyOp1
 70
     0
102
RTVSPropertyOp2
 70
     0
102
RTVSPropertyOp3
 70
     0
102
RTVSPropertyOp4
 70
     0
102
RTVSPropertyOp5
 70
     0
102
RTVSPropertyOp6
 70
     0
102
RTVSPropertyOp7
 70
     0
102
RTVSPropertyOp8
 70
     0
102
RTVSPropertyOp9
 70
     0
102
RTVSPropertyOp10
 70
     0
102
RTVSPropertyOp11
 70
     0
102
RTVSPropertyOp12
 70
     0
102
RTVSPropertyOp13
 70
     0
102
RTVSPropertyOp14
 70
     2
102
RTVSPropertyOp15
 70
     0
102
RTVSPropertyOp16
 70
     0
102
RTVSPropertyOp17
 70
     0
102
RTVSPropertyOp18
 70
     0
102
RTVSPropertyOp19
 70
     0
102
RTVSPropertyOp20
 70
     0
102
RTVSPropertyOp21
 70
     0
102
RTVSPropertyOp22
 70
     0
102
RTVSPropertyOp23
 70
     0
102
RTVSPropertyOp24
 70
     0
102
RTVSPropertyOp25
 70
     0
102
RTVSPropertyOp26
 70
     0
102
RTVSPropertyOp27
 70
     0
102
RTVSPropertyOp28
 70
     0
102
RTVSPropertyOp29
 70
     0
102
RTVSPropertyOp30
 70
     0
102
RTVSPropertyOp31
 70
     0
102
RTVSPropertyOp32
 70
     0
102
RTVSPropertyOp33
 70
     0
102
RTVSPropertyOp34
 70
     0
102
RTVSPropertyOp35
 70
     0
102
RTVSPropertyOp36
 70
     0
102
RTVSPropertyOp37
 70
     0
102
RTVSPropertyOp38
 70
     0
102
RTVSPropertyOp39
 70
     0
102
RTVSPropertyOp40
 70
     0
102
RTVSPropertyOp41
 70
     0
102
RTVSPropertyOp42
 70
     0
102
RTVSPropertyOp43
 70
     0
102
RTVSPropertyOp44
 70
     0
102
RTVSPropertyOp45
 70
     0
102
RTVSPropertyOp46
 70
     0
102
RTVSPropertyOp47
 70
     0
102
RTVSPropertyOp48
 70
     0
102
RTVSPropertyOp49
 70
     0
102
RTVSPropertyOp50
 70
     0
102
RTVSPropertyOp51
 70
     0
102
RTVSPropertyOp52
 70
     0
102
RTVSPropertyOp53
 70
     0
102
RTVSPropertyOp54
 70
     0
102
RTVSPropertyOp55
 70
     0
102
RTVSPropertyOp56
 70
     0
102
RTVSPropertyOp57
 70
     0
102
RTVSPost2010Prop28
280
     0
102
RTVSPost2010PropOp28
 70
     0
102
RTVSPost2010Prop29
280
     1
102
RTVSPost2010PropOp29
 70
     0
102
RTVSPost2010Prop30
280
     1
102
RTVSPost2010PropOp30
 70
     0
102
RTVSPost2010Prop31
280
     0
102
RTVSPost2010PropOp31
 70
     0
102
RTVSPost2010Prop32
280
     0
102
RTVSPost2010PropOp32
 70
     0
102
RTVSPost2010Prop33
280
     0
102
RTVSPost2010PropOp33
 70
     0
102
RTVSPost2010Prop34
280
     0
102
RTVSPost2010PropOp34
 70
     0
102
RTVSPost2010Prop35
280
     0
102
RTVSPost2010PropOp35
 70
     0
102
RTVSPost2010Prop36
280
     0
102
RTVSPost2010PropOp36
 70
     0
102
RTVSPost2010Prop37
 90
       50
102
RTVSPost2010PropOp37
 70
     0
102
RTVSPost2010Prop38
140
0.0
102
RTVSPost2010PropOp38
 70
     0
102
RTVSPost2010Prop39
140
1.0
102
RTVSPost2010PropOp39
 70
     0
102
RTVSPost2010Prop40
 90
        0
102
RTVSPost2010PropOp40
 70
     0
102
RTVSPost2010Prop41ColorIndex
 90
       18
102
RTVSPost2010Prop41ColorRGB
 90
        0
102
RTVSPost2010PropOp41
 70
     0
102
RTVSPost2010Prop42
 90
       50
102
RTVSPost2010PropOp42
 70
     0
102
RTVSPost2010Prop43
 90
        3
102
RTVSPost2010PropOp43
 70
     0
102
RTVSPost2010Prop44ColorIndex
 90
        5
102
RTVSPost2010Prop44ColorRGB
 90
      255
102
RTVSPost2010PropOp44
 70
     0
102
RTVSPost2010Prop45
280
     0
102
RTVSPost2010PropOp45
 70
     0
102
RTVSPost2010Prop46
 90
       50
102
RTVSPost2010PropOp46
 70
     0
102
RTVSPost2010Prop47
 90
       50
102
RTVSPost2010PropOp47
 70
     0
102
RTVSPost2010Prop48
 90
       50
102
RTVSPost2010PropOp48
 70
     0
102
RTVSPost2010Prop49
280
     0
102
RTVSPost2010PropOp49
 70
     0
102
RTVSPost2010Prop50
 90
       50
102
RTVSPost2010PropOp50
 70
     0
102
RTVSPost2010Prop51ColorIndex
 90
      256
102
RTVSPost2010Prop51ColorRGB
 90
-16777216
102
RTVSPost2010PropOp51
 70
     0
102
RTVSPost2010Prop52
140
1.0
102
RTVSPost2010PropOp52
 70
     0
102
RTVSPost2010Prop53
 90
        2
102
RTVSPost2010PropOp53
 70
     0
102
RTVSPost2010Prop54
  1
strokes_ogs.tif
102
RTVSPost2010PropOp54
 70
     0
102
RTVSPost2010Prop55
280
     0
102
RTVSPost2010PropOp55
 70
     0
102
RTVSPost2010Prop56
140
1.0
102
RTVSPost2010PropOp56
 70
     0
102
RTVSPost2010Prop57
140
1.0
102
RTVSPost2010PropOp57
 70
     0
  0
XRECORD
  5
1644
102
{ACAD_REACTORS
330
1643
102
}
330
1643
100
AcDbXrecord
280
     1
102
RTVSPropertyOp0
 70
     1
102
RTVSPropertyOp1
 70
     1
102
RTVSPropertyOp2
 70
     1
102
RTVSPropertyOp3
 70
     1
102
RTVSPropertyOp4
 70
     1
102
RTVSPropertyOp5
 70
     1
102
RTVSPropertyOp6
 70
     1
102
RTVSPropertyOp7
 70
     1
102
RTVSPropertyOp8
 70
     1
102
RTVSPropertyOp9
 70
     1
102
RTVSPropertyOp10
 70
     1
102
RTVSPropertyOp11
 70
     1
102
RTVSPropertyOp12
 70
     1
102
RTVSPropertyOp13
 70
     1
102
RTVSPropertyOp14
 70
     1
102
RTVSPropertyOp15
 70
     1
102
RTVSPropertyOp16
 70
     1
102
RTVSPropertyOp17
 70
     1
102
RTVSPropertyOp18
 70
     1
102
RTVSPropertyOp19
 70
     1
102
RTVSPropertyOp20
 70
     1
102
RTVSPropertyOp21
 70
     1
102
RTVSPropertyOp22
 70
     1
102
RTVSPropertyOp23
 70
     1
102
RTVSPropertyOp24
 70
     1
102
RTVSPropertyOp25
 70
     1
102
RTVSPropertyOp26
 70
     1
102
RTVSPropertyOp27
 70
     1
102
RTVSPropertyOp28
 70
     1
102
RTVSPropertyOp29
 70
     1
102
RTVSPropertyOp30
 70
     1
102
RTVSPropertyOp31
 70
     1
102
RTVSPropertyOp32
 70
     1
102
RTVSPropertyOp33
 70
     1
102
RTVSPropertyOp34
 70
     1
102
RTVSPropertyOp35
 70
     1
102
RTVSPropertyOp36
 70
     1
102
RTVSPropertyOp37
 70
     1
102
RTVSPropertyOp38
 70
     1
102
RTVSPropertyOp39
 70
     1
102
RTVSPropertyOp40
 70
     1
102
RTVSPropertyOp41
 70
     1
102
RTVSPropertyOp42
 70
     1
102
RTVSPropertyOp43
 70
     1
102
RTVSPropertyOp44
 70
     1
102
RTVSPropertyOp45
 70
     1
102
RTVSPropertyOp46
 70
     1
102
RTVSPropertyOp47
 70
     1
102
RTVSPropertyOp48
 70
     1
102
RTVSPropertyOp49
 70
     1
102
RTVSPropertyOp50
 70
     1
102
RTVSPropertyOp51
 70
     0
102
RTVSPropertyOp52
 70
     0
102
RTVSPropertyOp53
 70
     1
102
RTVSPropertyOp54
 70
     1
102
RTVSPropertyOp55
 70
     1
102
RTVSPropertyOp56
 70
     1
102
RTVSPropertyOp57
 70
     1
102
RTVSPost2010Prop28
280
     0
102
RTVSPost2010PropOp28
 70
     1
102
RTVSPost2010Prop29
280
     1
102
RTVSPost2010PropOp29
 70
     1
102
RTVSPost2010Prop30
280
     1
102
RTVSPost2010PropOp30
 70
     1
102
RTVSPost2010Prop31
280
     0
102
RTVSPost2010PropOp31
 70
     1
102
RTVSPost2010Prop32
280
     0
102
RTVSPost2010PropOp32
 70
     1
102
RTVSPost2010Prop33
280
     0
102
RTVSPost2010PropOp33
 70
     1
102
RTVSPost2010Prop34
280
     0
102
RTVSPost2010PropOp34
 70
     1
102
RTVSPost2010Prop35
280
     0
102
RTVSPost2010PropOp35
 70
     1
102
RTVSPost2010Prop36
280
     0
102
RTVSPost2010PropOp36
 70
     1
102
RTVSPost2010Prop37
 90
       50
102
RTVSPost2010PropOp37
 70
     1
102
RTVSPost2010Prop38
140
0.0
102
RTVSPost2010PropOp38
 70
     1
102
RTVSPost2010Prop39
140
1.0
102
RTVSPost2010PropOp39
 70
     1
102
RTVSPost2010Prop40
 90
        0
102
RTVSPost2010PropOp40
 70
     1
102
RTVSPost2010Prop41ColorIndex
 90
       18
102
RTVSPost2010Prop41ColorRGB
 90
        0
102
RTVSPost2010PropOp41
 70
     1
102
RTVSPost2010Prop42
 90
       50
102
RTVSPost2010PropOp42
 70
     1
102
RTVSPost2010Prop43
 90
        3
102
RTVSPost2010PropOp43
 70
     1
102
RTVSPost2010Prop44ColorIndex
 90
        5
102
RTVSPost2010Prop44ColorRGB
 90
      255
102
RTVSPost2010PropOp44
 70
     1
102
RTVSPost2010Prop45
280
     0
102
RTVSPost2010PropOp45
 70
     1
102
RTVSPost2010Prop46
 90
       50
102
RTVSPost2010PropOp46
 70
     1
102
RTVSPost2010Prop47
 90
       50
102
RTVSPost2010PropOp47
 70
     1
102
RTVSPost2010Prop48
 90
       50
102
RTVSPost2010PropOp48
 70
     1
102
RTVSPost2010Prop49
280
     0
102
RTVSPost2010PropOp49
 70
     1
102
RTVSPost2010Prop50
 90
       50
102
RTVSPost2010PropOp50
 70
     1
102
RTVSPost2010Prop51ColorIndex
 90
      256
102
RTVSPost2010Prop51ColorRGB
 90
-16777216
102
RTVSPost2010PropOp51
 70
     0
102
RTVSPost2010Prop52
140
1.0
102
RTVSPost2010PropOp52
 70
     0
102
RTVSPost2010Prop53
 90
        2
102
RTVSPost2010PropOp53
 70
     1
102
RTVSPost2010Prop54
  1
strokes_ogs.tif
102
RTVSPost2010PropOp54
 70
     1
102
RTVSPost2010Prop55
280
     0
102
RTVSPost2010PropOp55
 70
     1
102
RTVSPost2010Prop56
140
1.0
102
RTVSPost2010PropOp56
 70
     1
102
RTVSPost2010Prop57
140
1.0
102
RTVSPost2010PropOp57
 70
     1
  0
XRECORD
  5
164C
102
{ACAD_REACTORS
330
164B
102
}
330
164B
100
AcDbXrecord
280
     1
102
RTVSPropertyOp0
 70
     0
102
RTVSPropertyOp1
 70
     0
102
RTVSPropertyOp2
 70
     0
102
RTVSPropertyOp3
 70
     0
102
RTVSPropertyOp4
 70
     0
102
RTVSPropertyOp5
 70
     0
102
RTVSPropertyOp6
 70
     0
102
RTVSPropertyOp7
 70
     0
102
RTVSPropertyOp8
 70
     0
102
RTVSPropertyOp9
 70
     0
102
RTVSPropertyOp10
 70
     0
102
RTVSPropertyOp11
 70
     0
102
RTVSPropertyOp12
 70
     0
102
RTVSPropertyOp13
 70
     0
102
RTVSPropertyOp14
 70
     2
102
RTVSPropertyOp15
 70
     0
102
RTVSPropertyOp16
 70
     0
102
RTVSPropertyOp17
 70
     0
102
RTVSPropertyOp18
 70
     0
102
RTVSPropertyOp19
 70
     0
102
RTVSPropertyOp20
 70
     0
102
RTVSPropertyOp21
 70
     0
102
RTVSPropertyOp22
 70
     0
102
RTVSPropertyOp23
 70
     0
102
RTVSPropertyOp24
 70
     0
102
RTVSPropertyOp25
 70
     0
102
RTVSPropertyOp26
 70
     0
102
RTVSPropertyOp27
 70
     0
102
RTVSPropertyOp28
 70
     0
102
RTVSPropertyOp29
 70
     0
102
RTVSPropertyOp30
 70
     0
102
RTVSPropertyOp31
 70
     0
102
RTVSPropertyOp32
 70
     0
102
RTVSPropertyOp33
 70
     0
102
RTVSPropertyOp34
 70
     0
102
RTVSPropertyOp35
 70
     0
102
RTVSPropertyOp36
 70
     0
102
RTVSPropertyOp37
 70
     0
102
RTVSPropertyOp38
 70
     0
102
RTVSPropertyOp39
 70
     0
102
RTVSPropertyOp40
 70
     0
102
RTVSPropertyOp41
 70
     0
102
RTVSPropertyOp42
 70
     0
102
RTVSPropertyOp43
 70
     0
102
RTVSPropertyOp44
 70
     0
102
RTVSPropertyOp45
 70
     0
102
RTVSPropertyOp46
 70
     0
102
RTVSPropertyOp47
 70
     0
102
RTVSPropertyOp48
 70
     0
102
RTVSPropertyOp49
 70
     0
102
RTVSPropertyOp50
 70
     0
102
RTVSPropertyOp51
 70
     0
102
RTVSPropertyOp52
 70
     0
102
RTVSPropertyOp53
 70
     0
102
RTVSPropertyOp54
 70
     0
102
RTVSPropertyOp55
 70
     0
102
RTVSPropertyOp56
 70
     0
102
RTVSPropertyOp57
 70
     0
102
RTVSPost2010Prop28
280
     0
102
RTVSPost2010PropOp28
 70
     0
102
RTVSPost2010Prop29
280
     1
102
RTVSPost2010PropOp29
 70
     0
102
RTVSPost2010Prop30
280
     1
102
RTVSPost2010PropOp30
 70
     0
102
RTVSPost2010Prop31
280
     0
102
RTVSPost2010PropOp31
 70
     0
102
RTVSPost2010Prop32
280
     0
102
RTVSPost2010PropOp32
 70
     0
102
RTVSPost2010Prop33
280
     0
102
RTVSPost2010PropOp33
 70
     0
102
RTVSPost2010Prop34
280
     0
102
RTVSPost2010PropOp34
 70
     0
102
RTVSPost2010Prop35
280
     0
102
RTVSPost2010PropOp35
 70
     0
102
RTVSPost2010Prop36
280
     0
102
RTVSPost2010PropOp36
 70
     0
102
RTVSPost2010Prop37
 90
       50
102
RTVSPost2010PropOp37
 70
     0
102
RTVSPost2010Prop38
140
0.0
102
RTVSPost2010PropOp38
 70
     0
102
RTVSPost2010Prop39
140
1.0
102
RTVSPost2010PropOp39
 70
     0
102
RTVSPost2010Prop40
 90
        0
102
RTVSPost2010PropOp40
 70
     0
102
RTVSPost2010Prop41ColorIndex
 90
       18
102
RTVSPost2010Prop41ColorRGB
 90
        0
102
RTVSPost2010PropOp41
 70
     0
102
RTVSPost2010Prop42
 90
       50
102
RTVSPost2010PropOp42
 70
     0
102
RTVSPost2010Prop43
 90
        3
102
RTVSPost2010PropOp43
 70
     0
102
RTVSPost2010Prop44ColorIndex
 90
        5
102
RTVSPost2010Prop44ColorRGB
 90
      255
102
RTVSPost2010PropOp44
 70
     0
102
RTVSPost2010Prop45
280
     0
102
RTVSPost2010PropOp45
 70
     0
102
RTVSPost2010Prop46
 90
       50
102
RTVSPost2010PropOp46
 70
     0
102
RTVSPost2010Prop47
 90
       50
102
RTVSPost2010PropOp47
 70
     0
102
RTVSPost2010Prop48
 90
       50
102
RTVSPost2010PropOp48
 70
     0
102
RTVSPost2010Prop49
280
     0
102
RTVSPost2010PropOp49
 70
     0
102
RTVSPost2010Prop50
 90
       50
102
RTVSPost2010PropOp50
 70
     0
102
RTVSPost2010Prop51ColorIndex
 90
      256
102
RTVSPost2010Prop51ColorRGB
 90
-16777216
102
RTVSPost2010PropOp51
 70
     0
102
RTVSPost2010Prop52
140
1.0
102
RTVSPost2010PropOp52
 70
     0
102
RTVSPost2010Prop53
 90
        2
102
RTVSPost2010PropOp53
 70
     0
102
RTVSPost2010Prop54
  1
strokes_ogs.tif
102
RTVSPost2010PropOp54
 70
     0
102
RTVSPost2010Prop55
280
     0
102
RTVSPost2010PropOp55
 70
     0
102
RTVSPost2010Prop56
140
1.0
102
RTVSPost2010PropOp56
 70
     0
102
RTVSPost2010Prop57
140
1.0
102
RTVSPost2010PropOp57
 70
     0
  0
XRECORD
  5
163A
102
{ACAD_REACTORS
330
1639
102
}
330
1639
100
AcDbXrecord
280
     1
102
RTVSPropertyOp0
 70
     1
102
RTVSPropertyOp1
 70
     1
102
RTVSPropertyOp2
 70
     1
102
RTVSPropertyOp3
 70
     1
102
RTVSPropertyOp4
 70
     1
102
RTVSPropertyOp5
 70
     1
102
RTVSPropertyOp6
 70
     1
102
RTVSPropertyOp7
 70
     1
102
RTVSPropertyOp8
 70
     1
102
RTVSPropertyOp9
 70
     1
102
RTVSPropertyOp10
 70
     1
102
RTVSPropertyOp11
 70
     1
102
RTVSPropertyOp12
 70
     1
102
RTVSPropertyOp13
 70
     1
102
RTVSPropertyOp14
 70
     1
102
RTVSPropertyOp15
 70
     1
102
RTVSPropertyOp16
 70
     1
102
RTVSPropertyOp17
 70
     1
102
RTVSPropertyOp18
 70
     1
102
RTVSPropertyOp19
 70
     1
102
RTVSPropertyOp20
 70
     1
102
RTVSPropertyOp21
 70
     1
102
RTVSPropertyOp22
 70
     1
102
RTVSPropertyOp23
 70
     1
102
RTVSPropertyOp24
 70
     1
102
RTVSPropertyOp25
 70
     1
102
RTVSPropertyOp26
 70
     1
102
RTVSPropertyOp27
 70
     1
102
RTVSPropertyOp28
 70
     1
102
RTVSPropertyOp29
 70
     1
102
RTVSPropertyOp30
 70
     1
102
RTVSPropertyOp31
 70
     1
102
RTVSPropertyOp32
 70
     1
102
RTVSPropertyOp33
 70
     1
102
RTVSPropertyOp34
 70
     1
102
RTVSPropertyOp35
 70
     1
102
RTVSPropertyOp36
 70
     1
102
RTVSPropertyOp37
 70
     1
102
RTVSPropertyOp38
 70
     1
102
RTVSPropertyOp39
 70
     1
102
RTVSPropertyOp40
 70
     1
102
RTVSPropertyOp41
 70
     1
102
RTVSPropertyOp42
 70
     1
102
RTVSPropertyOp43
 70
     1
102
RTVSPropertyOp44
 70
     1
102
RTVSPropertyOp45
 70
     1
102
RTVSPropertyOp46
 70
     1
102
RTVSPropertyOp47
 70
     1
102
RTVSPropertyOp48
 70
     1
102
RTVSPropertyOp49
 70
     1
102
RTVSPropertyOp50
 70
     1
102
RTVSPropertyOp51
 70
     0
102
RTVSPropertyOp52
 70
     0
102
RTVSPropertyOp53
 70
     1
102
RTVSPropertyOp54
 70
     1
102
RTVSPropertyOp55
 70
     1
102
RTVSPropertyOp56
 70
     1
102
RTVSPropertyOp57
 70
     1
102
RTVSPost2010Prop28
280
     0
102
RTVSPost2010PropOp28
 70
     1
102
RTVSPost2010Prop29
280
     1
102
RTVSPost2010PropOp29
 70
     1
102
RTVSPost2010Prop30
280
     1
102
RTVSPost2010PropOp30
 70
     1
102
RTVSPost2010Prop31
280
     0
102
RTVSPost2010PropOp31
 70
     1
102
RTVSPost2010Prop32
280
     0
102
RTVSPost2010PropOp32
 70
     1
102
RTVSPost2010Prop33
280
     0
102
RTVSPost2010PropOp33
 70
     1
102
RTVSPost2010Prop34
280
     0
102
RTVSPost2010PropOp34
 70
     1
102
RTVSPost2010Prop35
280
     0
102
RTVSPost2010PropOp35
 70
     1
102
RTVSPost2010Prop36
280
     0
102
RTVSPost2010PropOp36
 70
     1
102
RTVSPost2010Prop37
 90
       50
102
RTVSPost2010PropOp37
 70
     1
102
RTVSPost2010Prop38
140
0.0
102
RTVSPost2010PropOp38
 70
     1
102
RTVSPost2010Prop39
140
1.0
102
RTVSPost2010PropOp39
 70
     1
102
RTVSPost2010Prop40
 90
        0
102
RTVSPost2010PropOp40
 70
     1
102
RTVSPost2010Prop41ColorIndex
 90
       18
102
RTVSPost2010Prop41ColorRGB
 90
        0
102
RTVSPost2010PropOp41
 70
     1
102
RTVSPost2010Prop42
 90
       50
102
RTVSPost2010PropOp42
 70
     1
102
RTVSPost2010Prop43
 90
        3
102
RTVSPost2010PropOp43
 70
     1
102
RTVSPost2010Prop44ColorIndex
 90
        5
102
RTVSPost2010Prop44ColorRGB
 90
      255
102
RTVSPost2010PropOp44
 70
     1
102
RTVSPost2010Prop45
280
     0
102
RTVSPost2010PropOp45
 70
     1
102
RTVSPost2010Prop46
 90
       50
102
RTVSPost2010PropOp46
 70
     1
102
RTVSPost2010Prop47
 90
       50
102
RTVSPost2010PropOp47
 70
     1
102
RTVSPost2010Prop48
 90
       50
102
RTVSPost2010PropOp48
 70
     1
102
RTVSPost2010Prop49
280
     0
102
RTVSPost2010PropOp49
 70
     1
102
RTVSPost2010Prop50
 90
       50
102
RTVSPost2010PropOp50
 70
     1
102
RTVSPost2010Prop51ColorIndex
 90
      256
102
RTVSPost2010Prop51ColorRGB
 90
-16777216
102
RTVSPost2010PropOp51
 70
     0
102
RTVSPost2010Prop52
140
1.0
102
RTVSPost2010PropOp52
 70
     0
102
RTVSPost2010Prop53
 90
        2
102
RTVSPost2010PropOp53
 70
     1
102
RTVSPost2010Prop54
  1
strokes_ogs.tif
102
RTVSPost2010PropOp54
 70
     1
102
RTVSPost2010Prop55
280
     0
102
RTVSPost2010PropOp55
 70
     1
102
RTVSPost2010Prop56
140
1.0
102
RTVSPost2010PropOp56
 70
     1
102
RTVSPost2010Prop57
140
1.0
102
RTVSPost2010PropOp57
 70
     1
  0
XRECORD
  5
1658
102
{ACAD_REACTORS
330
1657
102
}
330
1657
100
AcDbXrecord
280
     1
102
RTVSPropertyOp0
 70
     1
102
RTVSPropertyOp1
 70
     1
102
RTVSPropertyOp2
 70
     1
102
RTVSPropertyOp3
 70
     1
102
RTVSPropertyOp4
 70
     1
102
RTVSPropertyOp5
 70
     1
102
RTVSPropertyOp6
 70
     1
102
RTVSPropertyOp7
 70
     1
102
RTVSPropertyOp8
 70
     1
102
RTVSPropertyOp9
 70
     1
102
RTVSPropertyOp10
 70
     1
102
RTVSPropertyOp11
 70
     1
102
RTVSPropertyOp12
 70
     1
102
RTVSPropertyOp13
 70
     1
102
RTVSPropertyOp14
 70
     1
102
RTVSPropertyOp15
 70
     1
102
RTVSPropertyOp16
 70
     1
102
RTVSPropertyOp17
 70
     1
102
RTVSPropertyOp18
 70
     1
102
RTVSPropertyOp19
 70
     1
102
RTVSPropertyOp20
 70
     1
102
RTVSPropertyOp21
 70
     1
102
RTVSPropertyOp22
 70
     1
102
RTVSPropertyOp23
 70
     1
102
RTVSPropertyOp24
 70
     1
102
RTVSPropertyOp25
 70
     1
102
RTVSPropertyOp26
 70
     1
102
RTVSPropertyOp27
 70
     1
102
RTVSPropertyOp28
 70
     1
102
RTVSPropertyOp29
 70
     1
102
RTVSPropertyOp30
 70
     1
102
RTVSPropertyOp31
 70
     1
102
RTVSPropertyOp32
 70
     1
102
RTVSPropertyOp33
 70
     1
102
RTVSPropertyOp34
 70
     1
102
RTVSPropertyOp35
 70
     1
102
RTVSPropertyOp36
 70
     1
102
RTVSPropertyOp37
 70
     1
102
RTVSPropertyOp38
 70
     1
102
RTVSPropertyOp39
 70
     1
102
RTVSPropertyOp40
 70
     1
102
RTVSPropertyOp41
 70
     1
102
RTVSPropertyOp42
 70
     1
102
RTVSPropertyOp43
 70
     1
102
RTVSPropertyOp44
 70
     1
102
RTVSPropertyOp45
 70
     1
102
RTVSPropertyOp46
 70
     1
102
RTVSPropertyOp47
 70
     1
102
RTVSPropertyOp48
 70
     1
102
RTVSPropertyOp49
 70
     1
102
RTVSPropertyOp50
 70
     1
102
RTVSPropertyOp51
 70
     0
102
RTVSPropertyOp52
 70
     0
102
RTVSPropertyOp53
 70
     1
102
RTVSPropertyOp54
 70
     1
102
RTVSPropertyOp55
 70
     1
102
RTVSPropertyOp56
 70
     1
102
RTVSPropertyOp57
 70
     1
102
RTVSPost2010Prop28
280
     0
102
RTVSPost2010PropOp28
 70
     1
102
RTVSPost2010Prop29
280
     1
102
RTVSPost2010PropOp29
 70
     1
102
RTVSPost2010Prop30
280
     1
102
RTVSPost2010PropOp30
 70
     1
102
RTVSPost2010Prop31
280
     0
102
RTVSPost2010PropOp31
 70
     1
102
RTVSPost2010Prop32
280
     0
102
RTVSPost2010PropOp32
 70
     1
102
RTVSPost2010Prop33
280
     0
102
RTVSPost2010PropOp33
 70
     1
102
RTVSPost2010Prop34
280
     0
102
RTVSPost2010PropOp34
 70
     1
102
RTVSPost2010Prop35
280
     0
102
RTVSPost2010PropOp35
 70
     1
102
RTVSPost2010Prop36
280
     0
102
RTVSPost2010PropOp36
 70
     1
102
RTVSPost2010Prop37
 90
       50
102
RTVSPost2010PropOp37
 70
     1
102
RTVSPost2010Prop38
140
0.0
102
RTVSPost2010PropOp38
 70
     1
102
RTVSPost2010Prop39
140
1.0
102
RTVSPost2010PropOp39
 70
     1
102
RTVSPost2010Prop40
 90
        0
102
RTVSPost2010PropOp40
 70
     1
102
RTVSPost2010Prop41ColorIndex
 90
       18
102
RTVSPost2010Prop41ColorRGB
 90
        0
102
RTVSPost2010PropOp41
 70
     1
102
RTVSPost2010Prop42
 90
       50
102
RTVSPost2010PropOp42
 70
     1
102
RTVSPost2010Prop43
 90
        3
102
RTVSPost2010PropOp43
 70
     1
102
RTVSPost2010Prop44ColorIndex
 90
        5
102
RTVSPost2010Prop44ColorRGB
 90
      255
102
RTVSPost2010PropOp44
 70
     1
102
RTVSPost2010Prop45
280
     0
102
RTVSPost2010PropOp45
 70
     1
102
RTVSPost2010Prop46
 90
       50
102
RTVSPost2010PropOp46
 70
     1
102
RTVSPost2010Prop47
 90
       50
102
RTVSPost2010PropOp47
 70
     1
102
RTVSPost2010Prop48
 90
       50
102
RTVSPost2010PropOp48
 70
     1
102
RTVSPost2010Prop49
280
     0
102
RTVSPost2010PropOp49
 70
     1
102
RTVSPost2010Prop50
 90
       50
102
RTVSPost2010PropOp50
 70
     1
102
RTVSPost2010Prop51ColorIndex
 90
      256
102
RTVSPost2010Prop51ColorRGB
 90
-16777216
102
RTVSPost2010PropOp51
 70
     0
102
RTVSPost2010Prop52
140
1.0
102
RTVSPost2010PropOp52
 70
     0
102
RTVSPost2010Prop53
 90
        2
102
RTVSPost2010PropOp53
 70
     1
102
RTVSPost2010Prop54
  1
strokes_ogs.tif
102
RTVSPost2010PropOp54
 70
     1
102
RTVSPost2010Prop55
280
     0
102
RTVSPost2010PropOp55
 70
     1
102
RTVSPost2010Prop56
140
1.0
102
RTVSPost2010PropOp56
 70
     1
102
RTVSPost2010Prop57
140
1.0
102
RTVSPost2010PropOp57
 70
     1
  0
XRECORD
  5
1656
102
{ACAD_REACTORS
330
1655
102
}
330
1655
100
AcDbXrecord
280
     1
102
RTVSPropertyOp0
 70
     1
102
RTVSPropertyOp1
 70
     1
102
RTVSPropertyOp2
 70
     1
102
RTVSPropertyOp3
 70
     1
102
RTVSPropertyOp4
 70
     1
102
RTVSPropertyOp5
 70
     1
102
RTVSPropertyOp6
 70
     1
102
RTVSPropertyOp7
 70
     1
102
RTVSPropertyOp8
 70
     1
102
RTVSPropertyOp9
 70
     1
102
RTVSPropertyOp10
 70
     1
102
RTVSPropertyOp11
 70
     1
102
RTVSPropertyOp12
 70
     1
102
RTVSPropertyOp13
 70
     1
102
RTVSPropertyOp14
 70
     1
102
RTVSPropertyOp15
 70
     1
102
RTVSPropertyOp16
 70
     1
102
RTVSPropertyOp17
 70
     1
102
RTVSPropertyOp18
 70
     1
102
RTVSPropertyOp19
 70
     1
102
RTVSPropertyOp20
 70
     1
102
RTVSPropertyOp21
 70
     1
102
RTVSPropertyOp22
 70
     1
102
RTVSPropertyOp23
 70
     1
102
RTVSPropertyOp24
 70
     1
102
RTVSPropertyOp25
 70
     1
102
RTVSPropertyOp26
 70
     1
102
RTVSPropertyOp27
 70
     1
102
RTVSPropertyOp28
 70
     1
102
RTVSPropertyOp29
 70
     1
102
RTVSPropertyOp30
 70
     1
102
RTVSPropertyOp31
 70
     1
102
RTVSPropertyOp32
 70
     1
102
RTVSPropertyOp33
 70
     1
102
RTVSPropertyOp34
 70
     1
102
RTVSPropertyOp35
 70
     1
102
RTVSPropertyOp36
 70
     1
102
RTVSPropertyOp37
 70
     1
102
RTVSPropertyOp38
 70
     1
102
RTVSPropertyOp39
 70
     1
102
RTVSPropertyOp40
 70
     1
102
RTVSPropertyOp41
 70
     1
102
RTVSPropertyOp42
 70
     1
102
RTVSPropertyOp43
 70
     1
102
RTVSPropertyOp44
 70
     1
102
RTVSPropertyOp45
 70
     1
102
RTVSPropertyOp46
 70
     1
102
RTVSPropertyOp47
 70
     1
102
RTVSPropertyOp48
 70
     1
102
RTVSPropertyOp49
 70
     1
102
RTVSPropertyOp50
 70
     1
102
RTVSPropertyOp51
 70
     0
102
RTVSPropertyOp52
 70
     0
102
RTVSPropertyOp53
 70
     1
102
RTVSPropertyOp54
 70
     1
102
RTVSPropertyOp55
 70
     1
102
RTVSPropertyOp56
 70
     1
102
RTVSPropertyOp57
 70
     1
102
RTVSPost2010Prop28
280
     0
102
RTVSPost2010PropOp28
 70
     1
102
RTVSPost2010Prop29
280
     1
102
RTVSPost2010PropOp29
 70
     1
102
RTVSPost2010Prop30
280
     1
102
RTVSPost2010PropOp30
 70
     1
102
RTVSPost2010Prop31
280
     0
102
RTVSPost2010PropOp31
 70
     1
102
RTVSPost2010Prop32
280
     0
102
RTVSPost2010PropOp32
 70
     1
102
RTVSPost2010Prop33
280
     0
102
RTVSPost2010PropOp33
 70
     1
102
RTVSPost2010Prop34
280
     0
102
RTVSPost2010PropOp34
 70
     1
102
RTVSPost2010Prop35
280
     0
102
RTVSPost2010PropOp35
 70
     1
102
RTVSPost2010Prop36
280
     0
102
RTVSPost2010PropOp36
 70
     1
102
RTVSPost2010Prop37
 90
       50
102
RTVSPost2010PropOp37
 70
     1
102
RTVSPost2010Prop38
140
0.0
102
RTVSPost2010PropOp38
 70
     1
102
RTVSPost2010Prop39
140
1.0
102
RTVSPost2010PropOp39
 70
     1
102
RTVSPost2010Prop40
 90
        0
102
RTVSPost2010PropOp40
 70
     1
102
RTVSPost2010Prop41ColorIndex
 90
       18
102
RTVSPost2010Prop41ColorRGB
 90
        0
102
RTVSPost2010PropOp41
 70
     1
102
RTVSPost2010Prop42
 90
       50
102
RTVSPost2010PropOp42
 70
     1
102
RTVSPost2010Prop43
 90
        3
102
RTVSPost2010PropOp43
 70
     1
102
RTVSPost2010Prop44ColorIndex
 90
        5
102
RTVSPost2010Prop44ColorRGB
 90
      255
102
RTVSPost2010PropOp44
 70
     1
102
RTVSPost2010Prop45
280
     0
102
RTVSPost2010PropOp45
 70
     1
102
RTVSPost2010Prop46
 90
       50
102
RTVSPost2010PropOp46
 70
     1
102
RTVSPost2010Prop47
 90
       50
102
RTVSPost2010PropOp47
 70
     1
102
RTVSPost2010Prop48
 90
       50
102
RTVSPost2010PropOp48
 70
     1
102
RTVSPost2010Prop49
280
     0
102
RTVSPost2010PropOp49
 70
     1
102
RTVSPost2010Prop50
 90
       50
102
RTVSPost2010PropOp50
 70
     1
102
RTVSPost2010Prop51ColorIndex
 90
      256
102
RTVSPost2010Prop51ColorRGB
 90
-16777216
102
RTVSPost2010PropOp51
 70
     0
102
RTVSPost2010Prop52
140
1.0
102
RTVSPost2010PropOp52
 70
     0
102
RTVSPost2010Prop53
 90
        2
102
RTVSPost2010PropOp53
 70
     1
102
RTVSPost2010Prop54
  1
strokes_ogs.tif
102
RTVSPost2010PropOp54
 70
     1
102
RTVSPost2010Prop55
280
     0
102
RTVSPost2010PropOp55
 70
     1
102
RTVSPost2010Prop56
140
1.0
102
RTVSPost2010PropOp56
 70
     1
102
RTVSPost2010Prop57
140
1.0
102
RTVSPost2010PropOp57
 70
     1
  0
XRECORD
  5
1650
102
{ACAD_REACTORS
330
164F
102
}
330
164F
100
AcDbXrecord
280
     1
102
RTVSPropertyOp0
 70
     1
102
RTVSPropertyOp1
 70
     1
102
RTVSPropertyOp2
 70
     1
102
RTVSPropertyOp3
 70
     1
102
RTVSPropertyOp4
 70
     1
102
RTVSPropertyOp5
 70
     1
102
RTVSPropertyOp6
 70
     1
102
RTVSPropertyOp7
 70
     1
102
RTVSPropertyOp8
 70
     1
102
RTVSPropertyOp9
 70
     1
102
RTVSPropertyOp10
 70
     1
102
RTVSPropertyOp11
 70
     1
102
RTVSPropertyOp12
 70
     1
102
RTVSPropertyOp13
 70
     1
102
RTVSPropertyOp14
 70
     1
102
RTVSPropertyOp15
 70
     1
102
RTVSPropertyOp16
 70
     1
102
RTVSPropertyOp17
 70
     1
102
RTVSPropertyOp18
 70
     1
102
RTVSPropertyOp19
 70
     1
102
RTVSPropertyOp20
 70
     1
102
RTVSPropertyOp21
 70
     1
102
RTVSPropertyOp22
 70
     1
102
RTVSPropertyOp23
 70
     1
102
RTVSPropertyOp24
 70
     1
102
RTVSPropertyOp25
 70
     1
102
RTVSPropertyOp26
 70
     1
102
RTVSPropertyOp27
 70
     1
102
RTVSPropertyOp28
 70
     1
102
RTVSPropertyOp29
 70
     1
102
RTVSPropertyOp30
 70
     1
102
RTVSPropertyOp31
 70
     1
102
RTVSPropertyOp32
 70
     1
102
RTVSPropertyOp33
 70
     1
102
RTVSPropertyOp34
 70
     1
102
RTVSPropertyOp35
 70
     1
102
RTVSPropertyOp36
 70
     1
102
RTVSPropertyOp37
 70
     1
102
RTVSPropertyOp38
 70
     1
102
RTVSPropertyOp39
 70
     1
102
RTVSPropertyOp40
 70
     1
102
RTVSPropertyOp41
 70
     1
102
RTVSPropertyOp42
 70
     1
102
RTVSPropertyOp43
 70
     1
102
RTVSPropertyOp44
 70
     1
102
RTVSPropertyOp45
 70
     1
102
RTVSPropertyOp46
 70
     1
102
RTVSPropertyOp47
 70
     1
102
RTVSPropertyOp48
 70
     1
102
RTVSPropertyOp49
 70
     1
102
RTVSPropertyOp50
 70
     1
102
RTVSPropertyOp51
 70
     0
102
RTVSPropertyOp52
 70
     0
102
RTVSPropertyOp53
 70
     1
102
RTVSPropertyOp54
 70
     1
102
RTVSPropertyOp55
 70
     1
102
RTVSPropertyOp56
 70
     1
102
RTVSPropertyOp57
 70
     1
102
RTVSPost2010Prop28
280
     0
102
RTVSPost2010PropOp28
 70
     1
102
RTVSPost2010Prop29
280
     1
102
RTVSPost2010PropOp29
 70
     1
102
RTVSPost2010Prop30
280
     1
102
RTVSPost2010PropOp30
 70
     1
102
RTVSPost2010Prop31
280
     0
102
RTVSPost2010PropOp31
 70
     1
102
RTVSPost2010Prop32
280
     0
102
RTVSPost2010PropOp32
 70
     1
102
RTVSPost2010Prop33
280
     0
102
RTVSPost2010PropOp33
 70
     1
102
RTVSPost2010Prop34
280
     0
102
RTVSPost2010PropOp34
 70
     1
102
RTVSPost2010Prop35
280
     0
102
RTVSPost2010PropOp35
 70
     1
102
RTVSPost2010Prop36
280
     0
102
RTVSPost2010PropOp36
 70
     1
102
RTVSPost2010Prop37
 90
       50
102
RTVSPost2010PropOp37
 70
     1
102
RTVSPost2010Prop38
140
0.0
102
RTVSPost2010PropOp38
 70
     1
102
RTVSPost2010Prop39
140
1.0
102
RTVSPost2010PropOp39
 70
     1
102
RTVSPost2010Prop40
 90
        0
102
RTVSPost2010PropOp40
 70
     1
102
RTVSPost2010Prop41ColorIndex
 90
       18
102
RTVSPost2010Prop41ColorRGB
 90
        0
102
RTVSPost2010PropOp41
 70
     1
102
RTVSPost2010Prop42
 90
       50
102
RTVSPost2010PropOp42
 70
     1
102
RTVSPost2010Prop43
 90
        3
102
RTVSPost2010PropOp43
 70
     1
102
RTVSPost2010Prop44ColorIndex
 90
        5
102
RTVSPost2010Prop44ColorRGB
 90
      255
102
RTVSPost2010PropOp44
 70
     1
102
RTVSPost2010Prop45
280
     0
102
RTVSPost2010PropOp45
 70
     1
102
RTVSPost2010Prop46
 90
       50
102
RTVSPost2010PropOp46
 70
     1
102
RTVSPost2010Prop47
 90
       50
102
RTVSPost2010PropOp47
 70
     1
102
RTVSPost2010Prop48
 90
       50
102
RTVSPost2010PropOp48
 70
     1
102
RTVSPost2010Prop49
280
     0
102
RTVSPost2010PropOp49
 70
     1
102
RTVSPost2010Prop50
 90
       50
102
RTVSPost2010PropOp50
 70
     1
102
RTVSPost2010Prop51ColorIndex
 90
      256
102
RTVSPost2010Prop51ColorRGB
 90
-16777216
102
RTVSPost2010PropOp51
 70
     0
102
RTVSPost2010Prop52
140
1.0
102
RTVSPost2010PropOp52
 70
     0
102
RTVSPost2010Prop53
 90
        2
102
RTVSPost2010PropOp53
 70
     1
102
RTVSPost2010Prop54
  1
strokes_ogs.tif
102
RTVSPost2010PropOp54
 70
     1
102
RTVSPost2010Prop55
280
     0
102
RTVSPost2010PropOp55
 70
     1
102
RTVSPost2010Prop56
140
1.0
102
RTVSPost2010PropOp56
 70
     1
102
RTVSPost2010Prop57
140
1.0
102
RTVSPost2010PropOp57
 70
     1
  0
XRECORD
  5
1652
102
{ACAD_REACTORS
330
1651
102
}
330
1651
100
AcDbXrecord
280
     1
102
RTVSPropertyOp0
 70
     1
102
RTVSPropertyOp1
 70
     1
102
RTVSPropertyOp2
 70
     1
102
RTVSPropertyOp3
 70
     1
102
RTVSPropertyOp4
 70
     1
102
RTVSPropertyOp5
 70
     1
102
RTVSPropertyOp6
 70
     1
102
RTVSPropertyOp7
 70
     1
102
RTVSPropertyOp8
 70
     1
102
RTVSPropertyOp9
 70
     1
102
RTVSPropertyOp10
 70
     1
102
RTVSPropertyOp11
 70
     1
102
RTVSPropertyOp12
 70
     1
102
RTVSPropertyOp13
 70
     1
102
RTVSPropertyOp14
 70
     1
102
RTVSPropertyOp15
 70
     1
102
RTVSPropertyOp16
 70
     1
102
RTVSPropertyOp17
 70
     1
102
RTVSPropertyOp18
 70
     1
102
RTVSPropertyOp19
 70
     1
102
RTVSPropertyOp20
 70
     1
102
RTVSPropertyOp21
 70
     1
102
RTVSPropertyOp22
 70
     1
102
RTVSPropertyOp23
 70
     1
102
RTVSPropertyOp24
 70
     1
102
RTVSPropertyOp25
 70
     1
102
RTVSPropertyOp26
 70
     1
102
RTVSPropertyOp27
 70
     1
102
RTVSPropertyOp28
 70
     1
102
RTVSPropertyOp29
 70
     1
102
RTVSPropertyOp30
 70
     1
102
RTVSPropertyOp31
 70
     1
102
RTVSPropertyOp32
 70
     1
102
RTVSPropertyOp33
 70
     1
102
RTVSPropertyOp34
 70
     1
102
RTVSPropertyOp35
 70
     1
102
RTVSPropertyOp36
 70
     1
102
RTVSPropertyOp37
 70
     1
102
RTVSPropertyOp38
 70
     1
102
RTVSPropertyOp39
 70
     1
102
RTVSPropertyOp40
 70
     1
102
RTVSPropertyOp41
 70
     1
102
RTVSPropertyOp42
 70
     1
102
RTVSPropertyOp43
 70
     1
102
RTVSPropertyOp44
 70
     1
102
RTVSPropertyOp45
 70
     1
102
RTVSPropertyOp46
 70
     1
102
RTVSPropertyOp47
 70
     1
102
RTVSPropertyOp48
 70
     1
102
RTVSPropertyOp49
 70
     1
102
RTVSPropertyOp50
 70
     1
102
RTVSPropertyOp51
 70
     0
102
RTVSPropertyOp52
 70
     0
102
RTVSPropertyOp53
 70
     1
102
RTVSPropertyOp54
 70
     1
102
RTVSPropertyOp55
 70
     1
102
RTVSPropertyOp56
 70
     1
102
RTVSPropertyOp57
 70
     1
102
RTVSPost2010Prop28
280
     0
102
RTVSPost2010PropOp28
 70
     1
102
RTVSPost2010Prop29
280
     1
102
RTVSPost2010PropOp29
 70
     1
102
RTVSPost2010Prop30
280
     1
102
RTVSPost2010PropOp30
 70
     1
102
RTVSPost2010Prop31
280
     0
102
RTVSPost2010PropOp31
 70
     1
102
RTVSPost2010Prop32
280
     0
102
RTVSPost2010PropOp32
 70
     1
102
RTVSPost2010Prop33
280
     0
102
RTVSPost2010PropOp33
 70
     1
102
RTVSPost2010Prop34
280
     0
102
RTVSPost2010PropOp34
 70
     1
102
RTVSPost2010Prop35
280
     0
102
RTVSPost2010PropOp35
 70
     1
102
RTVSPost2010Prop36
280
     0
102
RTVSPost2010PropOp36
 70
     1
102
RTVSPost2010Prop37
 90
       50
102
RTVSPost2010PropOp37
 70
     1
102
RTVSPost2010Prop38
140
0.0
102
RTVSPost2010PropOp38
 70
     1
102
RTVSPost2010Prop39
140
1.0
102
RTVSPost2010PropOp39
 70
     1
102
RTVSPost2010Prop40
 90
        0
102
RTVSPost2010PropOp40
 70
     1
102
RTVSPost2010Prop41ColorIndex
 90
       18
102
RTVSPost2010Prop41ColorRGB
 90
        0
102
RTVSPost2010PropOp41
 70
     1
102
RTVSPost2010Prop42
 90
       50
102
RTVSPost2010PropOp42
 70
     1
102
RTVSPost2010Prop43
 90
        3
102
RTVSPost2010PropOp43
 70
     1
102
RTVSPost2010Prop44ColorIndex
 90
        5
102
RTVSPost2010Prop44ColorRGB
 90
      255
102
RTVSPost2010PropOp44
 70
     1
102
RTVSPost2010Prop45
280
     0
102
RTVSPost2010PropOp45
 70
     1
102
RTVSPost2010Prop46
 90
       50
102
RTVSPost2010PropOp46
 70
     1
102
RTVSPost2010Prop47
 90
       50
102
RTVSPost2010PropOp47
 70
     1
102
RTVSPost2010Prop48
 90
       50
102
RTVSPost2010PropOp48
 70
     1
102
RTVSPost2010Prop49
280
     0
102
RTVSPost2010PropOp49
 70
     1
102
RTVSPost2010Prop50
 90
       50
102
RTVSPost2010PropOp50
 70
     1
102
RTVSPost2010Prop51ColorIndex
 90
      256
102
RTVSPost2010Prop51ColorRGB
 90
-16777216
102
RTVSPost2010PropOp51
 70
     0
102
RTVSPost2010Prop52
140
1.0
102
RTVSPost2010PropOp52
 70
     0
102
RTVSPost2010Prop53
 90
        2
102
RTVSPost2010PropOp53
 70
     1
102
RTVSPost2010Prop54
  1
strokes_ogs.tif
102
RTVSPost2010PropOp54
 70
     1
102
RTVSPost2010Prop55
280
     0
102
RTVSPost2010PropOp55
 70
     1
102
RTVSPost2010Prop56
140
1.0
102
RTVSPost2010PropOp56
 70
     1
102
RTVSPost2010Prop57
140
1.0
102
RTVSPost2010PropOp57
 70
     1
  0
XRECORD
  5
1642
102
{ACAD_REACTORS
330
1641
102
}
330
1641
100
AcDbXrecord
280
     1
102
RTVSPropertyOp0
 70
     1
102
RTVSPropertyOp1
 70
     1
102
RTVSPropertyOp2
 70
     1
102
RTVSPropertyOp3
 70
     1
102
RTVSPropertyOp4
 70
     1
102
RTVSPropertyOp5
 70
     1
102
RTVSPropertyOp6
 70
     1
102
RTVSPropertyOp7
 70
     1
102
RTVSPropertyOp8
 70
     1
102
RTVSPropertyOp9
 70
     1
102
RTVSPropertyOp10
 70
     1
102
RTVSPropertyOp11
 70
     1
102
RTVSPropertyOp12
 70
     1
102
RTVSPropertyOp13
 70
     1
102
RTVSPropertyOp14
 70
     1
102
RTVSPropertyOp15
 70
     1
102
RTVSPropertyOp16
 70
     1
102
RTVSPropertyOp17
 70
     1
102
RTVSPropertyOp18
 70
     1
102
RTVSPropertyOp19
 70
     1
102
RTVSPropertyOp20
 70
     1
102
RTVSPropertyOp21
 70
     1
102
RTVSPropertyOp22
 70
     1
102
RTVSPropertyOp23
 70
     1
102
RTVSPropertyOp24
 70
     1
102
RTVSPropertyOp25
 70
     1
102
RTVSPropertyOp26
 70
     1
102
RTVSPropertyOp27
 70
     1
102
RTVSPropertyOp28
 70
     1
102
RTVSPropertyOp29
 70
     1
102
RTVSPropertyOp30
 70
     1
102
RTVSPropertyOp31
 70
     1
102
RTVSPropertyOp32
 70
     1
102
RTVSPropertyOp33
 70
     1
102
RTVSPropertyOp34
 70
     1
102
RTVSPropertyOp35
 70
     1
102
RTVSPropertyOp36
 70
     1
102
RTVSPropertyOp37
 70
     1
102
RTVSPropertyOp38
 70
     1
102
RTVSPropertyOp39
 70
     1
102
RTVSPropertyOp40
 70
     1
102
RTVSPropertyOp41
 70
     1
102
RTVSPropertyOp42
 70
     1
102
RTVSPropertyOp43
 70
     1
102
RTVSPropertyOp44
 70
     1
102
RTVSPropertyOp45
 70
     1
102
RTVSPropertyOp46
 70
     1
102
RTVSPropertyOp47
 70
     1
102
RTVSPropertyOp48
 70
     1
102
RTVSPropertyOp49
 70
     1
102
RTVSPropertyOp50
 70
     1
102
RTVSPropertyOp51
 70
     0
102
RTVSPropertyOp52
 70
     0
102
RTVSPropertyOp53
 70
     1
102
RTVSPropertyOp54
 70
     1
102
RTVSPropertyOp55
 70
     1
102
RTVSPropertyOp56
 70
     1
102
RTVSPropertyOp57
 70
     1
102
RTVSPost2010Prop28
280
     0
102
RTVSPost2010PropOp28
 70
     1
102
RTVSPost2010Prop29
280
     1
102
RTVSPost2010PropOp29
 70
     1
102
RTVSPost2010Prop30
280
     1
102
RTVSPost2010PropOp30
 70
     1
102
RTVSPost2010Prop31
280
     0
102
RTVSPost2010PropOp31
 70
     1
102
RTVSPost2010Prop32
280
     0
102
RTVSPost2010PropOp32
 70
     1
102
RTVSPost2010Prop33
280
     0
102
RTVSPost2010PropOp33
 70
     1
102
RTVSPost2010Prop34
280
     0
102
RTVSPost2010PropOp34
 70
     1
102
RTVSPost2010Prop35
280
     0
102
RTVSPost2010PropOp35
 70
     1
102
RTVSPost2010Prop36
280
     0
102
RTVSPost2010PropOp36
 70
     1
102
RTVSPost2010Prop37
 90
       50
102
RTVSPost2010PropOp37
 70
     1
102
RTVSPost2010Prop38
140
0.0
102
RTVSPost2010PropOp38
 70
     1
102
RTVSPost2010Prop39
140
1.0
102
RTVSPost2010PropOp39
 70
     1
102
RTVSPost2010Prop40
 90
        0
102
RTVSPost2010PropOp40
 70
     1
102
RTVSPost2010Prop41ColorIndex
 90
       18
102
RTVSPost2010Prop41ColorRGB
 90
        0
102
RTVSPost2010PropOp41
 70
     1
102
RTVSPost2010Prop42
 90
       50
102
RTVSPost2010PropOp42
 70
     1
102
RTVSPost2010Prop43
 90
        3
102
RTVSPost2010PropOp43
 70
     1
102
RTVSPost2010Prop44ColorIndex
 90
        5
102
RTVSPost2010Prop44ColorRGB
 90
      255
102
RTVSPost2010PropOp44
 70
     1
102
RTVSPost2010Prop45
280
     0
102
RTVSPost2010PropOp45
 70
     1
102
RTVSPost2010Prop46
 90
       50
102
RTVSPost2010PropOp46
 70
     1
102
RTVSPost2010Prop47
 90
       50
102
RTVSPost2010PropOp47
 70
     1
102
RTVSPost2010Prop48
 90
       50
102
RTVSPost2010PropOp48
 70
     1
102
RTVSPost2010Prop49
280
     0
102
RTVSPost2010PropOp49
 70
     1
102
RTVSPost2010Prop50
 90
       50
102
RTVSPost2010PropOp50
 70
     1
102
RTVSPost2010Prop51ColorIndex
 90
      256
102
RTVSPost2010Prop51ColorRGB
 90
-16777216
102
RTVSPost2010PropOp51
 70
     0
102
RTVSPost2010Prop52
140
1.0
102
RTVSPost2010PropOp52
 70
     0
102
RTVSPost2010Prop53
 90
        2
102
RTVSPost2010PropOp53
 70
     1
102
RTVSPost2010Prop54
  1
strokes_ogs.tif
102
RTVSPost2010PropOp54
 70
     1
102
RTVSPost2010Prop55
280
     0
102
RTVSPost2010PropOp55
 70
     1
102
RTVSPost2010Prop56
140
1.0
102
RTVSPost2010PropOp56
 70
     1
102
RTVSPost2010Prop57
140
1.0
102
RTVSPost2010PropOp57
 70
     1
  0
XRECORD
  5
1634
102
{ACAD_REACTORS
330
1633
102
}
330
1633
100
AcDbXrecord
280
     1
102
RTVSPropertyOp0
 70
     1
102
RTVSPropertyOp1
 70
     1
102
RTVSPropertyOp2
 70
     1
102
RTVSPropertyOp3
 70
     1
102
RTVSPropertyOp4
 70
     1
102
RTVSPropertyOp5
 70
     1
102
RTVSPropertyOp6
 70
     1
102
RTVSPropertyOp7
 70
     1
102
RTVSPropertyOp8
 70
     1
102
RTVSPropertyOp9
 70
     1
102
RTVSPropertyOp10
 70
     1
102
RTVSPropertyOp11
 70
     1
102
RTVSPropertyOp12
 70
     1
102
RTVSPropertyOp13
 70
     1
102
RTVSPropertyOp14
 70
     1
102
RTVSPropertyOp15
 70
     1
102
RTVSPropertyOp16
 70
     1
102
RTVSPropertyOp17
 70
     1
102
RTVSPropertyOp18
 70
     1
102
RTVSPropertyOp19
 70
     1
102
RTVSPropertyOp20
 70
     1
102
RTVSPropertyOp21
 70
     1
102
RTVSPropertyOp22
 70
     1
102
RTVSPropertyOp23
 70
     1
102
RTVSPropertyOp24
 70
     1
102
RTVSPropertyOp25
 70
     1
102
RTVSPropertyOp26
 70
     1
102
RTVSPropertyOp27
 70
     1
102
RTVSPropertyOp28
 70
     1
102
RTVSPropertyOp29
 70
     1
102
RTVSPropertyOp30
 70
     1
102
RTVSPropertyOp31
 70
     1
102
RTVSPropertyOp32
 70
     1
102
RTVSPropertyOp33
 70
     1
102
RTVSPropertyOp34
 70
     1
102
RTVSPropertyOp35
 70
     1
102
RTVSPropertyOp36
 70
     1
102
RTVSPropertyOp37
 70
     1
102
RTVSPropertyOp38
 70
     1
102
RTVSPropertyOp39
 70
     1
102
RTVSPropertyOp40
 70
     1
102
RTVSPropertyOp41
 70
     1
102
RTVSPropertyOp42
 70
     1
102
RTVSPropertyOp43
 70
     1
102
RTVSPropertyOp44
 70
     1
102
RTVSPropertyOp45
 70
     1
102
RTVSPropertyOp46
 70
     1
102
RTVSPropertyOp47
 70
     1
102
RTVSPropertyOp48
 70
     1
102
RTVSPropertyOp49
 70
     1
102
RTVSPropertyOp50
 70
     1
102
RTVSPropertyOp51
 70
     0
102
RTVSPropertyOp52
 70
     0
102
RTVSPropertyOp53
 70
     1
102
RTVSPropertyOp54
 70
     1
102
RTVSPropertyOp55
 70
     1
102
RTVSPropertyOp56
 70
     1
102
RTVSPropertyOp57
 70
     1
102
RTVSPost2010Prop28
280
     0
102
RTVSPost2010PropOp28
 70
     1
102
RTVSPost2010Prop29
280
     1
102
RTVSPost2010PropOp29
 70
     1
102
RTVSPost2010Prop30
280
     1
102
RTVSPost2010PropOp30
 70
     1
102
RTVSPost2010Prop31
280
     0
102
RTVSPost2010PropOp31
 70
     1
102
RTVSPost2010Prop32
280
     0
102
RTVSPost2010PropOp32
 70
     1
102
RTVSPost2010Prop33
280
     0
102
RTVSPost2010PropOp33
 70
     1
102
RTVSPost2010Prop34
280
     0
102
RTVSPost2010PropOp34
 70
     1
102
RTVSPost2010Prop35
280
     0
102
RTVSPost2010PropOp35
 70
     1
102
RTVSPost2010Prop36
280
     0
102
RTVSPost2010PropOp36
 70
     1
102
RTVSPost2010Prop37
 90
       50
102
RTVSPost2010PropOp37
 70
     1
102
RTVSPost2010Prop38
140
0.0
102
RTVSPost2010PropOp38
 70
     1
102
RTVSPost2010Prop39
140
1.0
102
RTVSPost2010PropOp39
 70
     1
102
RTVSPost2010Prop40
 90
        0
102
RTVSPost2010PropOp40
 70
     1
102
RTVSPost2010Prop41ColorIndex
 90
       18
102
RTVSPost2010Prop41ColorRGB
 90
        0
102
RTVSPost2010PropOp41
 70
     1
102
RTVSPost2010Prop42
 90
       50
102
RTVSPost2010PropOp42
 70
     1
102
RTVSPost2010Prop43
 90
        3
102
RTVSPost2010PropOp43
 70
     1
102
RTVSPost2010Prop44ColorIndex
 90
        5
102
RTVSPost2010Prop44ColorRGB
 90
      255
102
RTVSPost2010PropOp44
 70
     1
102
RTVSPost2010Prop45
280
     0
102
RTVSPost2010PropOp45
 70
     1
102
RTVSPost2010Prop46
 90
       50
102
RTVSPost2010PropOp46
 70
     1
102
RTVSPost2010Prop47
 90
       50
102
RTVSPost2010PropOp47
 70
     1
102
RTVSPost2010Prop48
 90
       50
102
RTVSPost2010PropOp48
 70
     1
102
RTVSPost2010Prop49
280
     0
102
RTVSPost2010PropOp49
 70
     1
102
RTVSPost2010Prop50
 90
       50
102
RTVSPost2010PropOp50
 70
     1
102
RTVSPost2010Prop51ColorIndex
 90
      256
102
RTVSPost2010Prop51ColorRGB
 90
-16777216
102
RTVSPost2010PropOp51
 70
     0
102
RTVSPost2010Prop52
140
1.0
102
RTVSPost2010PropOp52
 70
     0
102
RTVSPost2010Prop53
 90
        2
102
RTVSPost2010PropOp53
 70
     1
102
RTVSPost2010Prop54
  1
strokes_ogs.tif
102
RTVSPost2010PropOp54
 70
     1
102
RTVSPost2010Prop55
280
     0
102
RTVSPost2010PropOp55
 70
     1
102
RTVSPost2010Prop56
140
1.0
102
RTVSPost2010PropOp56
 70
     1
102
RTVSPost2010Prop57
140
1.0
102
RTVSPost2010PropOp57
 70
     1
  0
XRECORD
  5
1654
102
{ACAD_REACTORS
330
1653
102
}
330
1653
100
AcDbXrecord
280
     1
102
RTVSPropertyOp0
 70
     1
102
RTVSPropertyOp1
 70
     1
102
RTVSPropertyOp2
 70
     1
102
RTVSPropertyOp3
 70
     1
102
RTVSPropertyOp4
 70
     1
102
RTVSPropertyOp5
 70
     1
102
RTVSPropertyOp6
 70
     1
102
RTVSPropertyOp7
 70
     1
102
RTVSPropertyOp8
 70
     1
102
RTVSPropertyOp9
 70
     1
102
RTVSPropertyOp10
 70
     1
102
RTVSPropertyOp11
 70
     1
102
RTVSPropertyOp12
 70
     1
102
RTVSPropertyOp13
 70
     1
102
RTVSPropertyOp14
 70
     1
102
RTVSPropertyOp15
 70
     1
102
RTVSPropertyOp16
 70
     1
102
RTVSPropertyOp17
 70
     1
102
RTVSPropertyOp18
 70
     1
102
RTVSPropertyOp19
 70
     1
102
RTVSPropertyOp20
 70
     1
102
RTVSPropertyOp21
 70
     1
102
RTVSPropertyOp22
 70
     1
102
RTVSPropertyOp23
 70
     1
102
RTVSPropertyOp24
 70
     1
102
RTVSPropertyOp25
 70
     1
102
RTVSPropertyOp26
 70
     1
102
RTVSPropertyOp27
 70
     1
102
RTVSPropertyOp28
 70
     1
102
RTVSPropertyOp29
 70
     1
102
RTVSPropertyOp30
 70
     1
102
RTVSPropertyOp31
 70
     1
102
RTVSPropertyOp32
 70
     1
102
RTVSPropertyOp33
 70
     1
102
RTVSPropertyOp34
 70
     1
102
RTVSPropertyOp35
 70
     1
102
RTVSPropertyOp36
 70
     1
102
RTVSPropertyOp37
 70
     1
102
RTVSPropertyOp38
 70
     1
102
RTVSPropertyOp39
 70
     1
102
RTVSPropertyOp40
 70
     1
102
RTVSPropertyOp41
 70
     1
102
RTVSPropertyOp42
 70
     1
102
RTVSPropertyOp43
 70
     1
102
RTVSPropertyOp44
 70
     1
102
RTVSPropertyOp45
 70
     1
102
RTVSPropertyOp46
 70
     1
102
RTVSPropertyOp47
 70
     1
102
RTVSPropertyOp48
 70
     1
102
RTVSPropertyOp49
 70
     1
102
RTVSPropertyOp50
 70
     1
102
RTVSPropertyOp51
 70
     0
102
RTVSPropertyOp52
 70
     0
102
RTVSPropertyOp53
 70
     1
102
RTVSPropertyOp54
 70
     1
102
RTVSPropertyOp55
 70
     1
102
RTVSPropertyOp56
 70
     1
102
RTVSPropertyOp57
 70
     1
102
RTVSPost2010Prop28
280
     0
102
RTVSPost2010PropOp28
 70
     1
102
RTVSPost2010Prop29
280
     1
102
RTVSPost2010PropOp29
 70
     1
102
RTVSPost2010Prop30
280
     1
102
RTVSPost2010PropOp30
 70
     1
102
RTVSPost2010Prop31
280
     0
102
RTVSPost2010PropOp31
 70
     1
102
RTVSPost2010Prop32
280
     0
102
RTVSPost2010PropOp32
 70
     1
102
RTVSPost2010Prop33
280
     0
102
RTVSPost2010PropOp33
 70
     1
102
RTVSPost2010Prop34
280
     0
102
RTVSPost2010PropOp34
 70
     1
102
RTVSPost2010Prop35
280
     0
102
RTVSPost2010PropOp35
 70
     1
102
RTVSPost2010Prop36
280
     0
102
RTVSPost2010PropOp36
 70
     1
102
RTVSPost2010Prop37
 90
       50
102
RTVSPost2010PropOp37
 70
     1
102
RTVSPost2010Prop38
140
0.0
102
RTVSPost2010PropOp38
 70
     1
102
RTVSPost2010Prop39
140
1.0
102
RTVSPost2010PropOp39
 70
     1
102
RTVSPost2010Prop40
 90
        0
102
RTVSPost2010PropOp40
 70
     1
102
RTVSPost2010Prop41ColorIndex
 90
       18
102
RTVSPost2010Prop41ColorRGB
 90
        0
102
RTVSPost2010PropOp41
 70
     1
102
RTVSPost2010Prop42
 90
       50
102
RTVSPost2010PropOp42
 70
     1
102
RTVSPost2010Prop43
 90
        3
102
RTVSPost2010PropOp43
 70
     1
102
RTVSPost2010Prop44ColorIndex
 90
        5
102
RTVSPost2010Prop44ColorRGB
 90
      255
102
RTVSPost2010PropOp44
 70
     1
102
RTVSPost2010Prop45
280
     0
102
RTVSPost2010PropOp45
 70
     1
102
RTVSPost2010Prop46
 90
       50
102
RTVSPost2010PropOp46
 70
     1
102
RTVSPost2010Prop47
 90
       50
102
RTVSPost2010PropOp47
 70
     1
102
RTVSPost2010Prop48
 90
       50
102
RTVSPost2010PropOp48
 70
     1
102
RTVSPost2010Prop49
280
     0
102
RTVSPost2010PropOp49
 70
     1
102
RTVSPost2010Prop50
 90
       50
102
RTVSPost2010PropOp50
 70
     1
102
RTVSPost2010Prop51ColorIndex
 90
      256
102
RTVSPost2010Prop51ColorRGB
 90
-16777216
102
RTVSPost2010PropOp51
 70
     0
102
RTVSPost2010Prop52
140
1.0
102
RTVSPost2010PropOp52
 70
     0
102
RTVSPost2010Prop53
 90
        2
102
RTVSPost2010PropOp53
 70
     1
102
RTVSPost2010Prop54
  1
strokes_ogs.tif
102
RTVSPost2010PropOp54
 70
     1
102
RTVSPost2010Prop55
280
     0
102
RTVSPost2010PropOp55
 70
     1
102
RTVSPost2010Prop56
140
1.0
102
RTVSPost2010PropOp56
 70
     1
102
RTVSPost2010Prop57
140
1.0
102
RTVSPost2010PropOp57
 70
     1
  0
ENDSEC
  0
EOF
