  0
SECTION
  2
HEADER
  9
$ACADVER
  1
AC1027
  9
$ACADMAINTVER
 70
     8
  9
$DWGCODEPAGE
  3
ANSI_1252
  9
$REQUIREDVERSIONS
160
                 0
  9
$LASTSAVEDBY
  1
maika.huard
  9
$INSBASE
 10
0.0
 20
0.0
 30
0.0
  9
$EXTMIN
 10
0.0
 20
0.0
 30
0.0
  9
$EXTMAX
 10
279.4
 20
215.9
 30
0.0
  9
$LIMMIN
 10
0.0
 20
0.0
  9
$LIMMAX
 10
279.4
 20
215.9
  9
$ORTHOMODE
 70
     0
  9
$REGENMODE
 70
     1
  9
$FILLMODE
 70
     1
  9
$QTEXTMODE
 70
     0
  9
$MIRRTEXT
 70
     1
  9
$LTSCALE
 40
1.0
  9
$ATTMODE
 70
     1
  9
$TEXTSIZE
 40
3.175
  9
$TRACEWID
 40
1.0
  9
$TEXTSTYLE
  7
Standard
  9
$CLAYER
  8
0
  9
$CELTYPE
  6
ByLayer
  9
$CECOLOR
 62
   256
  9
$CELTSCALE
 40
1.0
  9
$DISPSILH
 70
     0
  9
$DIMSCALE
 40
1.0
  9
$DIMASZ
 40
3.302
  9
$DIMEXO
 40
1.27
  9
$DIMDLI
 40
3.75
  9
$DIMRND
 40
0.0
  9
$DIMDLE
 40
0.0
  9
$DIMEXE
 40
1.0
  9
$DIMTP
 40
0.0
  9
$DIMTM
 40
0.0
  9
$DIMTXT
 40
3.175
  9
$DIMCEN
 40
2.5
  9
$DIMTSZ
 40
0.0
  9
$DIMTOL
 70
     0
  9
$DIMLIM
 70
     0
  9
$DIMTIH
 70
     1
  9
$DIMTOH
 70
     1
  9
$DIMSE1
 70
     0
  9
$DIMSE2
 70
     0
  9
$DIMTAD
 70
     0
  9
$DIMZIN
 70
     0
  9
$DIMBLK
  1

  9
$DIMASO
 70
     1
  9
$DIMSHO
 70
     1
  9
$DIMPOST
  1

  9
$DIMAPOST
  1

  9
$DIMALT
 70
     0
  9
$DIMALTD
 70
     3
  9
$DIMALTF
 40
0.03937
  9
$DIMLFAC
 40
25.0
  9
$DIMTOFL
 70
     1
  9
$DIMTVP
 40
0.0
  9
$DIMTIX
 70
     0
  9
$DIMSOXD
 70
     0
  9
$DIMSAH
 70
     0
  9
$DIMBLK1
  1

  9
$DIMBLK2
  1

  9
$DIMSTYLE
  2
ISO-25
  9
$DIMCLRD
 70
     0
  9
$DIMCLRE
 70
     0
  9
$DIMCLRT
 70
     0
  9
$DIMTFAC
 40
1.0
  9
$DIMGAP
 40
1.524
  9
$DIMJUST
 70
     0
  9
$DIMSD1
 70
     0
  9
$DIMSD2
 70
     0
  9
$DIMTOLJ
 70
     0
  9
$DIMTZIN
 70
     0
  9
$DIMALTZ
 70
     0
  9
$DIMALTTZ
 70
     0
  9
$DIMUPT
 70
     0
  9
$DIMDEC
 70
     0
  9
$DIMTDEC
 70
     0
  9
$DIMALTU
 70
     2
  9
$DIMALTTD
 70
     3
  9
$DIMTXSTY
  7
Standard
  9
$DIMAUNIT
 70
     0
  9
$DIMADEC
 70
     0
  9
$DIMALTRND
 40
0.0
  9
$DIMAZIN
 70
     0
  9
$DIMDSEP
 70
    44
  9
$DIMATFIT
 70
     3
  9
$DIMFRAC
 70
     0
  9
$DIMLDRBLK
  1

  9
$DIMLUNIT
 70
     2
  9
$DIMLWD
 70
    -2
  9
$DIMLWE
 70
    -2
  9
$DIMTMOVE
 70
     0
  9
$DIMFXL
 40
1.0
  9
$DIMFXLON
 70
     0
  9
$DIMJOGANG
 40
0.785398
  9
$DIMTFILL
 70
     0
  9
$DIMTFILLCLR
 70
     0
  9
$DIMARCSYM
 70
     0
  9
$DIMLTYPE
  6

  9
$DIMLTEX1
  6

  9
$DIMLTEX2
  6

  9
$DIMTXTDIRECTION
 70
     0
  9
$LUNITS
 70
     2
  9
$LUPREC
 70
     3
  9
$SKETCHINC
 40
1.0
  9
$FILLETRAD
 40
0.0
  9
$AUNITS
 70
     0
  9
$AUPREC
 70
     0
  9
$MENU
  1
.
  9
$ELEVATION
 40
0.0
  9
$PELEVATION
 40
0.0
  9
$THICKNESS
 40
0.0
  9
$LIMCHECK
 70
     0
  9
$CHAMFERA
 40
0.0
  9
$CHAMFERB
 40
0.0
  9
$CHAMFERC
 40
0.0
  9
$CHAMFERD
 40
0.0
  9
$SKPOLY
 70
     0
  9
$TDCREATE
 40
2460516.415578171
  9
$TDUCREATE
 40
2460516.582244838
  9
$TDUPDATE
 40
2460864.418023055
  9
$TDUUPDATE
 40
2460864.584689722
  9
$TDINDWG
 40
0.0000000116
  9
$TDUSRTIMER
 40
0.0000000116
  9
$USRTIMER
 70
     1
  9
$ANGBASE
 50
0.0
  9
$ANGDIR
 70
     0
  9
$PDMODE
 70
     0
  9
$PDSIZE
 40
-1.0
  9
$PLINEWID
 40
0.0
  9
$SPLFRAME
 70
     0
  9
$SPLINETYPE
 70
     6
  9
$SPLINESEGS
 70
     8
  9
$HANDSEED
  5
1C6
  9
$SURFTAB1
 70
     6
  9
$SURFTAB2
 70
     6
  9
$SURFTYPE
 70
     6
  9
$SURFU
 70
     6
  9
$SURFV
 70
     6
  9
$UCSBASE
  2

  9
$UCSNAME
  2

  9
$UCSORG
 10
0.0
 20
0.0
 30
0.0
  9
$UCSXDIR
 10
1.0
 20
0.0
 30
0.0
  9
$UCSYDIR
 10
0.0
 20
1.0
 30
0.0
  9
$UCSORTHOREF
  2

  9
$UCSORTHOVIEW
 70
     0
  9
$UCSORGTOP
 10
0.0
 20
0.0
 30
0.0
  9
$UCSORGBOTTOM
 10
0.0
 20
0.0
 30
0.0
  9
$UCSORGLEFT
 10
0.0
 20
0.0
 30
0.0
  9
$UCSORGRIGHT
 10
0.0
 20
0.0
 30
0.0
  9
$UCSORGFRONT
 10
0.0
 20
0.0
 30
0.0
  9
$UCSORGBACK
 10
0.0
 20
0.0
 30
0.0
  9
$PUCSBASE
  2

  9
$PUCSNAME
  2

  9
$PUCSORG
 10
0.0
 20
0.0
 30
0.0
  9
$PUCSXDIR
 10
1.0
 20
0.0
 30
0.0
  9
$PUCSYDIR
 10
0.0
 20
1.0
 30
0.0
  9
$PUCSORTHOREF
  2

  9
$PUCSORTHOVIEW
 70
     0
  9
$PUCSORGTOP
 10
0.0
 20
0.0
 30
0.0
  9
$PUCSORGBOTTOM
 10
0.0
 20
0.0
 30
0.0
  9
$PUCSORGLEFT
 10
0.0
 20
0.0
 30
0.0
  9
$PUCSORGRIGHT
 10
0.0
 20
0.0
 30
0.0
  9
$PUCSORGFRONT
 10
0.0
 20
0.0
 30
0.0
  9
$PUCSORGBACK
 10
0.0
 20
0.0
 30
0.0
  9
$USERI1
 70
     0
  9
$USERI2
 70
     0
  9
$USERI3
 70
     0
  9
$USERI4
 70
     0
  9
$USERI5
 70
     0
  9
$USERR1
 40
0.0
  9
$USERR2
 40
0.0
  9
$USERR3
 40
0.0
  9
$USERR4
 40
0.0
  9
$USERR5
 40
0.0
  9
$WORLDVIEW
 70
     1
  9
$SHADEDGE
 70
     3
  9
$SHADEDIF
 70
    70
  9
$TILEMODE
 70
     1
  9
$MAXACTVP
 70
    64
  9
$PINSBASE
 10
0.0
 20
0.0
 30
0.0
  9
$PLIMCHECK
 70
     0
  9
$PEXTMIN
 10
1.000000E+20
 20
1.000000E+20
 30
1.000000E+20
  9
$PEXTMAX
 10
-1.000000E+20
 20
-1.000000E+20
 30
-1.000000E+20
  9
$PLIMMIN
 10
0.0
 20
0.0
  9
$PLIMMAX
 10
420.0
 20
297.0
  9
$UNITMODE
 70
     0
  9
$VISRETAIN
 70
     1
  9
$PLINEGEN
 70
     0
  9
$PSLTSCALE
 70
     0
  9
$TREEDEPTH
 70
  3020
  9
$CMLSTYLE
  2
Standard
  9
$CMLJUST
 70
     0
  9
$CMLSCALE
 40
20.0
  9
$PROXYGRAPHICS
 70
     1
  9
$MEASUREMENT
 70
     1
  9
$CELWEIGHT
370
    -1
  9
$ENDCAPS
280
     0
  9
$JOINSTYLE
280
     0
  9
$LWDISPLAY
290
     1
  9
$INSUNITS
 70
     4
  9
$HYPERLINKBASE
  1

  9
$STYLESHEET
  1

  9
$XEDIT
290
     1
  9
$CEPSNTYPE
380
     0
  9
$PSTYLEMODE
290
     1
  9
$FINGERPRINTGUID
  2
{7d34043c-72d5-46cd-9aca-d04c3ed695d2}
  9
$VERSIONGUID
  2
{FAEB1C32-E019-11D5-929B-00C0DF256EC4}
  9
$EXTNAMES
290
     1
  9
$PSVPSCALE
 40
0.0
  9
$OLESTARTUP
290
     0
  9
$SORTENTS
280
   127
  9
$INDEXCTL
280
     0
  9
$HIDETEXT
280
     1
  9
$XCLIPFRAME
280
     2
  9
$HALOGAP
280
     0
  9
$OBSCOLOR
 70
   257
  9
$OBSLTYPE
280
     0
  9
$INTERSECTIONDISPLAY
280
     0
  9
$INTERSECTIONCOLOR
 70
   257
  9
$DIMASSOC
280
     2
  9
$PROJECTNAME
  1

  9
$CAMERADISPLAY
290
     0
  9
$LENSLENGTH
 40
50.0
  9
$CAMERAHEIGHT
 40
0.0
  9
$STEPSPERSEC
 40
2.0
  9
$STEPSIZE
 40
6.0
  9
$3DDWFPREC
 40
2.0
  9
$PSOLWIDTH
 40
0.25
  9
$PSOLHEIGHT
 40
4.0
  9
$LOFTANG1
 40
1.570796
  9
$LOFTANG2
 40
1.570796
  9
$LOFTMAG1
 40
0.0
  9
$LOFTMAG2
 40
0.0
  9
$LOFTPARAM
 70
     7
  9
$LOFTNORMALS
280
     1
  9
$LATITUDE
 40
37.795
  9
$LONGITUDE
 40
-122.394
  9
$NORTHDIRECTION
 40
0.0
  9
$TIMEZONE
 70
 -8000
  9
$LIGHTGLYPHDISPLAY
280
     1
  9
$TILEMODELIGHTSYNCH
280
     1
  9
$SOLIDHIST
280
     1
  9
$SHOWHIST
280
     1
  9
$DWFFRAME
280
     2
  9
$DGNFRAME
280
     2
  9
$REALWORLDSCALE
290
     1
  9
$INTERFERECOLOR
 62
   256
  9
$CSHADOW
280
     0
  9
$SHADOWPLANELOCATION
 40
0.0
  0
ENDSEC
  0
SECTION
  2
CLASSES
  0
CLASS
  1
ACDBDICTIONARYWDFLT
  2
AcDbDictionaryWithDefault
  3
ObjectDBX Classes
 90
        0
 91
        6
280
     0
281
     0
  0
CLASS
  1
VISUALSTYLE
  2
AcDbVisualStyle
  3
ObjectDBX Classes
 90
     4095
 91
        5
280
     0
281
     0
  0
CLASS
  1
MATERIAL
  2
AcDbMaterial
  3
ObjectDBX Classes
 90
     1153
 91
        5
280
     0
281
     0
  0
CLASS
  1
SCALE
  2
AcDbScale
  3
ObjectDBX Classes
 90
     1153
 91
        5
280
     0
281
     0
  0
CLASS
  1
TABLESTYLE
  2
AcDbTableStyle
  3
ObjectDBX Classes
 90
     4095
 91
        5
280
     0
281
     0
  0
CLASS
  1
MLEADERSTYLE
  2
AcDbMLeaderStyle
  3
ACDB_MLEADERSTYLE_CLASS
 90
     4095
 91
        4
280
     0
281
     0
  0
CLASS
  1
SUN
  2
AcDbSun
  3
SCENEOE
 90
     1153
 91
        5
280
     0
281
     0
  0
CLASS
  1
ACDBPLACEHOLDER
  2
AcDbPlaceHolder
  3
ObjectDBX Classes
 90
        0
 91
        1
280
     0
281
     0
  0
CLASS
  1
LAYOUT
  2
AcDbLayout
  3
ObjectDBX Classes
 90
        0
 91
        1
280
     0
281
     0
  0
CLASS
  1
CSACDOCUMENTOPTIONS
  2
CDocDataContainer
  3
"DERU003_CSAPP"
 90
     4095
 91
        4
280
     0
281
     0
  0
CLASS
  1
CELLSTYLEMAP
  2
AcDbCellStyleMap
  3
ObjectDBX Classes
 90
     1152
 91
        4
280
     0
281
     0
  0
CLASS
  1
DICTIONARYVAR
  2
AcDbDictionaryVar
  3
ObjectDBX Classes
 90
        0
 91
        4
280
     0
281
     0
  0
ENDSEC
  0
SECTION
  2
TABLES
  0
TABLE
  2
VPORT
  5
8
330
0
100
AcDbSymbolTable
 70
     1
  0
VPORT
  5
29
330
8
100
AcDbSymbolTableRecord
100
AcDbViewportTableRecord
  2
*Active
 70
     0
 10
0.0
 20
0.0
 11
1.0
 21
1.0
 12
121.308772
 22
113.326951
 13
0.0
 23
0.0
 14
10.0
 24
10.0
 15
10.0
 25
10.0
 16
0.0
 26
0.0
 36
1.0
 17
0.0
 27
0.0
 37
0.0
 40
485.775
 41
2.019036
 42
50.0
 43
0.0
 44
0.0
 50
0.0
 51
0.0
 71
    16
 72
  2000
 73
     1
 74
     3
 75
     0
 76
     0
 77
     0
 78
     0
281
     0
 65
     1
110
0.0
120
0.0
130
0.0
111
1.0
121
0.0
131
0.0
112
0.0
122
1.0
132
0.0
 79
     0
146
0.0
348
197
 60
     3
 61
     5
292
     1
282
     1
141
0.0
142
0.0
 63
   256
361
1B4
  0
ENDTAB
  0
TABLE
  2
LTYPE
  5
5
330
0
100
AcDbSymbolTable
 70
     6
  0
LTYPE
  5
14
330
5
100
AcDbSymbolTableRecord
100
AcDbLinetypeTableRecord
  2
ByBlock
 70
     0
  3

 72
    65
 73
     0
 40
0.0
  0
LTYPE
  5
15
330
5
100
AcDbSymbolTableRecord
100
AcDbLinetypeTableRecord
  2
ByLayer
 70
     0
  3

 72
    65
 73
     0
 40
0.0
  0
LTYPE
  5
16
330
5
100
AcDbSymbolTableRecord
100
AcDbLinetypeTableRecord
  2
Continuous
 70
     0
  3
Solid line
 72
    65
 73
     0
 40
0.0
  0
LTYPE
  5
5E
330
5
100
AcDbSymbolTableRecord
100
AcDbLinetypeTableRecord
  2
HIDDEN
 70
     0
  3
Hidden __ __ __ __ __ __ __ __ __ __ __ __ __ __
 72
    65
 73
     2
 40
1.905
 49
1.27
 74
     0
 49
-0.635
 74
     0
  0
LTYPE
  5
5F
330
5
100
AcDbSymbolTableRecord
100
AcDbLinetypeTableRecord
  2
PHANTOM
 70
     0
  3
Phantom ______  __  __  ______  __  __  ______
 72
    65
 73
     6
 40
12.7
 49
6.35
 74
     0
 49
-1.27
 74
     0
 49
1.27
 74
     0
 49
-1.27
 74
     0
 49
1.27
 74
     0
 49
-1.27
 74
     0
  0
LTYPE
  5
60
330
5
100
AcDbSymbolTableRecord
100
AcDbLinetypeTableRecord
  2
CENTER
 70
     0
  3
Center ____ _ ____ _ ____ _ ____ _ ____ _ ____
 72
    65
 73
     4
 40
10.16
 49
6.35
 74
     0
 49
-1.27
 74
     0
 49
1.27
 74
     0
 49
-1.27
 74
     0
  0
LTYPE
  5
61
330
5
100
AcDbSymbolTableRecord
100
AcDbLinetypeTableRecord
  2
CENTERX2
 70
     0
  3
Center (2x) ________  __  ________  __  _____
 72
    65
 73
     4
 40
20.32
 49
12.7
 74
     0
 49
-2.54
 74
     0
 49
2.54
 74
     0
 49
-2.54
 74
     0
  0
LTYPE
  5
62
330
5
100
AcDbSymbolTableRecord
100
AcDbLinetypeTableRecord
  2
DOT2
 70
     0
  3
Dot (.5x) ........................................
 72
    65
 73
     2
 40
0.635
 49
0.0
 74
     0
 49
-0.635
 74
     0
  0
ENDTAB
  0
TABLE
  2
LAYER
  5
2
330
0
100
AcDbSymbolTable
 70
     3
  0
LAYER
  5
10
330
2
100
AcDbSymbolTableRecord
100
AcDbLayerTableRecord
  2
0
 70
     0
 62
     7
  6
Continuous
370
    -3
390
F
347
1AE
348
0
  0
LAYER
  5
63
330
2
100
AcDbSymbolTableRecord
100
AcDbLayerTableRecord
  2
FORMAT
 70
     0
 62
     7
  6
Continuous
370
    -3
390
F
347
1AE
348
0
  0
LAYER
  5
64
330
2
100
AcDbSymbolTableRecord
100
AcDbLayerTableRecord
  2
RÉVISIONS
 70
     0
 62
     7
  6
Continuous
370
    -3
390
F
347
1AE
348
0
  0
ENDTAB
  0
TABLE
  2
STYLE
  5
3
330
0
100
AcDbSymbolTable
 70
     4
  0
STYLE
  5
11
330
3
100
AcDbSymbolTableRecord
100
AcDbTextStyleTableRecord
  2
Standard
 70
     0
 40
0.0
 41
1.0
 50
0.0
 71
     0
 42
3.175
  3
txt
  4

  0
STYLE
  5
88
330
3
100
AcDbSymbolTableRecord
100
AcDbTextStyleTableRecord
  2
SLDTEXTSTYLE0
 70
     0
 40
0.0
 41
0.605
 50
0.0
 71
     0
 42
3.175
  3
TXT
  4

  0
STYLE
  5
92
330
3
100
AcDbSymbolTableRecord
100
AcDbTextStyleTableRecord
  2
SLDTEXTSTYLE1
 70
     0
 40
0.0
 41
0.75
 50
0.0
 71
     0
 42
3.175
  3
TXT
  4

  0
STYLE
  5
AE
330
3
100
AcDbSymbolTableRecord
100
AcDbTextStyleTableRecord
  2
SLDTEXTSTYLE2
 70
     0
 40
0.0
 41
0.6875
 50
0.0
 71
     0
 42
3.175
  3
TXT
  4

  0
ENDTAB
  0
TABLE
  2
VIEW
  5
6
330
0
100
AcDbSymbolTable
 70
     0
  0
ENDTAB
  0
TABLE
  2
UCS
  5
7
330
0
100
AcDbSymbolTable
 70
     0
  0
ENDTAB
  0
TABLE
  2
APPID
  5
9
330
0
100
AcDbSymbolTable
 70
     6
  0
APPID
  5
12
330
9
100
AcDbSymbolTableRecord
100
AcDbRegAppTableRecord
  2
ACAD
 70
     0
  0
APPID
  5
1AF
330
9
100
AcDbSymbolTableRecord
100
AcDbRegAppTableRecord
  2
MCS_DIM1
 70
     0
  0
APPID
  5
1B0
330
9
100
AcDbSymbolTableRecord
100
AcDbRegAppTableRecord
  2
McsXdata5
 70
     0
  0
APPID
  5
1B3
330
9
100
AcDbSymbolTableRecord
100
AcDbRegAppTableRecord
  2
MCS_DOCUMENT_ID
 70
     0
  0
APPID
  5
1BB
330
9
100
AcDbSymbolTableRecord
100
AcDbRegAppTableRecord
  2
MCS_PARAMS_DATA
 70
     0
  0
APPID
  5
1BD
330
9
100
AcDbSymbolTableRecord
100
AcDbRegAppTableRecord
  2
MC_VERSION_DATA
 70
     0
  0
ENDTAB
  0
TABLE
  2
DIMSTYLE
  5
A
330
0
100
AcDbSymbolTable
 70
     4
100
AcDbDimStyleTable
  0
DIMSTYLE
105
27
330
A
100
AcDbSymbolTableRecord
100
AcDbDimStyleTableRecord
  2
ISO-25
 70
     0
 41
2.5
 42
0.625
 43
3.75
 44
1.25
 73
     0
 74
     0
 77
     1
 78
     8
140
2.5
141
2.5
143
0.03937
147
0.625
171
     3
172
     1
178
     0
271
     2
272
     2
274
     3
278
    44
283
     0
284
     8
340
11
  0
DIMSTYLE
105
DC
330
A
100
AcDbSymbolTableRecord
100
AcDbDimStyleTableRecord
  2
SLDDIMSTYLE0
 70
     0
 41
3.302
 44
0.0
 45
0.0
 78
    12
 79
     3
140
2.311487
143
0.03937
144
8.0
147
0.577872
148
0.0
170
     1
171
     0
172
     1
173
     1
178
     0
271
     0
272
     0
274
     0
276
     2
284
    12
289
     0
340
88
  0
DIMSTYLE
105
EA
330
A
100
AcDbSymbolTableRecord
100
AcDbDimStyleTableRecord
  2
SLDDIMSTYLE1
 70
     0
 41
3.302
 44
0.0
 45
0.0
 78
    12
 79
     3
140
2.311487
143
0.03937
144
8.0
147
0.577872
148
0.0
170
     1
171
     0
173
     1
178
     0
271
     0
272
     0
274
     0
276
     2
284
    12
340
88
  0
DIMSTYLE
105
116
330
A
100
AcDbSymbolTableRecord
100
AcDbDimStyleTableRecord
  2
SLDDIMSTYLE2
 70
     0
 41
3.302
 44
0.0
 45
0.0
146
3.302
147
0.0
173
     1
178
     0
271
     0
272
     0
276
     2
340
11
  0
ENDTAB
  0
TABLE
  2
BLOCK_RECORD
  5
1
330
0
100
AcDbSymbolTable
 70
     5
  0
BLOCK_RECORD
  5
1F
330
1
100
AcDbSymbolTableRecord
100
AcDbBlockTableRecord
  2
*Model_Space
340
22
 70
     0
280
     1
281
     0
  0
BLOCK_RECORD
  5
1B
330
1
100
AcDbSymbolTableRecord
100
AcDbBlockTableRecord
  2
*Paper_Space
340
1E
 70
     0
280
     1
281
     0
  0
BLOCK_RECORD
  5
23
330
1
100
AcDbSymbolTableRecord
100
AcDbBlockTableRecord
  2
*Paper_Space0
340
26
 70
     0
280
     1
281
     0
  0
BLOCK_RECORD
  5
B2
330
1
100
AcDbSymbolTableRecord
100
AcDbBlockTableRecord
  2
SW_BROKEN_VIEW_0
340
0
102
{BLKREFS
331
0
102
}
 70
     0
280
     1
281
     0
  0
BLOCK_RECORD
  5
DD
330
1
100
AcDbSymbolTableRecord
100
AcDbBlockTableRecord
  2
_D
340
0
 70
     0
280
     1
281
     0
  0
BLOCK_RECORD
  5
EB
330
1
100
AcDbSymbolTableRecord
100
AcDbBlockTableRecord
  2
_D_1
340
0
 70
     0
280
     1
281
     0
  0
BLOCK_RECORD
  5
FB
330
1
100
AcDbSymbolTableRecord
100
AcDbBlockTableRecord
  2
_D_2
340
0
 70
     0
280
     1
281
     0
  0
ENDTAB
  0
ENDSEC
  0
SECTION
  2
BLOCKS
  0
BLOCK
  5
20
330
1F
100
AcDbEntity
  8
0
100
AcDbBlockBegin
  2
*Model_Space
 70
     0
 10
0.0
 20
0.0
 30
0.0
  3
*Model_Space
  1
*Model_Space
  0
ENDBLK
  5
21
330
1F
100
AcDbEntity
  8
0
100
AcDbBlockEnd
  0
BLOCK
  5
1C
330
1B
100
AcDbEntity
 67
     1
  8
0
100
AcDbBlockBegin
  2
*Paper_Space
 70
     0
 10
0.0
 20
0.0
 30
0.0
  3
*Paper_Space
  1
*Paper_Space
  0
ENDBLK
  5
1D
330
1B
100
AcDbEntity
 67
     1
  8
0
100
AcDbBlockEnd
  0
BLOCK
  5
24
330
23
100
AcDbEntity
  8
0
100
AcDbBlockBegin
  2
*Paper_Space0
 70
     0
 10
0.0
 20
0.0
 30
0.0
  3
*Paper_Space0
  1
*Paper_Space0
  0
ENDBLK
  5
25
330
23
100
AcDbEntity
  8
0
100
AcDbBlockEnd
  0
BLOCK
  5
B3
330
B2
100
AcDbEntity
  8
0
100
AcDbBlockBegin
  2
SW_BROKEN_VIEW_0
 70
     0
 10
0.0
 20
0.0
 30
0.0
  3
SW_BROKEN_VIEW_0
  1
SW_BROKEN_VIEW_0
  0
LINE
  5
B5
330
B2
100
AcDbEntity
  8
0
  6
Continuous
 62
     0
100
AcDbLine
 10
0.0
 20
0.0
 30
0.0
 11
114.834324
 21
0.0
 31
0.0
  0
ENDBLK
  5
B4
330
B2
100
AcDbEntity
  8
0
100
AcDbBlockEnd
  0
BLOCK
  5
DE
330
DD
100
AcDbEntity
  8
0
100
AcDbBlockBegin
  2
_D
 70
     0
 10
0.0
 20
0.0
 30
0.0
  3
_D
  1
_D
  0
SOLID
  5
E0
330
DD
100
AcDbEntity
  8
FORMAT
100
AcDbTrace
 10
38.536512
 20
158.605346
 30
0.0
 11
38.028512
 21
155.303346
 31
0.0
 12
39.044512
 22
155.303346
 32
0.0
 13
39.044512
 23
155.303346
 33
0.0
  0
SOLID
  5
E1
330
DD
100
AcDbEntity
  8
FORMAT
100
AcDbTrace
 10
38.536512
 20
184.601641
 30
0.0
 11
39.044512
 21
187.903641
 31
0.0
 12
38.028512
 22
187.903641
 32
0.0
 13
38.028512
 23
187.903641
 33
0.0
  0
LINE
  5
E2
330
DD
100
AcDbEntity
  8
FORMAT
100
AcDbLine
 10
58.21928
 20
184.601641
 30
0.0
 11
37.536512
 21
184.601641
 31
0.0
  0
LINE
  5
E3
330
DD
100
AcDbEntity
  8
FORMAT
100
AcDbLine
 10
38.536512
 20
158.605346
 30
0.0
 11
38.536512
 21
152.255346
 31
0.0
  0
LINE
  5
E4
330
DD
100
AcDbEntity
  8
FORMAT
100
AcDbLine
 10
38.536512
 20
184.601641
 30
0.0
 11
38.536512
 21
190.951641
 31
0.0
  0
MTEXT
  5
E5
330
DD
100
AcDbEntity
  8
FORMAT
100
AcDbMText
 10
35.273318
 20
180.066569
 30
0.0
 40
2.38125
 41
0.0
 46
0.0
 71
     1
 72
     1
  1
min.
  7
SLDTEXTSTYLE0
 73
     1
 44
1.0
  0
MTEXT
  5
E6
330
DD
100
AcDbEntity
  8
FORMAT
100
AcDbMText
 10
32.627484
 20
176.516743
 30
0.0
 40
2.38125
 41
0.0
 46
0.0
 71
     1
 72
     1
  1
152 mm
  7
SLDTEXTSTYLE0
 73
     1
 44
1.0
  0
MTEXT
  5
E7
330
DD
100
AcDbEntity
  8
FORMAT
100
AcDbMText
 10
35.842171
 20
172.966916
 30
0.0
 40
2.38125
 41
0.0
 46
0.0
 71
     1
 72
     1
  1
(6'')
  7
SLDTEXTSTYLE0
 73
     1
 44
1.0
  0
MTEXT
  5
E8
330
DD
100
AcDbEntity
  8
FORMAT
100
AcDbMText
 10
29.717067
 20
169.41709
 30
0.0
 40
2.38125
 41
0.0
 46
0.0
 71
     1
 72
     1
  1
See note #2
  7
SLDTEXTSTYLE0
 73
     1
 44
1.0
  0
ENDBLK
  5
DF
330
DD
100
AcDbEntity
  8
0
100
AcDbBlockEnd
  0
BLOCK
  5
EC
330
EB
100
AcDbEntity
  8
0
100
AcDbBlockBegin
  2
_D_1
 70
     0
 10
0.0
 20
0.0
 30
0.0
  3
_D_1
  1
_D_1
  0
SOLID
  5
EE
330
EB
100
AcDbEntity
  8
FORMAT
100
AcDbTrace
 10
38.536512
 20
60.691499
 30
0.0
 11
39.044512
 21
63.993499
 31
0.0
 12
38.028512
 22
63.993499
 32
0.0
 13
38.028512
 23
63.993499
 33
0.0
  0
SOLID
  5
EF
330
EB
100
AcDbEntity
  8
FORMAT
100
AcDbTrace
 10
38.536512
 20
158.605346
 30
0.0
 11
38.028512
 21
155.303346
 31
0.0
 12
39.044512
 22
155.303346
 32
0.0
 13
39.044512
 23
155.303346
 33
0.0
  0
LINE
  5
F0
330
EB
100
AcDbEntity
  8
FORMAT
100
AcDbLine
 10
67.554674
 20
60.691499
 30
0.0
 11
37.536512
 21
60.691499
 31
0.0
  0
LINE
  5
F1
330
EB
100
AcDbEntity
  8
FORMAT
100
AcDbLine
 10
38.536512
 20
60.691499
 30
0.0
 11
38.536512
 21
89.866647
 31
0.0
  0
LINE
  5
F2
330
EB
100
AcDbEntity
  8
FORMAT
100
AcDbLine
 10
38.536512
 20
158.605346
 30
0.0
 11
38.536512
 21
124.910308
 31
0.0
  0
LINE
  5
F3
330
EB
100
AcDbEntity
  8
FORMAT
100
AcDbLine
 10
38.536512
 20
89.866647
 30
0.0
 11
40.124012
 21
90.660397
 31
0.0
  0
LINE
  5
F4
330
EB
100
AcDbEntity
  8
FORMAT
100
AcDbLine
 10
40.124012
 20
90.660397
 30
0.0
 11
36.949012
 21
92.247897
 31
0.0
  0
LINE
  5
F5
330
EB
100
AcDbEntity
  8
FORMAT
100
AcDbLine
 10
36.949012
 20
92.247897
 30
0.0
 11
38.536512
 21
93.041647
 31
0.0
  0
LINE
  5
F6
330
EB
100
AcDbEntity
  8
FORMAT
100
AcDbLine
 10
38.536512
 20
93.041647
 30
0.0
 11
38.536512
 21
114.260829
 31
0.0
  0
MTEXT
  5
F7
330
EB
100
AcDbEntity
  8
FORMAT
100
AcDbMText
 10
25.130956
 20
124.430074
 30
0.0
 40
2.38125
 41
0.0
 46
0.0
 71
     1
 72
     1
  1
Below frost depth
  7
SLDTEXTSTYLE0
 73
     1
 44
1.0
  0
MTEXT
  5
F8
330
EB
100
AcDbEntity
  8
FORMAT
100
AcDbMText
 10
22.220539
 20
120.880247
 30
0.0
 40
2.38125
 41
0.0
 46
0.0
 71
     1
 72
     1
  1
until required bearing
  7
SLDTEXTSTYLE0
 73
     1
 44
1.0
  0
MTEXT
  5
F9
330
EB
100
AcDbEntity
  8
FORMAT
100
AcDbMText
 10
23.896233
 20
117.330421
 30
0.0
 40
2.38125
 41
0.0
 46
0.0
 71
     1
 72
     1
  1
capacity is reached
  7
SLDTEXTSTYLE0
 73
     1
 44
1.0
  0
ENDBLK
  5
ED
330
EB
100
AcDbEntity
  8
0
100
AcDbBlockEnd
  0
BLOCK
  5
FC
330
FB
100
AcDbEntity
  8
0
100
AcDbBlockBegin
  2
_D_2
 70
     0
 10
0.0
 20
0.0
 30
0.0
  3
_D_2
  1
_D_2
  0
SOLID
  5
FE
330
FB
100
AcDbEntity
  8
FORMAT
100
AcDbTrace
 10
53.109307
 20
50.691499
 30
0.0
 11
56.411307
 21
50.183499
 31
0.0
 12
56.411307
 22
51.199499
 32
0.0
 13
56.411307
 23
51.199499
 33
0.0
  0
SOLID
  5
FF
330
FB
100
AcDbEntity
  8
FORMAT
100
AcDbTrace
 10
78.508424
 20
50.691499
 30
0.0
 11
75.206424
 21
51.199499
 31
0.0
 12
75.206424
 22
50.183499
 32
0.0
 13
75.206424
 23
50.183499
 33
0.0
  0
LINE
  5
100
330
FB
100
AcDbEntity
  8
FORMAT
100
AcDbLine
 10
53.109307
 20
68.648198
 30
0.0
 11
53.109307
 21
49.691499
 31
0.0
  0
LINE
  5
101
330
FB
100
AcDbEntity
  8
FORMAT
100
AcDbLine
 10
78.508424
 20
73.755037
 30
0.0
 11
78.508424
 21
49.691499
 31
0.0
  0
LINE
  5
102
330
FB
100
AcDbEntity
  8
FORMAT
100
AcDbLine
 10
53.109307
 20
50.691499
 30
0.0
 11
78.508424
 21
50.691499
 31
0.0
  0
LINE
  5
103
330
FB
100
AcDbEntity
  8
FORMAT
100
AcDbLine
 10
78.508424
 20
50.691499
 30
0.0
 11
91.833601
 21
50.691499
 31
0.0
  0
MTEXT
  5
104
330
FB
100
AcDbEntity
  8
FORMAT
100
AcDbMText
 10
92.362587
 20
55.536005
 30
0.0
 40
2.38125
 41
0.0
 46
0.0
 71
     1
 72
     1
  1
152 mm to 305 mm (6'' to 12'')
  7
SLDTEXTSTYLE0
 73
     1
 44
1.0
  0
MTEXT
  5
105
330
FB
100
AcDbEntity
  8
FORMAT
100
AcDbMText
 10
92.362587
 20
51.986179
 30
0.0
 40
2.38125
 41
0.0
 46
0.0
 71
     1
 72
     1
  1
Depending on the type of soil
  7
SLDTEXTSTYLE0
 73
     1
 44
1.0
  0
MTEXT
  5
106
330
FB
100
AcDbEntity
  8
FORMAT
100
AcDbMText
 10
92.362587
 20
48.436352
 30
0.0
 40
2.38125
 41
0.0
 46
0.0
 71
     1
 72
     1
  1
and required bearing capacity
  7
SLDTEXTSTYLE0
 73
     1
 44
1.0
  0
ENDBLK
  5
FD
330
FB
100
AcDbEntity
  8
0
100
AcDbBlockEnd
  0
ENDSEC
  0
SECTION
  2
ENTITIES
  0
LINE
  5
139
330
1F
100
AcDbEntity
  8
0
  6
Continuous
 62
     7
370
    25
100
AcDbLine
 10
187.882917
 20
192.595749
 30
0.0
 11
187.882917
 21
193.114253
 31
0.0
  0
LINE
  5
13A
330
1F
100
AcDbEntity
  8
0
  6
Continuous
 62
     7
370
    25
100
AcDbLine
 10
174.040558
 20
193.114253
 30
0.0
 11
174.040558
 21
192.595749
 31
0.0
  0
LINE
  5
13B
330
1F
100
AcDbEntity
  8
0
  6
Continuous
 62
     7
370
    25
100
AcDbLine
 10
177.962942
 20
180.141591
 30
0.0
 11
177.962942
 21
43.775193
 31
0.0
  0
LINE
  5
13C
330
1F
100
AcDbEntity
  8
0
  6
Continuous
 62
     7
370
    25
100
AcDbLine
 10
183.995442
 20
43.775193
 30
0.0
 11
183.995442
 21
180.141591
 31
0.0
  0
LINE
  5
13D
330
1F
100
AcDbEntity
  8
0
  6
Continuous
 62
     7
370
    25
100
AcDbLine
 10
191.139192
 20
25.221298
 30
0.0
 11
191.139192
 21
25.999053
 31
0.0
  0
LINE
  5
13E
330
1F
100
AcDbEntity
  8
0
  6
Continuous
 62
     7
370
    25
100
AcDbLine
 10
170.819192
 20
29.347548
 30
0.0
 11
170.819192
 21
28.569793
 31
0.0
  0
LINE
  5
13F
330
1F
100
AcDbEntity
  8
0
  6
Continuous
 62
     7
370
    25
100
AcDbLine
 10
183.392192
 20
21.73206
 30
0.0
 11
183.392192
 21
22.99017
 31
0.0
  0
LINE
  5
140
330
1F
100
AcDbEntity
  8
0
  6
Continuous
 62
     7
370
    25
100
AcDbLine
 10
183.392192
 20
26.101846
 30
0.0
 11
183.392192
 21
42.730446
 31
0.0
  0
LINE
  5
141
330
1F
100
AcDbEntity
  8
0
  6
Continuous
 62
     7
370
    25
100
AcDbLine
 10
183.392192
 20
179.683736
 30
0.0
 11
183.392192
 21
189.851467
 31
0.0
  0
LINE
  5
142
330
1F
100
AcDbEntity
  8
0
  6
Continuous
 62
     7
370
    25
100
AcDbLine
 10
178.566192
 20
189.831315
 30
0.0
 11
178.566192
 21
179.683736
 31
0.0
  0
LINE
  5
143
330
1F
100
AcDbEntity
  8
0
  6
Continuous
 62
     7
370
    25
100
AcDbLine
 10
178.566192
 20
42.730446
 30
0.0
 11
178.566192
 21
29.288683
 31
0.0
  0
LINE
  5
144
330
1F
100
AcDbEntity
  8
0
  6
Continuous
 62
     7
370
    25
100
AcDbLine
 10
178.566192
 20
24.300137
 30
0.0
 11
178.566192
 21
18.945617
 31
0.0
  0
LWPOLYLINE
  5
145
330
1F
100
AcDbEntity
  8
0
  6
Continuous
 62
     7
370
    25
100
AcDbPolyline
 90
       25
 70
   128
 43
0.0
 10
180.596915
 20
190.311549
 10
180.703769
 20
190.264216
 10
180.828203
 20
190.234461
 10
180.961738
 20
190.224312
 10
181.095272
 20
190.234461
 10
181.219707
 20
190.264216
 10
181.326561
 20
190.311549
 10
181.408553
 20
190.373235
 10
181.460095
 20
190.445069
 10
181.477675
 20
190.522157
 10
181.460095
 20
190.599245
 10
181.408553
 20
190.671079
 10
181.326561
 20
190.732765
 10
181.219707
 20
190.780098
 10
181.095272
 20
190.809852
 10
180.961738
 20
190.820001
 10
180.828203
 20
190.809852
 10
180.703769
 20
190.780098
 10
180.596915
 20
190.732765
 10
180.514923
 20
190.671079
 10
180.46338
 20
190.599245
 10
180.4458
 20
190.522157
 10
180.46338
 20
190.445069
 10
180.514923
 20
190.373235
 10
180.596915
 20
190.311549
  0
LWPOLYLINE
  5
146
330
1F
100
AcDbEntity
  8
0
  6
Continuous
 62
     7
370
    25
100
AcDbPolyline
 90
       25
 70
   128
 43
0.0
 10
185.087043
 20
192.903645
 10
185.193897
 20
192.856312
 10
185.318331
 20
192.826557
 10
185.451866
 20
192.816408
 10
185.5854
 20
192.826557
 10
185.709835
 20
192.856312
 10
185.816689
 20
192.903645
 10
185.898681
 20
192.96533
 10
185.950223
 20
193.037165
 10
185.967803
 20
193.114253
 10
185.950223
 20
193.19134
 10
185.898681
 20
193.263175
 10
185.816689
 20
193.32486
 10
185.709835
 20
193.372193
 10
185.5854
 20
193.401948
 10
185.451866
 20
193.412097
 10
185.318331
 20
193.401948
 10
185.193897
 20
193.372193
 10
185.087043
 20
193.32486
 10
185.005051
 20
193.263175
 10
184.953508
 20
193.19134
 10
184.935928
 20
193.114253
 10
184.953508
 20
193.037165
 10
185.005051
 20
192.96533
 10
185.087043
 20
192.903645
  0
LINE
  5
147
330
1F
100
AcDbEntity
  8
0
  6
Continuous
 62
     7
370
    25
100
AcDbLine
 10
180.512725
 20
197.002396
 30
0.0
 11
174.226546
 21
193.373462
 31
0.0
  0
ARC
  5
148
330
1F
100
AcDbEntity
  8
0
  6
Continuous
 62
     7
370
    25
100
AcDbCircle
 10
180.961738
 20
196.135805
 30
0.0
 40
0.9760089115241242
100
AcDbArc
 50
62.609672
 51
117.390328
  0
LINE
  5
149
330
1F
100
AcDbEntity
  8
0
  6
Continuous
 62
     7
370
    25
100
AcDbLine
 10
187.69693
 20
193.373462
 30
0.0
 11
181.410751
 21
197.002396
 31
0.0
  0
ARC
  5
14A
330
1F
100
AcDbEntity
  8
0
  6
Continuous
 62
     7
370
    25
100
AcDbCircle
 10
187.598551
 20
193.114253
 30
0.0
 40
0.2772507261897892
100
AcDbArc
 50
290.783421
 51
69.216579
  0
LINE
  5
14B
330
1F
100
AcDbEntity
  8
0
  6
Continuous
 62
     7
370
    25
100
AcDbLine
 10
181.410751
 20
189.226109
 30
0.0
 11
187.69693
 21
192.855043
 31
0.0
  0
ARC
  5
14C
330
1F
100
AcDbEntity
  8
0
  6
Continuous
 62
     7
370
    25
100
AcDbCircle
 10
180.961738
 20
190.0927
 30
0.0
 40
0.9760089115241242
100
AcDbArc
 50
242.609672
 51
297.390328
  0
LINE
  5
14D
330
1F
100
AcDbEntity
  8
0
  6
Continuous
 62
     7
370
    25
100
AcDbLine
 10
174.226546
 20
192.855043
 30
0.0
 11
180.512725
 21
189.226109
 31
0.0
  0
ARC
  5
14E
330
1F
100
AcDbEntity
  8
0
  6
Continuous
 62
     7
370
    25
100
AcDbCircle
 10
174.324924
 20
193.114253
 30
0.0
 40
0.2772507261898094
100
AcDbArc
 50
110.783421
 51
249.216579
  0
LWPOLYLINE
  5
14F
330
1F
100
AcDbEntity
  8
0
  6
Continuous
 62
     7
370
    25
100
AcDbPolyline
 90
       25
 70
   128
 43
0.0
 10
180.596915
 20
195.495741
 10
180.703769
 20
195.448408
 10
180.828203
 20
195.418653
 10
180.961738
 20
195.408504
 10
181.095272
 20
195.418653
 10
181.219707
 20
195.448408
 10
181.326561
 20
195.495741
 10
181.408553
 20
195.557426
 10
181.460095
 20
195.629261
 10
181.477675
 20
195.706348
 10
181.460095
 20
195.783436
 10
181.408553
 20
195.855271
 10
181.326561
 20
195.916956
 10
181.219707
 20
195.964289
 10
181.095272
 20
195.994044
 10
180.961738
 20
196.004193
 10
180.828203
 20
195.994044
 10
180.703769
 20
195.964289
 10
180.596915
 20
195.916956
 10
180.514923
 20
195.855271
 10
180.46338
 20
195.783436
 10
180.4458
 20
195.706348
 10
180.46338
 20
195.629261
 10
180.514923
 20
195.557426
 10
180.596915
 20
195.495741
  0
LWPOLYLINE
  5
150
330
1F
100
AcDbEntity
  8
0
  6
Continuous
 62
     7
370
    25
100
AcDbPolyline
 90
       25
 70
   128
 43
0.0
 10
176.106787
 20
192.903645
 10
176.213641
 20
192.856312
 10
176.338075
 20
192.826557
 10
176.47161
 20
192.816408
 10
176.605144
 20
192.826557
 10
176.729578
 20
192.856312
 10
176.836433
 20
192.903645
 10
176.918425
 20
192.96533
 10
176.969967
 20
193.037165
 10
176.987547
 20
193.114253
 10
176.969967
 20
193.19134
 10
176.918425
 20
193.263175
 10
176.836433
 20
193.32486
 10
176.729578
 20
193.372193
 10
176.605144
 20
193.401948
 10
176.47161
 20
193.412097
 10
176.338075
 20
193.401948
 10
176.213641
 20
193.372193
 10
176.106787
 20
193.32486
 10
176.024795
 20
193.263175
 10
175.973252
 20
193.19134
 10
175.955672
 20
193.114253
 10
175.973252
 20
193.037165
 10
176.024795
 20
192.96533
 10
176.106787
 20
192.903645
  0
LWPOLYLINE
  5
151
330
1F
100
AcDbEntity
  8
0
  6
Continuous
 62
     7
370
    25
100
AcDbPolyline
 90
       19
 70
   128
 43
0.0
 10
178.492167
 20
194.280696
 10
178.582492
 20
194.244184
 10
178.689002
 20
194.227709
 10
178.798849
 20
194.233257
 10
178.898784
 20
194.260159
 10
178.976754
 20
194.30517
 10
179.023355
 20
194.362862
 10
179.032966
 20
194.426275
 10
179.004426
 20
194.487762
 10
178.94118
 20
194.539905
 10
178.850855
 20
194.576417
 10
178.744346
 20
194.592892
 10
178.634499
 20
194.587344
 10
178.534563
 20
194.560442
 10
178.456593
 20
194.515431
 10
178.409992
 20
194.457739
 10
178.400382
 20
194.394326
 10
178.428921
 20
194.332839
 10
178.492167
 20
194.280696
  0
LWPOLYLINE
  5
152
330
1F
100
AcDbEntity
  8
0
  6
Continuous
 62
     7
370
    25
100
AcDbPolyline
 90
       19
 70
   128
 43
0.0
 10
182.982295
 20
194.280696
 10
183.07262
 20
194.244184
 10
183.17913
 20
194.227709
 10
183.288977
 20
194.233257
 10
183.388912
 20
194.260159
 10
183.466883
 20
194.30517
 10
183.513483
 20
194.362862
 10
183.523094
 20
194.426275
 10
183.494555
 20
194.487762
 10
183.431308
 20
194.539905
 10
183.340983
 20
194.576417
 10
183.234474
 20
194.592892
 10
183.124627
 20
194.587344
 10
183.024691
 20
194.560442
 10
182.946721
 20
194.515431
 10
182.90012
 20
194.457739
 10
182.89051
 20
194.394326
 10
182.919049
 20
194.332839
 10
182.982295
 20
194.280696
  0
LWPOLYLINE
  5
153
330
1F
100
AcDbEntity
  8
0
  6
Continuous
 62
     7
370
    25
100
AcDbPolyline
 90
       19
 70
   128
 43
0.0
 10
182.982295
 20
191.6886
 10
183.07262
 20
191.652089
 10
183.17913
 20
191.635613
 10
183.288977
 20
191.641161
 10
183.388912
 20
191.668063
 10
183.466883
 20
191.713075
 10
183.513483
 20
191.770766
 10
183.523094
 20
191.834179
 10
183.494555
 20
191.895666
 10
183.431308
 20
191.947809
 10
183.340983
 20
191.984321
 10
183.234474
 20
192.000796
 10
183.124627
 20
191.995248
 10
183.024691
 20
191.968346
 10
182.946721
 20
191.923335
 10
182.90012
 20
191.865643
 10
182.89051
 20
191.80223
 10
182.919049
 20
191.740743
 10
182.982295
 20
191.6886
  0
LWPOLYLINE
  5
154
330
1F
100
AcDbEntity
  8
0
  6
Continuous
 62
     7
370
    25
100
AcDbPolyline
 90
       19
 70
   128
 43
0.0
 10
178.492167
 20
191.6886
 10
178.582492
 20
191.652089
 10
178.689002
 20
191.635613
 10
178.798849
 20
191.641161
 10
178.898784
 20
191.668063
 10
178.976754
 20
191.713075
 10
179.023355
 20
191.770766
 10
179.032966
 20
191.834179
 10
179.004426
 20
191.895666
 10
178.94118
 20
191.947809
 10
178.850855
 20
191.984321
 10
178.744346
 20
192.000796
 10
178.634499
 20
191.995248
 10
178.534563
 20
191.968346
 10
178.456593
 20
191.923335
 10
178.409992
 20
191.865643
 10
178.400382
 20
191.80223
 10
178.428921
 20
191.740743
 10
178.492167
 20
191.6886
  0
LINE
  5
155
330
1F
100
AcDbEntity
  8
0
  6
Continuous
 62
     7
370
    25
100
AcDbLine
 10
180.485488
 20
194.763852
 30
0.0
 11
180.485488
 21
193.664119
 31
0.0
  0
LWPOLYLINE
  5
156
330
1F
100
AcDbEntity
  8
0
  6
Continuous
 62
     7
370
    25
100
AcDbPolyline
 90
       12
 70
   128
 43
0.0
 10
180.485488
 20
193.664119
 10
180.504779
 20
193.586661
 10
180.561091
 20
193.515479
 10
180.64986
 20
193.456338
 10
180.763896
 20
193.414031
 10
180.89396
 20
193.391984
 10
181.029515
 20
193.391984
 10
181.159579
 20
193.414031
 10
181.273615
 20
193.456338
 10
181.362385
 20
193.515479
 10
181.418696
 20
193.586661
 10
181.437988
 20
193.664119
  0
LINE
  5
157
330
1F
100
AcDbEntity
  8
0
  6
Continuous
 62
     7
370
    25
100
AcDbLine
 10
181.437988
 20
193.664119
 30
0.0
 11
181.437988
 21
194.763852
 31
0.0
  0
LWPOLYLINE
  5
158
330
1F
100
AcDbEntity
  8
0
  6
Continuous
 62
     7
370
    25
100
AcDbPolyline
 90
       12
 70
   128
 43
0.0
 10
181.437988
 20
194.763852
 10
181.418696
 20
194.84131
 10
181.362385
 20
194.912492
 10
181.273615
 20
194.971633
 10
181.159579
 20
195.01394
 10
181.029515
 20
195.035987
 10
180.89396
 20
195.035987
 10
180.763896
 20
195.01394
 10
180.64986
 20
194.971633
 10
180.561091
 20
194.912492
 10
180.504779
 20
194.84131
 10
180.485488
 20
194.763852
  0
LINE
  5
159
330
1F
100
AcDbEntity
  8
0
  6
Continuous
 62
     7
370
    25
100
AcDbLine
 10
181.437988
 20
191.464653
 30
0.0
 11
181.437988
 21
192.564386
 31
0.0
  0
LWPOLYLINE
  5
15A
330
1F
100
AcDbEntity
  8
0
  6
Continuous
 62
     7
370
    25
100
AcDbPolyline
 90
       12
 70
   128
 43
0.0
 10
181.437988
 20
192.564386
 10
181.418696
 20
192.641844
 10
181.362385
 20
192.713026
 10
181.273615
 20
192.772167
 10
181.159579
 20
192.814474
 10
181.029515
 20
192.836521
 10
180.89396
 20
192.836521
 10
180.763896
 20
192.814474
 10
180.64986
 20
192.772167
 10
180.561091
 20
192.713026
 10
180.504779
 20
192.641844
 10
180.485488
 20
192.564386
  0
LINE
  5
15B
330
1F
100
AcDbEntity
  8
0
  6
Continuous
 62
     7
370
    25
100
AcDbLine
 10
180.485488
 20
192.564386
 30
0.0
 11
180.485488
 21
191.464653
 31
0.0
  0
LWPOLYLINE
  5
15C
330
1F
100
AcDbEntity
  8
0
  6
Continuous
 62
     7
370
    25
100
AcDbPolyline
 90
       12
 70
   128
 43
0.0
 10
180.485488
 20
191.464653
 10
180.504779
 20
191.387195
 10
180.561091
 20
191.316013
 10
180.64986
 20
191.256872
 10
180.763896
 20
191.214565
 10
180.89396
 20
191.192518
 10
181.029515
 20
191.192518
 10
181.159579
 20
191.214565
 10
181.273615
 20
191.256872
 10
181.362385
 20
191.316013
 10
181.418696
 20
191.387195
 10
181.437988
 20
191.464653
  0
LINE
  5
15D
330
1F
100
AcDbEntity
  8
0
  6
Continuous
 62
     7
370
    25
100
AcDbLine
 10
180.512725
 20
189.226109
 30
0.0
 11
180.512725
 21
188.707606
 31
0.0
  0
LINE
  5
15E
330
1F
100
AcDbEntity
  8
0
  6
Continuous
 62
     7
370
    25
100
AcDbLine
 10
181.410751
 20
189.226109
 30
0.0
 11
181.410751
 21
188.707606
 31
0.0
  0
ARC
  5
15F
330
1F
100
AcDbEntity
  8
0
  6
Continuous
 62
     7
370
    25
100
AcDbCircle
 10
180.961738
 20
189.574197
 30
0.0
 40
0.9760089115239718
100
AcDbArc
 50
242.609672
 51
297.390328
  0
LINE
  5
160
330
1F
100
AcDbEntity
  8
0
  6
Continuous
 62
     7
370
    25
100
AcDbLine
 10
174.226546
 20
192.855043
 30
0.0
 11
174.226546
 21
192.33654
 31
0.0
  0
LINE
  5
161
330
1F
100
AcDbEntity
  8
0
  6
Continuous
 62
     7
370
    25
100
AcDbLine
 10
174.226546
 20
192.33654
 30
0.0
 11
180.512725
 21
188.707606
 31
0.0
  0
LINE
  5
162
330
1F
100
AcDbEntity
  8
0
  6
Continuous
 62
     7
370
    25
100
AcDbLine
 10
187.69693
 20
192.855043
 30
0.0
 11
187.69693
 21
192.33654
 31
0.0
  0
LINE
  5
163
330
1F
100
AcDbEntity
  8
0
  6
Continuous
 62
     7
370
    25
100
AcDbLine
 10
181.410751
 20
188.707606
 30
0.0
 11
187.69693
 21
192.33654
 31
0.0
  0
ARC
  5
164
330
1F
100
AcDbEntity
  8
0
  6
Continuous
 62
     7
370
    25
100
AcDbCircle
 10
180.961738
 20
189.453144
 30
0.0
 40
0.8486613476918883
100
AcDbArc
 50
72.585097
 51
107.414903
  0
LWPOLYLINE
  5
165
330
1F
100
AcDbEntity
  8
0
  6
Continuous
 62
     7
370
    25
100
AcDbPolyline
 90
       12
 70
   128
 43
0.0
 10
181.437988
 20
192.045883
 10
181.418696
 20
192.12334
 10
181.362385
 20
192.194523
 10
181.273615
 20
192.253663
 10
181.159579
 20
192.295971
 10
181.029515
 20
192.318017
 10
180.89396
 20
192.318017
 10
180.763896
 20
192.295971
 10
180.64986
 20
192.253663
 10
180.561091
 20
192.194523
 10
180.504779
 20
192.12334
 10
180.485488
 20
192.045883
  0
ARC
  5
166
330
1F
100
AcDbEntity
  8
0
  6
Continuous
 62
     7
370
    25
100
AcDbCircle
 10
176.47161
 20
192.04524
 30
0.0
 40
0.8486613476725564
100
AcDbArc
 50
72.585097
 51
107.414903
  0
ARC
  5
167
330
1F
100
AcDbEntity
  8
0
  6
Continuous
 62
     7
370
    25
100
AcDbCircle
 10
185.451866
 20
192.04524
 30
0.0
 40
0.8486613476903591
100
AcDbArc
 50
72.585097
 51
107.414903
  0
ARC
  5
168
330
1F
100
AcDbEntity
  8
0
  6
Continuous
 62
     7
370
    25
100
AcDbCircle
 10
187.565127
 20
192.62744
 30
0.0
 40
0.3193664418437164
100
AcDbArc
 50
294.374658
 51
354.305201
  0
ARC
  5
169
330
1F
100
AcDbEntity
  8
0
  6
Continuous
 62
     7
370
    25
100
AcDbCircle
 10
174.358349
 20
192.62744
 30
0.0
 40
0.3193664418437021
100
AcDbArc
 50
185.694799
 51
245.625342
  0
LWPOLYLINE
  5
16A
330
1F
100
AcDbEntity
  8
0
  6
Continuous
 62
     7
370
    25
100
AcDbPolyline
 90
       12
 70
   128
 43
0.0
 10
181.437988
 20
194.245349
 10
181.418696
 20
194.322806
 10
181.362385
 20
194.393989
 10
181.273615
 20
194.453129
 10
181.159579
 20
194.495437
 10
181.029515
 20
194.517484
 10
180.89396
 20
194.517484
 10
180.763896
 20
194.495437
 10
180.64986
 20
194.453129
 10
180.561091
 20
194.393989
 10
180.504779
 20
194.322806
 10
180.485488
 20
194.245349
  0
ARC
  5
16B
330
1F
100
AcDbEntity
  8
0
  6
Continuous
 62
     7
370
    25
100
AcDbCircle
 10
180.961738
 20
194.637336
 30
0.0
 40
0.8486613476872846
100
AcDbArc
 50
72.585097
 51
107.414903
  0
ARC
  5
16C
330
1F
100
AcDbEntity
  8
0
  6
Continuous
 62
     7
370
    25
100
AcDbCircle
 10
180.97936
 20
194.359738
 30
0.0
 40
2.690775868404654
100
AcDbArc
 50
259.423831
 51
279.813671
  0
ARC
  5
16D
330
1F
100
AcDbEntity
  8
0
  6
Continuous
 62
     7
370
    25
100
AcDbCircle
 10
180.979277
 20
190.782328
 30
0.0
 40
2.719849008581444
100
AcDbArc
 50
82.864077
 51
97.753994
  0
ARC
  5
16E
330
1F
100
AcDbEntity
  8
0
  6
Continuous
 62
     7
370
    25
100
AcDbCircle
 10
180.979295
 20
194.734688
 30
0.0
 40
3.248921105161135
100
AcDbArc
 50
261.257669
 51
278.116316
  0
ARC
  5
16F
330
1F
100
AcDbEntity
  8
0
  6
Continuous
 62
     7
370
    25
100
AcDbCircle
 10
180.979294
 20
190.436338
 30
0.0
 40
3.249237443380885
100
AcDbArc
 50
81.891296
 51
98.726774
  0
LWPOLYLINE
  5
170
330
1F
100
AcDbEntity
  8
0
  6
Continuous
 62
     7
370
    25
100
AcDbPolyline
 90
       24
 70
   128
 43
0.0
 10
182.775243
 20
179.104753
 10
182.550212
 20
178.9894
 10
182.303128
 20
178.890222
 10
182.037458
 20
178.80861
 10
181.756932
 20
178.74571
 10
181.465489
 20
178.702405
 10
181.167219
 20
178.679303
 10
180.86631
 20
178.676729
 10
180.566985
 20
178.694718
 10
180.273447
 20
178.733018
 10
179.989816
 20
178.791091
 10
179.720073
 20
178.868123
 10
179.468006
 20
178.963031
 10
179.237153
 20
179.074483
 10
179.030754
 20
179.200915
 10
178.851706
 20
179.340553
 10
178.702524
 20
179.491435
 10
178.585302
 20
179.651444
 10
178.501684
 20
179.818333
 10
178.452845
 20
179.989761
 10
178.439471
 20
180.163319
 10
178.461749
 20
180.336573
 10
178.519366
 20
180.507089
 10
178.566192
 20
180.599446
  0
LWPOLYLINE
  5
171
330
1F
100
AcDbEntity
  8
0
  6
Continuous
 62
     7
370
    25
100
AcDbPolyline
 90
       11
 70
   128
 43
0.0
 10
183.392192
 20
180.599446
 10
183.419176
 20
180.549009
 10
183.485521
 20
180.379553
 10
183.516683
 20
180.206757
 10
183.512223
 20
180.033045
 10
183.472205
 20
179.860858
 10
183.397191
 20
179.692611
 10
183.288234
 20
179.530667
 10
183.146862
 20
179.377299
 10
182.975062
 20
179.23466
 10
182.775243
 20
179.104753
  0
LWPOLYLINE
  5
172
330
1F
100
AcDbEntity
  8
0
  6
Continuous
 62
     7
370
    25
100
AcDbPolyline
 90
       29
 70
   128
 43
0.0
 10
183.112003
 20
178.910346
 10
182.868903
 20
178.784442
 10
182.603648
 20
178.67445
 10
182.319347
 20
178.581659
 10
182.019335
 20
178.507156
 10
181.707128
 20
178.451816
 10
181.386386
 20
178.416287
 10
181.06087
 20
178.400985
 10
180.734397
 20
178.406091
 10
180.410794
 20
178.431544
 10
180.093855
 20
178.477045
 10
179.787295
 20
178.542062
 10
179.49471
 20
178.625831
 10
179.219528
 20
178.727372
 10
178.964977
 20
178.845493
 10
178.734041
 20
178.97881
 10
178.529427
 20
179.125759
 10
178.353535
 20
179.284617
 10
178.208426
 20
179.453524
 10
178.095801
 20
179.630497
 10
178.016982
 20
179.813462
 10
177.972892
 20
180.000274
 10
177.964048
 20
180.188743
 10
177.990554
 20
180.376659
 10
178.052099
 20
180.561819
 10
178.147961
 20
180.742053
 10
178.277017
 20
180.915246
 10
178.437754
 20
181.079369
 10
178.566192
 20
181.186337
  0
LWPOLYLINE
  5
173
330
1F
100
AcDbEntity
  8
0
  6
Continuous
 62
     7
370
    25
100
AcDbPolyline
 90
       15
 70
   128
 43
0.0
 10
183.392192
 20
181.186337
 10
183.428957
 20
181.157423
 10
183.604849
 20
180.998565
 10
183.749958
 20
180.829658
 10
183.862583
 20
180.652685
 10
183.941402
 20
180.46972
 10
183.985492
 20
180.282908
 10
183.994336
 20
180.094439
 10
183.96783
 20
179.906523
 10
183.906285
 20
179.721363
 10
183.810423
 20
179.541129
 10
183.681367
 20
179.367936
 10
183.52063
 20
179.203813
 10
183.330098
 20
179.050684
 10
183.112003
 20
178.910346
  0
LWPOLYLINE
  5
174
330
1F
100
AcDbEntity
  8
0
  6
Continuous
 62
     7
370
    25
100
AcDbPolyline
 90
       23
 70
   128
 43
0.0
 10
183.112003
 20
42.543947
 10
182.868903
 20
42.418044
 10
182.603648
 20
42.308052
 10
182.319347
 20
42.21526
 10
182.019335
 20
42.140758
 10
181.707128
 20
42.085418
 10
181.386386
 20
42.049889
 10
181.06087
 20
42.034587
 10
180.734397
 20
42.039693
 10
180.410794
 20
42.065145
 10
180.093855
 20
42.110647
 10
179.787295
 20
42.175663
 10
179.49471
 20
42.259433
 10
179.219528
 20
42.360974
 10
178.964977
 20
42.479095
 10
178.734041
 20
42.612411
 10
178.529427
 20
42.75936
 10
178.353535
 20
42.918219
 10
178.208426
 20
43.087125
 10
178.095801
 20
43.264098
 10
178.016982
 20
43.447063
 10
177.972892
 20
43.633876
 10
177.962942
 20
43.775193
  0
LWPOLYLINE
  5
175
330
1F
100
AcDbEntity
  8
0
  6
Continuous
 62
     7
370
    25
100
AcDbPolyline
 90
        9
 70
   128
 43
0.0
 10
183.995442
 20
43.775193
 10
183.994336
 20
43.728041
 10
183.96783
 20
43.540125
 10
183.906285
 20
43.354965
 10
183.810423
 20
43.174731
 10
183.681367
 20
43.001538
 10
183.52063
 20
42.837414
 10
183.330098
 20
42.684286
 10
183.112003
 20
42.543947
  0
LINE
  5
176
330
1F
100
AcDbEntity
  8
0
  6
Continuous
 62
     7
370
    25
100
AcDbLine
 10
181.616049
 20
29.928488
 30
0.0
 11
183.608794
 21
25.635185
 31
0.0
  0
SPLINE
  5
177
330
1F
100
AcDbEntity
  8
0
  6
Continuous
 62
     7
370
    25
100
AcDbSpline
210
0.0
220
0.0
230
1.0
 70
     8
 71
     3
 72
    36
 73
    32
 74
     0
 42
0.000000001
 43
0.00000001
 40
0.0
 40
0.0
 40
0.0
 40
0.0
 40
0.0353527854346254
 40
0.0709365989861694
 40
0.1065204125377135
 40
0.1418731979723392
 40
0.1772259834069642
 40
0.2128097969585083
 40
0.2483936105100523
 40
0.2837463959446783
 40
0.319099181379303
 40
0.3546829949308471
 40
0.3902668084823912
 40
0.4256195939170175
 40
0.460972379351642
 40
0.496556192903186
 40
0.53214000645473
 40
0.5674927918893566
 40
0.6028455773239807
 40
0.6384293908755247
 40
0.6740132044270687
 40
0.709365989861696
 40
0.7447187752963197
 40
0.7803025888478636
 40
0.8158864023994076
 40
0.851239187834035
 40
0.8865919732686584
 40
0.9221757868202023
 40
0.9577596003717465
 40
0.9931123858063743
 40
0.9999999999999999
 40
0.9999999999999999
 40
0.9999999999999999
 40
0.9999999999999999
 10
183.6087935894065
 20
25.6351848584199
 30
0.0
 10
183.239728315266
 20
25.54605719987307
 30
0.0
 10
182.4991859498041
 20
25.36721943941987
 30
0.0
 10
181.359491200349
 20
25.18872750469739
 30
0.0
 10
180.21737425229
 20
25.07925003307325
 30
0.0
 10
179.0863586981289
 20
25.04725718909223
 30
0.0
 10
177.9792238360458
 20
25.0872395403864
 30
0.0
 10
176.9077017153728
 20
25.19582419046484
 30
0.0
 10
175.887592539319
 20
25.37239352861252
 30
0.0
 10
174.9333839909547
 20
25.6148488500041
 30
0.0
 10
174.0549101464702
 20
25.91654105943986
 30
0.0
 10
173.2619263376525
 20
26.27077497283772
 30
0.0
 10
172.5663695012663
 20
26.67341007253543
 30
0.0
 10
171.9778276900921
 20
27.11913992853232
 30
0.0
 10
171.502042983516
 20
27.59927258205398
 30
0.0
 10
171.1446480548999
 20
28.1050827613122
 30
0.0
 10
170.9114096947803
 20
28.63009794574299
 30
0.0
 10
170.8051018580756
 20
29.16738268176938
 30
0.0
 10
170.8262414728022
 20
29.70742034456156
 30
0.0
 10
170.9752218100631
 20
30.24069171276596
 30
0.0
 10
171.2504977079421
 20
30.76016781321504
 30
0.0
 10
171.6474792247778
 20
31.25915323263194
 30
0.0
 10
172.1613569048658
 20
31.72869409658967
 30
0.0
 10
172.7872024841885
 20
32.15987937455815
 30
0.0
 10
173.5164807195957
 20
32.54696849548753
 30
0.0
 10
174.3380880148638
 20
32.8854818643381
 30
0.0
 10
175.2430603767815
 20
33.16772898211713
 30
0.0
 10
176.2213025294636
 20
33.38884450826419
 30
0.0
 10
177.2620509054308
 20
33.53790697611917
 30
0.0
 10
178.0501963995591
 20
33.61569575963455
 30
0.0
 10
178.4938508957273
 20
33.61983052216769
 30
0.0
 10
178.566192091165
 20
33.62050472623207
 30
0.0
  0
SPLINE
  5
178
330
1F
100
AcDbEntity
  8
0
  6
Continuous
 62
     7
370
    25
100
AcDbSpline
210
0.0
220
0.0
230
1.0
 70
     8
 71
     3
 72
    26
 73
    22
 74
     0
 42
0.000000001
 43
0.00000001
 40
0.0
 40
0.0
 40
0.0
 40
0.0
 40
0.0294994423993946
 40
0.0861042342493356
 40
0.1427090260992774
 40
0.1989463110081606
 40
0.2551835959170347
 40
0.3117883877669758
 40
0.368393179616917
 40
0.4246304645258009
 40
0.4808677494346744
 40
0.5374725412846159
 40
0.5940773331345569
 40
0.6503146180434413
 40
0.7065519029523143
 40
0.7631566948022556
 40
0.8197614866521967
 40
0.8759987715610817
 40
0.9322360564699544
 40
0.966091375311084
 40
1.0
 40
1.0
 40
1.0
 40
1.0
 10
183.392192091165
 20
33.10541201056194
 30
0.0
 10
183.58585348733
 20
33.05900161899114
 30
0.0
 10
184.1511206538981
 20
32.9235369829715
 30
0.0
 10
185.0497148641213
 20
32.61948064355061
 30
0.0
 10
186.0710490341235
 20
32.20412344593848
 30
0.0
 10
187.0249314284741
 20
31.72421770065577
 30
0.0
 10
187.9034925950738
 20
31.18604944154598
 30
0.0
 10
188.6964528574623
 20
30.59008542977891
 30
0.0
 10
189.392016005951
 20
29.94579060288168
 30
0.0
 10
189.980556144795
 20
29.26337495336632
 30
0.0
 10
190.4563412682387
 20
28.5465615445754
 30
0.0
 10
190.8137362003763
 20
27.79907642452477
 30
0.0
 10
191.0469741272872
 20
27.03238688090388
 30
0.0
 10
191.1532836825494
 20
26.25841965612108
 30
0.0
 10
191.1321376188571
 20
25.48170256095381
 30
0.0
 10
190.9831815111957
 20
24.70674760445225
 30
0.0
 10
190.7078152578624
 20
23.94563037658119
 30
0.0
 10
190.3111688170034
 20
23.20983896859814
 30
0.0
 10
189.8653497701555
 20
22.59903924086323
 30
0.0
 10
189.4262715926429
 20
22.10054262185956
 30
0.0
 10
189.1543728252761
 20
21.84077198458201
 30
0.0
 10
189.0183164983308
 20
21.71078449291928
 30
0.0
  0
SPLINE
  5
179
330
1F
100
AcDbEntity
  8
0
  6
Continuous
 62
     7
370
    25
100
AcDbSpline
210
0.0
220
0.0
230
1.0
 70
     8
 71
     3
 72
    14
 73
    10
 74
     0
 42
0.000000001
 43
0.00000001
 40
0.0
 40
0.0
 40
0.0
 40
0.0
 40
0.0894529047704179
 40
0.2373010346419654
 40
0.38810101780169
 40
0.5402728926601643
 40
0.6931446531425832
 40
0.8464424950806844
 40
0.9999999999999999
 40
0.9999999999999999
 40
0.9999999999999999
 40
0.9999999999999999
 10
183.5480248286879
 20
24.84362894780079
 30
0.0
 10
183.7209567954831
 20
24.74571167721053
 30
0.0
 10
184.1797114300981
 20
24.4859563380181
 30
0.0
 10
184.9025599151487
 20
24.07732921760313
 30
0.0
 10
185.7297813166093
 20
23.60382375769889
 30
0.0
 10
186.5551031503283
 20
23.13008074039033
 30
0.0
 10
187.3785048202332
 20
22.65627807412791
 30
0.0
 10
188.1997747407725
 20
22.18299043684545
 30
0.0
 10
188.7453155157883
 20
21.86827391838915
 30
0.0
 10
189.0183167233641
 20
21.71078250158325
 30
0.0
  0
SPLINE
  5
17A
330
1F
100
AcDbEntity
  8
0
  6
Continuous
 62
     7
370
    25
100
AcDbSpline
210
0.0
220
0.0
230
1.0
 70
     8
 71
     3
 72
    18
 73
    14
 74
     0
 42
0.000000001
 43
0.00000001
 40
0.0
 40
0.0
 40
0.0
 40
0.0
 40
0.0975547690183187
 40
0.1954975751584433
 40
0.2926968020408816
 40
0.3908069221070652
 40
0.4879348747091755
 40
0.5859891556369106
 40
0.6833307652735513
 40
0.7811068662372781
 40
0.8788829672010053
 40
0.976224576837646
 40
1.0
 40
1.0
 40
1.0
 40
1.0
 10
181.6160487040204
 20
29.92848809705716
 30
0.0
 10
181.4581250966753
 20
29.84005524625265
 30
0.0
 10
181.1416497197468
 20
29.66283779116974
 30
0.0
 10
180.6565988479389
 20
29.46389722539237
 30
0.0
 10
180.1819330756733
 20
29.32037470762913
 30
0.0
 10
179.7421540902663
 20
29.22347266373408
 30
0.0
 10
179.3453952784229
 20
29.18126204303672
 30
0.0
 10
179.0150752742066
 20
29.17310875081
 30
0.0
 10
178.7581681490501
 20
29.20426230716804
 30
0.0
 10
178.585856850647
 20
29.25647665763375
 30
0.0
 10
178.5127224541777
 20
29.32187754081281
 30
0.0
 10
178.508059179469
 20
29.37890372324428
 30
0.0
 10
178.556653053635
 20
29.40349961835106
 30
0.0
 10
178.566192091165
 20
29.40832782294547
 30
0.0
  0
SPLINE
  5
17B
330
1F
100
AcDbEntity
  8
0
  6
Continuous
 62
     7
370
    25
100
AcDbSpline
210
0.0
220
0.0
230
1.0
 70
     8
 71
     3
 72
     9
 73
     5
 74
     0
 42
0.000000001
 43
0.00000001
 40
0.0
 40
0.0
 40
0.0
 40
0.0
 40
0.7520557708324166
 40
1.0
 40
1.0
 40
1.0
 40
1.0
 10
183.392192091165
 20
26.40394461916518
 30
0.0
 10
183.4157462728293
 20
26.30279958421314
 30
0.0
 10
183.4470660001392
 20
26.16830818227882
 30
0.0
 10
183.4340489693785
 20
26.03280569049955
 30
0.0
 10
183.4308214717205
 20
25.99920862962506
 30
0.0
  0
LINE
  5
17C
330
1F
100
AcDbEntity
  8
0
  6
Continuous
 62
     7
370
    25
100
AcDbLine
 10
183.608794
 20
25.635185
 30
0.0
 11
183.608794
 21
24.85743
 31
0.0
  0
SPLINE
  5
17D
330
1F
100
AcDbEntity
  8
0
  6
Continuous
 62
     7
370
    25
100
AcDbSpline
210
0.0
220
0.0
230
1.0
 70
     8
 71
     3
 72
    24
 73
    20
 74
     0
 42
0.000000001
 43
0.00000001
 40
0.0
 40
0.0
 40
0.0
 40
0.0
 40
0.0610255031852801
 40
0.1224498040016826
 40
0.1838741048180852
 40
0.2448996080033658
 40
0.3059251111886454
 40
0.3673494120050479
 40
0.4287737128214504
 40
0.4897992160067315
 40
0.5508247191920106
 40
0.6122490200084131
 40
0.6736733208248158
 40
0.7346988240100973
 40
0.795724327195376
 40
0.8571486280117785
 40
0.918572928828181
 40
0.9795984320134632
 40
0.9999999999999999
 40
0.9999999999999999
 40
0.9999999999999999
 40
0.9999999999999999
 10
183.6087935894065
 20
24.85742973509872
 30
0.0
 10
183.2397283152828
 20
24.76830207655166
 30
0.0
 10
182.4991859498544
 20
24.58946431609797
 30
0.0
 10
181.3594912001459
 20
24.41097238137911
 30
0.0
 10
180.2173742530495
 20
24.30149490974126
 30
0.0
 10
179.086358695314
 20
24.2695020658112
 30
0.0
 10
177.9792238465828
 20
24.30948441691498
 30
0.0
 10
176.9077016757613
 20
24.41806906770849
 30
0.0
 10
175.8875926867137
 20
24.5946384031896
 30
0.0
 10
174.9333834448528
 20
24.83709373446995
 30
0.0
 10
174.0549121906206
 20
25.13878590697059
 30
0.0
 10
173.2619186531383
 20
25.49301995909207
 30
0.0
 10
172.5663980953891
 20
25.8956545414831
 30
0.0
 10
171.9777217480228
 20
26.34138631586716
 30
0.0
 10
171.5024395423193
 20
26.82151180409588
 30
0.0
 10
171.1431572831121
 20
27.32734889530052
 30
0.0
 10
170.9169568654392
 20
27.85226372384723
 30
0.0
 10
170.813866239589
 20
28.27087605155053
 30
0.0
 10
170.8294300856537
 20
28.50978366042152
 30
0.0
 10
170.8333296102104
 20
28.56964200672747
 30
0.0
  0
SPLINE
  5
17E
330
1F
100
AcDbEntity
  8
0
  6
Continuous
 62
     7
370
    25
100
AcDbSpline
210
0.0
220
0.0
230
1.0
 70
     8
 71
     3
 72
    15
 73
    11
 74
     0
 42
0.000000001
 43
0.00000001
 40
0.0
 40
0.0
 40
0.0
 40
0.0
 40
0.0962228637900791
 40
0.2417139911745401
 40
0.3872051185590009
 40
0.5317516439507964
 40
0.6762981693425599
 40
0.7841928714757145
 40
0.8922229352544172
 40
0.9999999999999999
 40
0.9999999999999999
 40
0.9999999999999999
 40
0.9999999999999999
 10
191.1250545721195
 20
25.221449328945
 30
0.0
 10
191.1252064364707
 20
25.04962056186844
 30
0.0
 10
191.1255879231256
 20
24.61798284654034
 30
0.0
 10
190.9800385466564
 20
23.92899628866707
 30
0.0
 10
190.7087312641691
 20
23.16783831771794
 30
0.0
 10
190.3106280852295
 20
22.43222671894794
 30
0.0
 10
189.8417028096509
 20
21.78690333574329
 30
0.0
 10
189.3349018872813
 20
21.22681919784651
 30
0.0
 10
188.8252521707182
 20
20.74495986602362
 30
0.0
 10
188.439996218411
 20
20.44656034695709
 30
0.0
 10
188.2475940674748
 20
20.29753550006533
 30
0.0
  0
LINE
  5
17F
330
1F
100
AcDbEntity
  8
0
  6
Continuous
 62
     7
370
    25
100
AcDbLine
 10
189.018317
 20
21.710782
 30
0.0
 11
188.247594
 21
20.297536
 31
0.0
  0
SPLINE
  5
180
330
1F
100
AcDbEntity
  8
0
  6
Continuous
 62
     7
370
    25
100
AcDbSpline
210
0.0
220
0.0
230
1.0
 70
     8
 71
     3
 72
    14
 73
    10
 74
     0
 42
0.000000001
 43
0.00000001
 40
0.0
 40
0.0
 40
0.0
 40
0.0
 40
0.1619214213307276
 40
0.3087556712260138
 40
0.440513237868312
 40
0.5837562552077085
 40
0.7380560138693499
 40
0.8767745062259599
 40
1.0
 40
1.0
 40
1.0
 40
1.0
 10
185.408027936442
 20
21.82642871554677
 30
0.0
 10
185.2624907769764
 20
21.91722630894184
 30
0.0
 10
184.9849770114113
 20
22.09036134977839
 30
0.0
 10
184.5891955872276
 20
22.34146298645503
 30
0.0
 10
184.2103751771032
 20
22.58563938467816
 30
0.0
 10
183.8251640756794
 20
22.83978927233861
 30
0.0
 10
183.4342633764461
 20
23.10560676845001
 30
0.0
 10
183.0619436038386
 20
23.36716514945133
 30
0.0
 10
182.8287962201399
 20
23.54128843813662
 30
0.0
 10
182.7191174223832
 20
23.6232007146609
 30
0.0
  0
SPLINE
  5
181
330
1F
100
AcDbEntity
  8
0
  6
Continuous
 62
     7
370
    25
100
AcDbSpline
210
0.0
220
0.0
230
1.0
 70
     8
 71
     3
 72
    10
 73
     6
 74
     0
 42
0.000000001
 43
0.00000001
 40
0.0
 40
0.0
 40
0.0
 40
0.0
 40
0.4019982885361055
 40
0.8291907916751649
 40
1.0
 40
1.0
 40
1.0
 40
1.0
 10
182.719116659421
 20
23.62320114543065
 30
0.0
 10
182.7905721146462
 20
23.77046288259472
 30
0.0
 10
182.937961313002
 20
24.07421560967024
 30
0.0
 10
183.0852845272502
 20
24.45570892730563
 30
0.0
 10
183.1508656135016
 20
24.69059547984423
 30
0.0
 10
183.1695977562513
 20
24.75768690335713
 30
0.0
  0
SPLINE
  5
182
330
1F
100
AcDbEntity
  8
0
  6
Continuous
 62
     7
370
    25
100
AcDbSpline
210
0.0
220
0.0
230
1.0
 70
     8
 71
     3
 72
     9
 73
     5
 74
     0
 42
0.000000001
 43
0.00000001
 40
0.0
 40
0.0
 40
0.0
 40
0.0
 40
0.5000063286938056
 40
1.0
 40
1.0
 40
1.0
 40
1.0
 10
188.2475940674747
 20
20.29753550006529
 30
0.0
 10
187.7789587875452
 20
20.55682793872006
 30
0.0
 10
186.8417000909328
 20
21.07540625218288
 30
0.0
 10
185.8859309215626
 20
21.57612058458867
 30
0.0
 10
185.4080523856479
 20
21.82647458192387
 30
0.0
  0
LINE
  5
183
330
1F
100
AcDbEntity
  8
0
  6
Continuous
 62
     7
370
    25
100
AcDbLine
 10
182.719117
 20
23.378728
 30
0.0
 11
182.719117
 21
23.623201
 31
0.0
  0
LINE
  5
184
330
1F
100
AcDbEntity
  8
0
  6
Continuous
 62
     7
370
    25
100
AcDbLine
 10
185.407496
 20
21.82676
 30
0.0
 11
182.719117
 21
23.378728
 31
0.0
  0
ARC
  5
185
330
1F
100
AcDbEntity
  8
0
  6
Continuous
 62
     7
370
    25
100
AcDbCircle
 10
180.979322
 20
194.907894
 30
0.0
 40
3.502665907763092
100
AcDbArc
 50
261.926815
 51
277.478587
  0
ARC
  5
186
330
1F
100
AcDbEntity
  8
0
  6
Continuous
 62
     7
370
    25
100
AcDbCircle
 10
180.979267
 20
190.274413
 30
0.0
 40
3.491804067531213
100
AcDbArc
 50
82.451192
 51
98.129498
  0
LINE
  5
187
330
1F
100
AcDbEntity
  8
0
  6
Continuous
 62
     7
370
    25
100
AcDbLine
 10
180.879274
 20
191.193872
 30
0.0
 11
181.035756
 21
191.193061
 31
0.0
  0
ARC
  5
188
330
1F
100
AcDbEntity
  8
0
  6
Continuous
 62
     7
370
    25
100
AcDbCircle
 10
180.979239
 20
189.842571
 30
0.0
 40
4.136204591153327
100
AcDbArc
 50
83.632198
 51
96.855925
  0
ELLIPSE
  5
189
330
1F
100
AcDbEntity
  8
0
  6
Continuous
 62
     7
370
    25
100
AcDbEllipse
 10
180.979192
 20
20.338838
 30
0.0
 11
2.412999985843612
 21
1.393221669593768
 31
0.0
210
0.0
220
0.0
230
1.0
 40
0.00007
 41
0.0
 42
6.283185307179586
  0
SPLINE
  5
18A
330
1F
100
AcDbEntity
  8
0
  6
Continuous
 62
     7
370
    25
100
AcDbSpline
210
0.0
220
0.0
230
1.0
 70
    11
 71
     3
 72
    90
 73
    86
 74
     0
 42
0.000000001
 43
0.00000001
 40
0.0
 40
0.0
 40
0.0
 40
0.0
 40
0.0312500000000218
 40
0.0312500000000218
 40
0.0468750000000327
 40
0.0468750000000327
 40
0.0625000000000436
 40
0.0625000000000436
 40
0.0937500000000653
 40
0.0937500000000653
 40
0.10937500000009
 40
0.10937500000009
 40
0.1250000000001146
 40
0.1250000000001146
 40
0.1562500000001405
 40
0.1562500000001405
 40
0.1875000000001663
 40
0.1875000000001663
 40
0.2031250000001793
 40
0.2031250000001793
 40
0.2187500000001922
 40
0.2187500000001922
 40
0.250000000000218
 40
0.250000000000218
 40
0.2812500000002439
 40
0.2812500000002439
 40
0.3125000000002697
 40
0.3125000000002697
 40
0.3281250000002889
 40
0.3281250000002889
 40
0.3437500000003082
 40
0.3437500000003082
 40
0.3593750000003274
 40
0.3593750000003274
 40
0.3750000000003466
 40
0.3750000000003466
 40
0.4062500000003851
 40
0.4062500000003851
 40
0.4375000000004236
 40
0.4375000000004236
 40
0.4687500000004621
 40
0.4687500000004621
 40
0.4843750000004813
 40
0.4843750000004813
 40
0.5000000000005006
 40
0.5000000000005006
 40
0.5312500000005056
 40
0.5312500000005056
 40
0.5625000000005107
 40
0.5625000000005107
 40
0.5781250000004979
 40
0.5781250000004979
 40
0.5937500000004852
 40
0.5937500000004852
 40
0.6250000000004595
 40
0.6250000000004595
 40
0.6406250000004468
 40
0.6406250000004468
 40
0.656250000000434
 40
0.656250000000434
 40
0.6875000000004083
 40
0.6875000000004083
 40
0.7187500000003828
 40
0.7187500000003828
 40
0.7343750000003667
 40
0.7343750000003667
 40
0.7500000000003506
 40
0.7500000000003506
 40
0.7812500000003184
 40
0.7812500000003184
 40
0.8125000000002862
 40
0.8125000000002862
 40
0.8437500000002541
 40
0.8437500000002541
 40
0.8750000000002219
 40
0.8750000000002219
 40
0.8906250000001942
 40
0.8906250000001942
 40
0.9062500000001664
 40
0.9062500000001664
 40
0.9375000000001109
 40
0.9375000000001109
 40
0.9687500000000555
 40
0.9687500000000555
 40
1.0
 40
1.0
 40
1.0
 40
1.0
 10
179.7820967598228
 20
188.2651649036224
 30
0.0
 10
179.7820967598228
 20
188.2307466198663
 30
0.0
 10
179.7783493962453
 20
188.198164172114
 30
0.0
 10
179.767433960635
 20
188.151957292207
 30
0.0
 10
179.7629077179692
 20
188.1370035521798
 30
0.0
 10
179.752071513269
 20
188.1080277575738
 30
0.0
 10
179.7457446661617
 20
188.0940043041557
 30
0.0
 10
179.7245682721262
 20
188.0542990878273
 30
0.0
 10
179.7074320617731
 20
188.0306184595468
 30
0.0
 10
179.6775236648797
 20
187.999378420486
 30
0.0
 10
179.666786267747
 20
187.989638630063
 30
0.0
 10
179.644241761941
 20
187.9719408896771
 30
0.0
 10
179.6324579719481
 20
187.9639836655033
 30
0.0
 10
179.5956870366707
 20
187.9427585820863
 30
0.0
 10
179.5692943178111
 20
187.9321097999457
 30
0.0
 10
179.5129971841446
 20
187.91831305361
 30
0.0
 10
179.4837879148236
 20
187.9153718375295
 30
0.0
 10
179.4391946984399
 20
187.9169316995924
 30
0.0
 10
179.4241700679399
 20
187.91844668192
 30
0.0
 10
179.3938233940933
 20
187.9235341294595
 30
0.0
 10
179.3784122130258
 20
187.9271386440998
 30
0.0
 10
179.3326499884971
 20
187.9409265632611
 30
0.0
 10
179.3026621746738
 20
187.9540236204871
 30
0.0
 10
179.2437912364529
 20
187.9879549293138
 30
0.0
 10
179.2146709135056
 20
188.0090724399645
 30
0.0
 10
179.1599526841758
 20
188.0573959249061
 30
0.0
 10
179.1340760407051
 20
188.0846906449644
 30
0.0
 10
179.0973212078861
 20
188.1302908898492
 30
0.0
 10
179.0854221565794
 20
188.1462800628086
 30
0.0
 10
179.0627857232266
 20
188.1791025936078
 30
0.0
 10
179.051978256147
 20
188.1960189606345
 30
0.0
 10
179.0313147662578
 20
188.2308225794306
 30
0.0
 10
179.0214588544105
 20
188.2487098830215
 30
0.0
 10
179.0026528420759
 20
188.2854438582258
 30
0.0
 10
178.9936585108102
 20
188.3043959304615
 30
0.0
 10
178.9683937482016
 20
188.3617897371456
 30
0.0
 10
178.9538054412277
 20
188.4007195719163
 30
0.0
 10
178.9285837267892
 20
188.4797078127293
 30
0.0
 10
178.9178874337265
 20
188.5201835492943
 30
0.0
 10
178.9010188790591
 20
188.5989761198826
 30
0.0
 10
178.894725794933
 20
188.6375371682921
 30
0.0
 10
178.8883470882049
 20
188.6940056164864
 30
0.0
 10
178.8867327126446
 20
188.7127015247864
 30
0.0
 10
178.884602786231
 20
188.7488722181304
 30
0.0
 10
178.8840757755878
 20
188.7663931252275
 30
0.0
 10
178.8840619826963
 20
188.8172963624877
 30
0.0
 10
178.8861250772459
 20
188.8490626594609
 30
0.0
 10
178.8946405128639
 20
188.9079465805804
 30
0.0
 10
178.9009518813354
 20
188.9341168209161
 30
0.0
 10
178.913560718843
 20
188.9688229899353
 30
0.0
 10
178.9182921784072
 20
188.9796281769115
 30
0.0
 10
178.9288827089053
 20
188.9997092642536
 30
0.0
 10
178.9347374522615
 20
189.0089529823166
 30
0.0
 10
178.9536941618614
 20
189.0338620359575
 30
0.0
 10
178.9682802577001
 20
189.0469522779912
 30
0.0
 10
178.9934325419669
 20
189.0615327296361
 30
0.0
 10
179.0024200201863
 20
189.0655576480859
 30
0.0
 10
179.0212758751855
 20
189.0717748865374
 30
0.0
 10
179.0311422880833
 20
189.07398219932
 30
0.0
 10
179.0621115275119
 20
189.0780061767989
 30
0.0
 10
179.084571519166
 20
189.0772523335781
 30
0.0
 10
179.1336846917441
 20
189.0687642562026
 30
0.0
 10
179.159705734994
 20
189.0611153014038
 30
0.0
 10
179.2005937481414
 20
189.0449153855781
 30
0.0
 10
179.2145574175093
 20
189.0387169559635
 30
0.0
 10
179.2431851815749
 20
189.0246948948461
 30
0.0
 10
179.2579325805625
 20
189.0168192550526
 30
0.0
 10
179.3023460440118
 20
188.9911972804541
 30
0.0
 10
179.332346597858
 20
188.9714290086964
 30
0.0
 10
179.3930381747362
 20
188.9265702324799
 30
0.0
 10
179.4239350442448
 20
188.9012450553845
 30
0.0
 10
179.4835803817984
 20
188.8471989419515
 30
0.0
 10
179.5126407292701
 20
188.8182818480061
 30
0.0
 10
179.5688890658085
 20
188.7563559589141
 30
0.0
 10
179.5955308461375
 20
188.7239034295164
 30
0.0
 10
179.6322953560841
 20
188.6737765766332
 30
0.0
 10
179.6440577113578
 20
188.6567760856365
 30
0.0
 10
179.666530419187
 20
188.6221411347571
 30
0.0
 10
179.6772937843045
 20
188.6044072561522
 30
0.0
 10
179.7073358043693
 20
188.5510952659953
 30
0.0
 10
179.7244623576943
 20
188.5153503197039
 30
0.0
 10
179.7526198141521
 20
188.443183545137
 30
0.0
 10
179.7636856444806
 20
188.4064036180996
 30
0.0
 10
179.7783480850956
 20
188.3347153554438
 30
0.0
 10
179.7820967598228
 20
188.2995831873784
 30
0.0
 10
179.7820967598228
 20
188.2651649036224
 30
0.0
  0
SPLINE
  5
18B
330
1F
100
AcDbEntity
  8
0
  6
Continuous
 62
     7
370
    25
100
AcDbSpline
210
0.0
220
0.0
230
1.0
 70
    11
 71
     3
 72
    90
 73
    86
 74
     0
 42
0.000000001
 43
0.00000001
 40
0.0
 40
0.0
 40
0.0
 40
0.0
 40
0.0312500000000371
 40
0.0312500000000371
 40
0.0468750000000557
 40
0.0468750000000557
 40
0.0625000000000743
 40
0.0625000000000743
 40
0.0937500000000809
 40
0.0937500000000809
 40
0.1093750000000705
 40
0.1093750000000705
 40
0.1250000000000601
 40
0.1250000000000601
 40
0.1562500000000394
 40
0.1562500000000394
 40
0.1875000000000186
 40
0.1875000000000186
 40
0.2031250000000082
 40
0.2031250000000082
 40
0.2187499999999978
 40
0.2187499999999978
 40
0.2499999999999771
 40
0.2499999999999771
 40
0.2812499999999564
 40
0.2812499999999564
 40
0.3124999999999357
 40
0.3124999999999357
 40
0.3281249999999253
 40
0.3281249999999253
 40
0.3437499999999148
 40
0.3437499999999148
 40
0.3593749999999045
 40
0.3593749999999045
 40
0.374999999999894
 40
0.374999999999894
 40
0.4062499999998965
 40
0.4062499999998965
 40
0.4374999999998989
 40
0.4374999999998989
 40
0.4687499999999013
 40
0.4687499999999013
 40
0.4843749999999025
 40
0.4843749999999025
 40
0.4999999999999037
 40
0.4999999999999037
 40
0.5312499999999061
 40
0.5312499999999061
 40
0.5624999999999085
 40
0.5624999999999085
 40
0.5781249999999096
 40
0.5781249999999096
 40
0.5937499999999107
 40
0.5937499999999107
 40
0.624999999999913
 40
0.624999999999913
 40
0.6406249999999142
 40
0.6406249999999142
 40
0.6562499999999153
 40
0.6562499999999153
 40
0.6874999999999175
 40
0.6874999999999175
 40
0.7187499999999198
 40
0.7187499999999198
 40
0.7343749999999243
 40
0.7343749999999243
 40
0.7499999999999287
 40
0.7499999999999287
 40
0.7812499999999376
 40
0.7812499999999376
 40
0.8124999999999466
 40
0.8124999999999466
 40
0.8437499999999555
 40
0.8437499999999555
 40
0.8749999999999644
 40
0.8749999999999644
 40
0.8906249999999689
 40
0.8906249999999689
 40
0.9062499999999734
 40
0.9062499999999734
 40
0.9374999999999822
 40
0.9374999999999822
 40
0.9687499999999912
 40
0.9687499999999912
 40
1.0
 40
1.0
 40
1.0
 40
1.0
 10
179.7820967598228
 20
182.5616273326005
 30
0.0
 10
179.7820967598228
 20
182.5272090488444
 30
0.0
 10
179.7783493962453
 20
182.494626601092
 30
0.0
 10
179.767433960635
 20
182.448419721185
 30
0.0
 10
179.7629077179692
 20
182.4334659811578
 30
0.0
 10
179.752071513269
 20
182.4044901865518
 30
0.0
 10
179.7457446661617
 20
182.3904667331337
 30
0.0
 10
179.7245682721262
 20
182.3507615168054
 30
0.0
 10
179.7074320617732
 20
182.3270808885248
 30
0.0
 10
179.6775236648797
 20
182.2958408494641
 30
0.0
 10
179.666786267747
 20
182.286101059041
 30
0.0
 10
179.644241761941
 20
182.2684033186551
 30
0.0
 10
179.6324579719481
 20
182.2604460944813
 30
0.0
 10
179.5956870366707
 20
182.2392210110643
 30
0.0
 10
179.5692943178111
 20
182.2285722289239
 30
0.0
 10
179.5129971841446
 20
182.2147754825879
 30
0.0
 10
179.4837879148236
 20
182.2118342665073
 30
0.0
 10
179.4391946984399
 20
182.2133941285705
 30
0.0
 10
179.4241700679399
 20
182.214909110898
 30
0.0
 10
179.3938233940933
 20
182.2199965584375
 30
0.0
 10
179.3784122130258
 20
182.2236010730777
 30
0.0
 10
179.3326499884971
 20
182.2373889922391
 30
0.0
 10
179.3026621746738
 20
182.2504860494652
 30
0.0
 10
179.2437912364529
 20
182.2844173582916
 30
0.0
 10
179.2146709135056
 20
182.3055348689426
 30
0.0
 10
179.1599526841758
 20
182.3538583538842
 30
0.0
 10
179.1340760407051
 20
182.3811530739423
 30
0.0
 10
179.0973212078861
 20
182.4267533188273
 30
0.0
 10
179.0854221565794
 20
182.4427424917866
 30
0.0
 10
179.0627857232266
 20
182.4755650225858
 30
0.0
 10
179.051978256147
 20
182.4924813896125
 30
0.0
 10
179.0313147662578
 20
182.5272850084088
 30
0.0
 10
179.0214588544105
 20
182.5451723119996
 30
0.0
 10
179.0026528420759
 20
182.5819062872038
 30
0.0
 10
178.9936585108102
 20
182.6008583594395
 30
0.0
 10
178.9683937482016
 20
182.6582521661236
 30
0.0
 10
178.9538054412277
 20
182.6971820008944
 30
0.0
 10
178.9285837267892
 20
182.7761702417072
 30
0.0
 10
178.9178874337265
 20
182.8166459782722
 30
0.0
 10
178.9010188790591
 20
182.8954385488608
 30
0.0
 10
178.894725794933
 20
182.9339995972701
 30
0.0
 10
178.8883470882049
 20
182.9904680454645
 30
0.0
 10
178.8867327126446
 20
183.0091639537645
 30
0.0
 10
178.884602786231
 20
183.0453346471084
 30
0.0
 10
178.8840757755878
 20
183.0628555542057
 30
0.0
 10
178.8840619826963
 20
183.1137587914657
 30
0.0
 10
178.8861250772459
 20
183.1455250884389
 30
0.0
 10
178.8946405128639
 20
183.2044090095584
 30
0.0
 10
178.9009518813354
 20
183.2305792498941
 30
0.0
 10
178.913560718843
 20
183.2652854189135
 30
0.0
 10
178.9182921784072
 20
183.2760906058895
 30
0.0
 10
178.9288827089053
 20
183.2961716932317
 30
0.0
 10
178.9347374522615
 20
183.3054154112946
 30
0.0
 10
178.9536941618614
 20
183.3303244649354
 30
0.0
 10
178.9682802577001
 20
183.3434147069692
 30
0.0
 10
178.9934325419669
 20
183.3579951586142
 30
0.0
 10
179.0024200201863
 20
183.362020077064
 30
0.0
 10
179.0212758751855
 20
183.3682373155155
 30
0.0
 10
179.0311422880833
 20
183.3704446282979
 30
0.0
 10
179.0621115275119
 20
183.3744686057769
 30
0.0
 10
179.084571519166
 20
183.3737147625561
 30
0.0
 10
179.1336846917441
 20
183.3652266851806
 30
0.0
 10
179.159705734994
 20
183.3575777303818
 30
0.0
 10
179.2005937481414
 20
183.3413778145561
 30
0.0
 10
179.2145574175093
 20
183.3351793849415
 30
0.0
 10
179.2431851815749
 20
183.3211573238243
 30
0.0
 10
179.2579325805625
 20
183.3132816840306
 30
0.0
 10
179.3023460440118
 20
183.2876597094321
 30
0.0
 10
179.332346597858
 20
183.2678914376744
 30
0.0
 10
179.3930381747362
 20
183.2230326614578
 30
0.0
 10
179.4239350442448
 20
183.1977074843625
 30
0.0
 10
179.4835803817984
 20
183.1436613709294
 30
0.0
 10
179.5126407292701
 20
183.1147442769841
 30
0.0
 10
179.5688890658085
 20
183.0528183878922
 30
0.0
 10
179.5955308461375
 20
183.0203658584946
 30
0.0
 10
179.6322953560841
 20
182.9702390056112
 30
0.0
 10
179.6440577113578
 20
182.9532385146145
 30
0.0
 10
179.666530419187
 20
182.9186035637352
 30
0.0
 10
179.6772937843045
 20
182.9008696851303
 30
0.0
 10
179.7073358043693
 20
182.8475576949733
 30
0.0
 10
179.7244623576943
 20
182.8118127486819
 30
0.0
 10
179.7526198141521
 20
182.7396459741149
 30
0.0
 10
179.7636856444806
 20
182.7028660470776
 30
0.0
 10
179.7783480850956
 20
182.6311777844218
 30
0.0
 10
179.7820967598228
 20
182.5960456163565
 30
0.0
 10
179.7820967598228
 20
182.5616273326005
 30
0.0
  0
ELLIPSE
  5
18C
330
1F
100
AcDbEntity
  8
0
  6
Continuous
 62
     7
370
    25
100
AcDbEllipse
 10
180.979192
 20
20.338838
 30
0.0
 11
2.044699993686408
 21
1.180572049620715
 31
0.0
210
0.0
220
0.0
230
1.0
 40
0.00007
 41
0.0
 42
6.283185307179586
  0
SPLINE
  5
18D
330
1F
100
AcDbEntity
  8
0
  6
Continuous
 62
     7
370
    25
100
AcDbSpline
210
0.0
220
0.0
230
1.0
 70
     8
 71
     3
 72
    15
 73
    11
 74
     0
 42
0.000000001
 43
0.00000001
 40
0.0
 40
0.0
 40
0.0
 40
0.0
 40
0.0822444182547196
 40
0.2308728416439063
 40
0.3744723178387767
 40
0.5198676467932786
 40
0.6712462676410416
 40
0.8242001078105776
 40
0.9710563733627703
 40
0.9999999999999999
 40
0.9999999999999999
 40
0.9999999999999999
 40
0.9999999999999999
 10
179.729308394324
 20
188.0768809694609
 30
0.0
 10
179.7012021186847
 20
188.0748155881879
 30
0.0
 10
179.6223034424881
 20
188.0690177425261
 30
0.0
 10
179.4900521547061
 20
188.1387475249911
 30
0.0
 10
179.3579733418846
 20
188.2697550914293
 30
0.0
 10
179.2558546530755
 20
188.4487692927825
 30
0.0
 10
179.1864657360617
 20
188.6556418061001
 30
0.0
 10
179.1556210692917
 20
188.8577462613114
 30
0.0
 10
179.1504697051318
 20
188.9960739622384
 30
0.0
 10
179.1650398329071
 20
189.0438639931069
 30
0.0
 10
179.1674386531404
 20
189.051732125409
 30
0.0
  0
SPLINE
  5
18E
330
1F
100
AcDbEntity
  8
0
  6
Continuous
 62
     7
370
    25
100
AcDbSpline
210
0.0
220
0.0
230
1.0
 70
     8
 71
     3
 72
    15
 73
    11
 74
     0
 42
0.000000001
 43
0.00000001
 40
0.0
 40
0.0
 40
0.0
 40
0.0
 40
0.0822444182547194
 40
0.2308728416439061
 40
0.3744723178387765
 40
0.5198676467932783
 40
0.6712462676410414
 40
0.8242001078105775
 40
0.9710563733627703
 40
1.0
 40
1.0
 40
1.0
 40
1.0
 10
179.729308394324
 20
182.3733433984389
 30
0.0
 10
179.7012021186847
 20
182.3712780171658
 30
0.0
 10
179.6223034424881
 20
182.3654801715041
 30
0.0
 10
179.4900521547061
 20
182.4352099539691
 30
0.0
 10
179.3579733418846
 20
182.5662175204074
 30
0.0
 10
179.2558546530755
 20
182.7452317217606
 30
0.0
 10
179.1864657360617
 20
182.9521042350781
 30
0.0
 10
179.1556210692917
 20
183.1542086902895
 30
0.0
 10
179.1504697051318
 20
183.2925363912165
 30
0.0
 10
179.1650398329071
 20
183.3403264220849
 30
0.0
 10
179.1674386531404
 20
183.348194554387
 30
0.0
  0
ENDSEC
  0
SECTION
  2
OBJECTS
  0
DICTIONARY
  5
C
330
0
100
AcDbDictionary
281
     1
  3
ACAD_DETAILVIEWSTYLE
350
1C4
  3
ACAD_GROUP
350
D
  3
ACAD_IMAGE_DICT
350
1B9
  3
ACAD_LAYOUT
350
1A
  3
ACAD_MATERIAL
350
1AB
  3
ACAD_MLEADERSTYLE
350
1C1
  3
ACAD_MLINESTYLE
350
17
  3
ACAD_PLOTSETTINGS
350
19
  3
ACAD_PLOTSTYLENAME
350
E
  3
ACAD_SCALELIST
350
47
  3
ACAD_SECTIONVIEWSTYLE
350
1C5
  3
ACAD_TABLESTYLE
350
1B5
  3
ACAD_VISUALSTYLE
350
192
  3
ACDB_RECOMPOSE_DATA
350
1C0
  3
AcDbVariableDictionary
350
1C2
  3
HOST_DOC_SETTINGS
350
1B7
  3
MCS_STREAM_DICT
350
1B1
  0
SUN
  5
1B4
330
29
100
AcDbSun
 90
        1
290
     0
 63
     7
421
 16777215
 40
1.0
291
     1
 91
  2455826
 92
 54000000
292
     0
 70
     2
 71
   256
280
     1
  0
DICTIONARY
  5
1C4
102
{ACAD_REACTORS
330
C
102
}
330
C
100
AcDbDictionary
281
     1
  0
DICTIONARY
  5
D
102
{ACAD_REACTORS
330
C
102
}
330
C
100
AcDbDictionary
281
     1
  0
DICTIONARY
  5
1B9
102
{ACAD_REACTORS
330
C
102
}
330
C
100
AcDbDictionary
281
     1
  0
DICTIONARY
  5
1A
102
{ACAD_REACTORS
330
C
102
}
330
C
100
AcDbDictionary
281
     1
  3
Layout1
350
1E
  3
Layout2
350
26
  3
Model
350
22
  0
DICTIONARY
  5
1AB
102
{ACAD_REACTORS
330
C
102
}
330
C
100
AcDbDictionary
281
     1
  3
ByBlock
350
1AD
  3
ByLayer
350
1AC
  3
Global
350
1AE
  0
DICTIONARY
  5
1C1
102
{ACAD_REACTORS
330
C
102
}
330
C
100
AcDbDictionary
281
     1
  0
DICTIONARY
  5
17
102
{ACAD_REACTORS
330
C
102
}
330
C
100
AcDbDictionary
281
     1
  3
Standard
350
18
  0
DICTIONARY
  5
19
102
{ACAD_REACTORS
330
C
102
}
330
C
100
AcDbDictionary
281
     1
  0
ACDBDICTIONARYWDFLT
  5
E
102
{ACAD_REACTORS
330
C
102
}
330
C
100
AcDbDictionary
281
     1
  3
Normal
350
F
100
AcDbDictionaryWithDefault
340
F
  0
DICTIONARY
  5
47
102
{ACAD_REACTORS
330
C
102
}
330
C
100
AcDbDictionary
281
     1
  3
A0
350
48
  3
A1
350
49
  3
A2
350
4A
  3
A3
350
4B
  3
A4
350
4C
  3
A5
350
4D
  3
A6
350
4E
  3
A7
350
4F
  3
A8
350
50
  3
A9
350
51
  3
B0
350
52
  3
B1
350
53
  3
B2
350
54
  3
B3
350
55
  3
B4
350
56
  3
B5
350
57
  3
B6
350
58
  0
DICTIONARY
  5
1C5
102
{ACAD_REACTORS
330
C
102
}
330
C
100
AcDbDictionary
281
     1
  0
DICTIONARY
  5
1B5
102
{ACAD_REACTORS
330
C
102
}
330
C
100
AcDbDictionary
281
     1
  3
Standard
350
1B6
  0
DICTIONARY
  5
192
102
{ACAD_REACTORS
330
C
102
}
330
C
100
AcDbDictionary
281
     1
  3
2dWireframe
350
197
  3
Basic
350
19A
  3
Brighten
350
19E
  3
ColorChange
350
1A2
  3
Conceptual
350
19C
  3
Dim
350
19D
  3
EdgeColorOff
350
1A5
  3
Facepattern
350
1A1
  3
Flat
350
193
  3
FlatWithEdges
350
194
  3
Gouraud
350
195
  3
GouraudWithEdges
350
196
  3
Hidden
350
199
  3
JitterOff
350
1A3
  3
Linepattern
350
1A0
  3
OverhangOff
350
1A4
  3
Realistic
350
19B
  3
Shaded
350
1AA
  3
Shaded with edges
350
1A9
  3
Shades of Gray
350
1A6
  3
Sketchy
350
1A7
  3
Thicken
350
19F
  3
Wireframe
350
198
  3
X-Ray
350
1A8
  0
XRECORD
  5
1C0
102
{ACAD_REACTORS
330
C
102
}
330
C
100
AcDbXrecord
280
     1
 90
        1
330
1B6
  0
DICTIONARY
  5
1C2
102
{ACAD_REACTORS
330
C
102
}
330
C
100
AcDbDictionary
281
     1
  3
MSLTSCALE
350
1C3
  0
DICTIONARY
  5
1B7
102
{ACAD_REACTORS
330
C
102
}
330
C
100
AcDbDictionary
281
     1
  3
NCDocParameters
350
1B8
  0
DICTIONARY
  5
1B1
102
{ACAD_REACTORS
330
C
102
}
330
C
100
AcDbDictionary
281
     1
  3
MC_VERSION_DATA
350
1BC
  3
MCS_DOCUMENT_ID
350
1B2
  3
MCS_PARAMS_DATA
350
1BA
  0
LAYOUT
  5
1E
102
{ACAD_REACTORS
330
1A
102
}
330
1A
100
AcDbPlotSettings
  1

  2
none_device
  4

  6

 40
0.0
 41
0.0
 42
0.0
 43
0.0
 44
0.0
 45
0.0
 46
0.0
 47
0.0
 48
0.0
 49
0.0
140
0.0
141
0.0
142
1.0
143
1.0
 70
   688
 72
     1
 73
     0
 74
     5
  7

 75
    16
 76
     0
 77
     2
 78
   300
147
1.0
148
0.0
149
0.0
100
AcDbLayout
  1
Layout1
 70
     0
 71
     1
 10
0.0
 20
0.0
 11
420.0
 21
297.0
 12
0.0
 22
0.0
 32
0.0
 14
1.000000E+20
 24
1.000000E+20
 34
1.000000E+20
 15
-1.000000E+20
 25
-1.000000E+20
 35
-1.000000E+20
146
0.0
 13
0.0
 23
0.0
 33
0.0
 16
1.0
 26
0.0
 36
0.0
 17
0.0
 27
1.0
 37
0.0
 76
     0
330
1B
  0
LAYOUT
  5
26
102
{ACAD_REACTORS
330
1A
102
}
330
1A
100
AcDbPlotSettings
  1

  2
none_device
  4

  6

 40
0.0
 41
0.0
 42
0.0
 43
0.0
 44
0.0
 45
0.0
 46
0.0
 47
0.0
 48
0.0
 49
0.0
140
0.0
141
0.0
142
1.0
143
1.0
 70
   688
 72
     1
 73
     0
 74
     5
  7

 75
    16
 76
     0
 77
     2
 78
   300
147
1.0
148
0.0
149
0.0
100
AcDbLayout
  1
Layout2
 70
     1
 71
     2
 10
0.0
 20
0.0
 11
0.0
 21
0.0
 12
0.0
 22
0.0
 32
0.0
 14
0.0
 24
0.0
 34
0.0
 15
0.0
 25
0.0
 35
0.0
146
0.0
 13
0.0
 23
0.0
 33
0.0
 16
1.0
 26
0.0
 36
0.0
 17
0.0
 27
1.0
 37
0.0
 76
     0
330
23
  0
LAYOUT
  5
22
102
{ACAD_REACTORS
330
1A
102
}
330
1A
100
AcDbPlotSettings
  1

  2
none_device
  4
Letter_(8.50_x_11.00_Inches)
  6

 40
6.35
 41
6.35
 42
6.350005
 43
6.350005
 44
215.9
 45
279.4
 46
0.0
 47
0.0
 48
0.0
 49
0.0
140
0.0
141
0.0
142
1.0
143
1.0
 70
  1712
 72
     1
 73
     0
 74
     0
  7

 75
     0
 76
     0
 77
     2
 78
   300
147
1.0
148
0.0
149
0.0
100
AcDbLayout
  1
Model
 70
     1
 71
     0
 10
0.0
 20
0.0
 11
279.4
 21
215.9
 12
0.0
 22
0.0
 32
0.0
 14
0.0
 24
0.0
 34
0.0
 15
279.4
 25
215.9
 35
0.0
146
0.0
 13
0.0
 23
0.0
 33
0.0
 16
1.0
 26
0.0
 36
0.0
 17
0.0
 27
1.0
 37
0.0
 76
     0
330
1F
331
29
  0
MATERIAL
  5
1AD
102
{ACAD_REACTORS
330
1AB
102
}
330
1AB
100
AcDbMaterial
  1
ByBlock
 72
     1
 94
      127
  0
MATERIAL
  5
1AC
102
{ACAD_REACTORS
330
1AB
102
}
330
1AB
100
AcDbMaterial
  1
ByLayer
 72
     1
 94
      127
  0
MATERIAL
  5
1AE
102
{ACAD_REACTORS
330
1AB
102
}
330
1AB
100
AcDbMaterial
  1
Global
 72
     1
 94
      127
  0
MLINESTYLE
  5
18
102
{ACAD_REACTORS
330
17
102
}
330
17
100
AcDbMlineStyle
  2
Standard
 70
     0
  3

 62
   256
 51
90.0
 52
90.0
 71
     2
 49
0.5
 62
   256
  6
BYLAYER
 49
-0.5
 62
   256
  6
BYLAYER
  0
ACDBPLACEHOLDER
  5
F
102
{ACAD_REACTORS
330
E
102
}
330
E
  0
SCALE
  5
48
102
{ACAD_REACTORS
330
47
102
}
330
47
100
AcDbScale
 70
     0
300
1:1
140
1.0
141
1.0
290
     1
  0
SCALE
  5
49
102
{ACAD_REACTORS
330
47
102
}
330
47
100
AcDbScale
 70
     0
300
1:2
140
1.0
141
2.0
290
     0
  0
SCALE
  5
4A
102
{ACAD_REACTORS
330
47
102
}
330
47
100
AcDbScale
 70
     0
300
1:4
140
1.0
141
4.0
290
     0
  0
SCALE
  5
4B
102
{ACAD_REACTORS
330
47
102
}
330
47
100
AcDbScale
 70
     0
300
1:5
140
1.0
141
5.0
290
     0
  0
SCALE
  5
4C
102
{ACAD_REACTORS
330
47
102
}
330
47
100
AcDbScale
 70
     0
300
1:8
140
1.0
141
8.0
290
     0
  0
SCALE
  5
4D
102
{ACAD_REACTORS
330
47
102
}
330
47
100
AcDbScale
 70
     0
300
1:10
140
1.0
141
10.0
290
     0
  0
SCALE
  5
4E
102
{ACAD_REACTORS
330
47
102
}
330
47
100
AcDbScale
 70
     0
300
1:16
140
1.0
141
16.0
290
     0
  0
SCALE
  5
4F
102
{ACAD_REACTORS
330
47
102
}
330
47
100
AcDbScale
 70
     0
300
1:20
140
1.0
141
20.0
290
     0
  0
SCALE
  5
50
102
{ACAD_REACTORS
330
47
102
}
330
47
100
AcDbScale
 70
     0
300
1:30
140
1.0
141
30.0
290
     0
  0
SCALE
  5
51
102
{ACAD_REACTORS
330
47
102
}
330
47
100
AcDbScale
 70
     0
300
1:40
140
1.0
141
40.0
290
     0
  0
SCALE
  5
52
102
{ACAD_REACTORS
330
47
102
}
330
47
100
AcDbScale
 70
     0
300
1:50
140
1.0
141
50.0
290
     0
  0
SCALE
  5
53
102
{ACAD_REACTORS
330
47
102
}
330
47
100
AcDbScale
 70
     0
300
1:100
140
1.0
141
100.0
290
     0
  0
SCALE
  5
54
102
{ACAD_REACTORS
330
47
102
}
330
47
100
AcDbScale
 70
     0
300
2:1
140
2.0
141
1.0
290
     0
  0
SCALE
  5
55
102
{ACAD_REACTORS
330
47
102
}
330
47
100
AcDbScale
 70
     0
300
4:1
140
4.0
141
1.0
290
     0
  0
SCALE
  5
56
102
{ACAD_REACTORS
330
47
102
}
330
47
100
AcDbScale
 70
     0
300
8:1
140
8.0
141
1.0
290
     0
  0
SCALE
  5
57
102
{ACAD_REACTORS
330
47
102
}
330
47
100
AcDbScale
 70
     0
300
10:1
140
10.0
141
1.0
290
     0
  0
SCALE
  5
58
102
{ACAD_REACTORS
330
47
102
}
330
47
100
AcDbScale
 70
     0
300
100:1
140
100.0
141
1.0
290
     0
  0
TABLESTYLE
  5
1B6
102
{ACAD_REACTORS
330
1B5
102
}
102
{ACAD_XDICTIONARY
360
1BE
102
}
330
1B5
100
AcDbTableStyle
  3
Standard
 70
     0
 71
     8
 40
1.5
 41
1.5
280
     0
281
     0
  7
Standard
140
4.5
170
     2
 62
     0
 63
   257
283
     0
 90
        4
 91
        0
  1

274
    -2
284
     1
 64
     0
275
    -2
285
     1
 65
     0
276
    -2
286
     1
 66
     0
277
    -2
287
     1
 67
     0
278
    -2
288
     1
 68
     0
279
    -2
289
     1
 69
     0
  7
Standard
140
6.0
170
     5
 62
     0
 63
   257
283
     0
 90
        4
 91
        0
  1

274
    -2
284
     1
 64
     0
275
    -2
285
     1
 65
     0
276
    -2
286
     1
 66
     0
277
    -2
287
     1
 67
     0
278
    -2
288
     1
 68
     0
279
    -2
289
     1
 69
     0
  7
Standard
140
4.5
170
     5
 62
     0
 63
   257
283
     0
 90
        4
 91
        0
  1

274
    -2
284
     1
 64
     0
275
    -2
285
     1
 65
     0
276
    -2
286
     1
 66
     0
277
    -2
287
     1
 67
     0
278
    -2
288
     1
 68
     0
279
    -2
289
     1
 69
     0
  0
VISUALSTYLE
  5
197
102
{ACAD_REACTORS
330
192
102
}
330
192
100
AcDbVisualStyle
  2
2dWireframe
 70
     4
177
     3
291
     0
 70
    58
 90
        0
176
     1
 90
        2
176
     1
 90
        0
176
     1
 90
        0
176
     1
 40
0.6
176
     1
 40
30.0
176
     1
 62
     7
420
 16777215
176
     1
 90
        1
176
     1
 90
        4
176
     1
 62
     7
176
     1
 62
   257
176
     1
 90
        1
176
     1
 90
        1
176
     1
 40
1.0
176
     1
 90
        0
176
     1
 62
   257
176
     1
 40
1.0
176
     1
 90
        1
176
     1
 90
        6
176
     1
 90
        2
176
     1
 62
     7
176
     1
 90
        5
176
     1
 90
        0
176
     1
 90
        0
176
     1
290
     0
176
     1
 90
        1
176
     1
 40
0.0
176
     1
 90
        0
176
     1
290
     1
176
     1
290
     1
176
     1
290
     0
176
     1
290
     0
176
     1
290
     0
176
     1
290
     0
176
     1
290
     0
176
     1
290
     0
176
     1
290
     0
176
     1
 90
       50
176
     1
 40
0.0
176
     1
 40
1.0
176
     1
 90
        0
176
     1
 62
    18
420
        0
176
     1
 90
       50
176
     1
 90
        3
176
     1
 62
     5
420
      255
176
     1
290
     0
176
     1
 90
       50
176
     1
 90
       50
176
     1
 90
       50
176
     1
290
     0
176
     1
 90
       50
176
     1
 62
   256
176
     0
 40
1.0
176
     0
 90
        2
176
     1
  1
strokes_ogs.tif
176
     1
290
     0
176
     1
 40
1.0
176
     1
 40
1.0
176
     1
  0
VISUALSTYLE
  5
19A
102
{ACAD_REACTORS
330
192
102
}
330
192
100
AcDbVisualStyle
  2
Basic
 70
     7
177
     3
291
     1
 70
    58
 90
        1
176
     1
 90
        0
176
     1
 90
        1
176
     1
 90
        0
176
     1
 40
0.6
176
     1
 40
30.0
176
     1
 62
     7
420
 16777215
176
     1
 90
        0
176
     1
 90
        4
176
     1
 62
     7
176
     1
 62
   257
176
     1
 90
        1
176
     1
 90
        1
176
     1
 40
1.0
176
     1
 90
        8
176
     1
 62
     7
176
     1
 40
1.0
176
     1
 90
        1
176
     1
 90
        6
176
     1
 90
        2
176
     1
 62
     7
176
     1
 90
        5
176
     1
 90
        0
176
     1
 90
        0
176
     1
290
     0
176
     1
 90
        1
176
     1
 40
0.0
176
     1
 90
        0
176
     1
290
     0
176
     1
290
     1
176
     1
290
     1
176
     1
290
     0
176
     1
290
     0
176
     1
290
     0
176
     1
290
     0
176
     1
290
     0
176
     1
290
     0
176
     1
 90
       50
176
     1
 40
0.0
176
     1
 40
1.0
176
     1
 90
        0
176
     1
 62
    18
420
        0
176
     1
 90
       50
176
     1
 90
        3
176
     1
 62
     5
420
      255
176
     1
290
     0
176
     1
 90
       50
176
     1
 90
       50
176
     1
 90
       50
176
     1
290
     0
176
     1
 90
       50
176
     1
 62
   256
176
     0
 40
1.0
176
     0
 90
        2
176
     1
  1
strokes_ogs.tif
176
     1
290
     0
176
     1
 40
1.0
176
     1
 40
1.0
176
     1
  0
VISUALSTYLE
  5
19E
102
{ACAD_REACTORS
330
192
102
}
330
192
100
AcDbVisualStyle
  2
Brighten
 70
    12
177
     3
291
     1
 70
    58
 90
        2
176
     1
 90
        2
176
     1
 90
        0
176
     1
 90
        0
176
     1
 40
0.6
176
     1
 40
30.0
176
     1
 62
     7
420
 16777215
176
     1
 90
        1
176
     1
 90
        4
176
     1
 62
     7
176
     1
 62
   257
176
     1
 90
        1
176
     1
 90
        1
176
     1
 40
1.0
176
     1
 90
        8
176
     1
 62
     7
176
     1
 40
1.0
176
     1
 90
        1
176
     1
 90
        6
176
     1
 90
        2
176
     1
 62
     7
176
     1
 90
        5
176
     1
 90
        0
176
     1
 90
        0
176
     1
290
     0
176
     1
 90
        1
176
     1
 40
50.0
176
     1
 90
        0
176
     1
290
     0
176
     1
290
     1
176
     1
290
     1
176
     1
290
     0
176
     1
290
     0
176
     1
290
     0
176
     1
290
     0
176
     1
290
     0
176
     1
290
     0
176
     1
 90
       50
176
     1
 40
0.0
176
     1
 40
1.0
176
     1
 90
        0
176
     1
 62
    18
420
        0
176
     1
 90
       50
176
     1
 90
        3
176
     1
 62
     5
420
      255
176
     1
290
     0
176
     1
 90
       50
176
     1
 90
       50
176
     1
 90
       50
176
     1
290
     0
176
     1
 90
       50
176
     1
 62
   256
176
     0
 40
1.0
176
     0
 90
        2
176
     1
  1
strokes_ogs.tif
176
     1
290
     0
176
     1
 40
1.0
176
     1
 40
1.0
176
     1
  0
VISUALSTYLE
  5
1A2
102
{ACAD_REACTORS
330
192
102
}
330
192
100
AcDbVisualStyle
  2
ColorChange
 70
    16
177
     3
291
     1
 70
    58
 90
        2
176
     1
 90
        2
176
     1
 90
        3
176
     1
 90
        0
176
     1
 40
0.6
176
     1
 40
30.0
176
     1
 62
     8
420
  8421504
176
     1
 90
        1
176
     1
 90
        4
176
     1
 62
     7
176
     1
 62
   257
176
     1
 90
        1
176
     1
 90
        1
176
     1
 40
1.0
176
     1
 90
        8
176
     1
 62
     8
420
  8421504
176
     1
 40
1.0
176
     1
 90
        1
176
     1
 90
        6
176
     1
 90
        2
176
     1
 62
     7
176
     1
 90
        5
176
     1
 90
        0
176
     1
 90
        0
176
     1
290
     0
176
     1
 90
        1
176
     1
 40
0.0
176
     1
 90
        0
176
     1
290
     0
176
     1
290
     1
176
     1
290
     1
176
     1
290
     0
176
     1
290
     0
176
     1
290
     0
176
     1
290
     0
176
     1
290
     0
176
     1
290
     0
176
     1
 90
       50
176
     1
 40
0.0
176
     1
 40
1.0
176
     1
 90
        0
176
     1
 62
    18
420
        0
176
     1
 90
       50
176
     1
 90
        3
176
     1
 62
     5
420
      255
176
     1
290
     0
176
     1
 90
       50
176
     1
 90
       50
176
     1
 90
       50
176
     1
290
     0
176
     1
 90
       50
176
     1
 62
   256
176
     0
 40
1.0
176
     0
 90
        2
176
     1
  1
strokes_ogs.tif
176
     1
290
     0
176
     1
 40
1.0
176
     1
 40
1.0
176
     1
  0
VISUALSTYLE
  5
19C
102
{ACAD_REACTORS
330
192
102
}
330
192
100
AcDbVisualStyle
  2
Conceptual
 70
     9
177
     3
291
     0
 70
    58
 90
        3
176
     1
 90
        2
176
     1
 90
        0
176
     1
 90
        0
176
     1
 40
0.6
176
     1
 40
30.0
176
     1
 62
     7
420
 16777215
176
     1
 90
        2
176
     1
 90
        2
176
     1
 62
     7
176
     1
 62
   257
176
     1
 90
        1
176
     1
 90
        1
176
     1
 40
179.0
176
     1
 90
        8
176
     1
 62
     7
176
     1
 40
1.0
176
     1
 90
        1
176
     1
 90
        6
176
     1
 90
        2
176
     1
 62
     7
176
     1
 90
        3
176
     1
 90
        0
176
     1
 90
        0
176
     1
290
     0
176
     1
 90
        1
176
     1
 40
0.0
176
     1
 90
        0
176
     1
290
     0
176
     1
290
     1
176
     1
290
     1
176
     1
290
     0
176
     1
290
     0
176
     1
290
     0
176
     1
290
     0
176
     1
290
     0
176
     1
290
     0
176
     1
 90
       50
176
     1
 40
0.0
176
     1
 40
1.0
176
     1
 90
        0
176
     1
 62
    18
420
        0
176
     1
 90
       50
176
     1
 90
        3
176
     1
 62
     5
420
      255
176
     1
290
     0
176
     1
 90
       50
176
     1
 90
       50
176
     1
 90
       50
176
     1
290
     0
176
     1
 90
       50
176
     1
 62
   256
176
     0
 40
1.0
176
     0
 90
        2
176
     1
  1
strokes_ogs.tif
176
     1
290
     0
176
     1
 40
1.0
176
     1
 40
1.0
176
     1
  0
VISUALSTYLE
  5
19D
102
{ACAD_REACTORS
330
192
102
}
330
192
100
AcDbVisualStyle
  2
Dim
 70
    11
177
     3
291
     1
 70
    58
 90
        2
176
     1
 90
        2
176
     1
 90
        0
176
     1
 90
        0
176
     1
 40
0.6
176
     1
 40
30.0
176
     1
 62
     7
420
 16777215
176
     1
 90
        1
176
     1
 90
        4
176
     1
 62
     7
176
     1
 62
   257
176
     1
 90
        1
176
     1
 90
        1
176
     1
 40
1.0
176
     1
 90
        8
176
     1
 62
     7
176
     1
 40
1.0
176
     1
 90
        1
176
     1
 90
        6
176
     1
 90
        2
176
     1
 62
     7
176
     1
 90
        5
176
     1
 90
        0
176
     1
 90
        0
176
     1
290
     0
176
     1
 90
        1
176
     1
 40
-50.0
176
     1
 90
        0
176
     1
290
     0
176
     1
290
     1
176
     1
290
     1
176
     1
290
     0
176
     1
290
     0
176
     1
290
     0
176
     1
290
     0
176
     1
290
     0
176
     1
290
     0
176
     1
 90
       50
176
     1
 40
0.0
176
     1
 40
1.0
176
     1
 90
        0
176
     1
 62
    18
420
        0
176
     1
 90
       50
176
     1
 90
        3
176
     1
 62
     5
420
      255
176
     1
290
     0
176
     1
 90
       50
176
     1
 90
       50
176
     1
 90
       50
176
     1
290
     0
176
     1
 90
       50
176
     1
 62
   256
176
     0
 40
1.0
176
     0
 90
        2
176
     1
  1
strokes_ogs.tif
176
     1
290
     0
176
     1
 40
1.0
176
     1
 40
1.0
176
     1
  0
VISUALSTYLE
  5
1A5
102
{ACAD_REACTORS
330
192
102
}
330
192
100
AcDbVisualStyle
  2
EdgeColorOff
 70
    22
177
     3
291
     1
 70
    58
 90
        2
176
     0
 90
        2
176
     0
 90
        0
176
     0
 90
        0
176
     0
 40
0.6
176
     0
 40
30.0
176
     0
 62
     7
420
 16777215
176
     0
 90
        1
176
     0
 90
        4
176
     0
 62
     7
176
     0
 62
   257
176
     0
 90
        1
176
     0
 90
        1
176
     0
 40
1.0
176
     0
 90
        8
176
     2
 62
     7
176
     0
 40
1.0
176
     0
 90
        1
176
     0
 90
        6
176
     0
 90
        2
176
     0
 62
     7
176
     0
 90
        5
176
     0
 90
        0
176
     0
 90
        0
176
     0
290
     0
176
     0
 90
        1
176
     0
 40
0.0
176
     0
 90
        0
176
     0
290
     0
176
     0
290
     1
176
     0
290
     1
176
     0
290
     0
176
     0
290
     0
176
     0
290
     0
176
     0
290
     0
176
     0
290
     0
176
     0
290
     0
176
     0
 90
       50
176
     0
 40
0.0
176
     0
 40
1.0
176
     0
 90
        0
176
     0
 62
    18
420
        0
176
     0
 90
       50
176
     0
 90
        3
176
     0
 62
     5
420
      255
176
     0
290
     0
176
     0
 90
       50
176
     0
 90
       50
176
     0
 90
       50
176
     0
290
     0
176
     0
 90
       50
176
     0
 62
   256
176
     0
 40
1.0
176
     0
 90
        2
176
     0
  1
strokes_ogs.tif
176
     0
290
     0
176
     0
 40
1.0
176
     0
 40
1.0
176
     0
  0
VISUALSTYLE
  5
1A1
102
{ACAD_REACTORS
330
192
102
}
330
192
100
AcDbVisualStyle
  2
Facepattern
 70
    15
177
     3
291
     1
 70
    58
 90
        2
176
     1
 90
        2
176
     1
 90
        0
176
     1
 90
        0
176
     1
 40
0.6
176
     1
 40
30.0
176
     1
 62
     7
420
 16777215
176
     1
 90
        1
176
     1
 90
        4
176
     1
 62
     7
176
     1
 62
   257
176
     1
 90
        1
176
     1
 90
        1
176
     1
 40
1.0
176
     1
 90
        8
176
     1
 62
     7
176
     1
 40
1.0
176
     1
 90
        1
176
     1
 90
        6
176
     1
 90
        2
176
     1
 62
     7
176
     1
 90
        5
176
     1
 90
        0
176
     1
 90
        0
176
     1
290
     0
176
     1
 90
        1
176
     1
 40
0.0
176
     1
 90
        0
176
     1
290
     0
176
     1
290
     1
176
     1
290
     1
176
     1
290
     0
176
     1
290
     0
176
     1
290
     0
176
     1
290
     0
176
     1
290
     0
176
     1
290
     0
176
     1
 90
       50
176
     1
 40
0.0
176
     1
 40
1.0
176
     1
 90
        0
176
     1
 62
    18
420
        0
176
     1
 90
       50
176
     1
 90
        3
176
     1
 62
     5
420
      255
176
     1
290
     0
176
     1
 90
       50
176
     1
 90
       50
176
     1
 90
       50
176
     1
290
     0
176
     1
 90
       50
176
     1
 62
   256
176
     0
 40
1.0
176
     0
 90
        2
176
     1
  1
strokes_ogs.tif
176
     1
290
     0
176
     1
 40
1.0
176
     1
 40
1.0
176
     1
  0
VISUALSTYLE
  5
193
102
{ACAD_REACTORS
330
192
102
}
330
192
100
AcDbVisualStyle
  2
Flat
 70
     0
177
     3
291
     1
 70
    58
 90
        2
176
     1
 90
        1
176
     1
 90
        1
176
     1
 90
        2
176
     1
 40
0.6
176
     1
 40
30.0
176
     1
 62
     7
420
 16777215
176
     1
 90
        0
176
     1
 90
        0
176
     1
 62
     7
176
     1
 62
   257
176
     1
 90
        1
176
     1
 90
        1
176
     1
 40
1.0
176
     1
 90
        8
176
     1
 62
     7
176
     1
 40
1.0
176
     1
 90
        1
176
     1
 90
        6
176
     1
 90
        2
176
     1
 62
     7
176
     1
 90
        5
176
     1
 90
        0
176
     1
 90
        0
176
     1
290
     0
176
     1
 90
       13
176
     1
 40
0.0
176
     1
 90
        0
176
     1
290
     0
176
     1
290
     1
176
     1
290
     1
176
     1
290
     0
176
     1
290
     0
176
     1
290
     0
176
     1
290
     0
176
     1
290
     0
176
     1
290
     0
176
     1
 90
       50
176
     1
 40
0.0
176
     1
 40
1.0
176
     1
 90
        0
176
     1
 62
    18
420
        0
176
     1
 90
       50
176
     1
 90
        3
176
     1
 62
     5
420
      255
176
     1
290
     0
176
     1
 90
       50
176
     1
 90
       50
176
     1
 90
       50
176
     1
290
     0
176
     1
 90
       50
176
     1
 62
   256
176
     0
 40
1.0
176
     0
 90
        2
176
     1
  1
strokes_ogs.tif
176
     1
290
     0
176
     1
 40
1.0
176
     1
 40
1.0
176
     1
  0
VISUALSTYLE
  5
194
102
{ACAD_REACTORS
330
192
102
}
330
192
100
AcDbVisualStyle
  2
FlatWithEdges
 70
     1
177
     3
291
     1
 70
    58
 90
        2
176
     1
 90
        1
176
     1
 90
        1
176
     1
 90
        2
176
     1
 40
0.6
176
     1
 40
30.0
176
     1
 62
     7
420
 16777215
176
     1
 90
        1
176
     1
 90
        0
176
     1
 62
     7
176
     1
 62
   257
176
     1
 90
        1
176
     1
 90
        1
176
     1
 40
1.0
176
     1
 90
        0
176
     1
 62
   257
176
     1
 40
1.0
176
     1
 90
        1
176
     1
 90
        6
176
     1
 90
        2
176
     1
 62
     7
176
     1
 90
        5
176
     1
 90
        0
176
     1
 90
        0
176
     1
290
     0
176
     1
 90
       13
176
     1
 40
0.0
176
     1
 90
        0
176
     1
290
     0
176
     1
290
     1
176
     1
290
     1
176
     1
290
     0
176
     1
290
     0
176
     1
290
     0
176
     1
290
     0
176
     1
290
     0
176
     1
290
     0
176
     1
 90
       50
176
     1
 40
0.0
176
     1
 40
1.0
176
     1
 90
        0
176
     1
 62
    18
420
        0
176
     1
 90
       50
176
     1
 90
        3
176
     1
 62
     5
420
      255
176
     1
290
     0
176
     1
 90
       50
176
     1
 90
       50
176
     1
 90
       50
176
     1
290
     0
176
     1
 90
       50
176
     1
 62
   256
176
     0
 40
1.0
176
     0
 90
        2
176
     1
  1
strokes_ogs.tif
176
     1
290
     0
176
     1
 40
1.0
176
     1
 40
1.0
176
     1
  0
VISUALSTYLE
  5
195
102
{ACAD_REACTORS
330
192
102
}
330
192
100
AcDbVisualStyle
  2
Gouraud
 70
     2
177
     3
291
     1
 70
    58
 90
        2
176
     1
 90
        2
176
     1
 90
        1
176
     1
 90
        2
176
     1
 40
0.6
176
     1
 40
30.0
176
     1
 62
     7
420
 16777215
176
     1
 90
        0
176
     1
 90
        0
176
     1
 62
     7
176
     1
 62
   257
176
     1
 90
        1
176
     1
 90
        1
176
     1
 40
1.0
176
     1
 90
        0
176
     1
 62
     7
176
     1
 40
1.0
176
     1
 90
        1
176
     1
 90
        6
176
     1
 90
        2
176
     1
 62
     7
176
     1
 90
        5
176
     1
 90
        0
176
     1
 90
        0
176
     1
290
     0
176
     1
 90
       13
176
     1
 40
0.0
176
     1
 90
        0
176
     1
290
     0
176
     1
290
     1
176
     1
290
     1
176
     1
290
     0
176
     1
290
     0
176
     1
290
     0
176
     1
290
     0
176
     1
290
     0
176
     1
290
     0
176
     1
 90
       50
176
     1
 40
0.0
176
     1
 40
1.0
176
     1
 90
        0
176
     1
 62
    18
420
        0
176
     1
 90
       50
176
     1
 90
        3
176
     1
 62
     5
420
      255
176
     1
290
     0
176
     1
 90
       50
176
     1
 90
       50
176
     1
 90
       50
176
     1
290
     0
176
     1
 90
       50
176
     1
 62
   256
176
     0
 40
1.0
176
     0
 90
        2
176
     1
  1
strokes_ogs.tif
176
     1
290
     0
176
     1
 40
1.0
176
     1
 40
1.0
176
     1
  0
VISUALSTYLE
  5
196
102
{ACAD_REACTORS
330
192
102
}
330
192
100
AcDbVisualStyle
  2
GouraudWithEdges
 70
     3
177
     3
291
     1
 70
    58
 90
        2
176
     1
 90
        2
176
     1
 90
        1
176
     1
 90
        2
176
     1
 40
0.6
176
     1
 40
30.0
176
     1
 62
     7
420
 16777215
176
     1
 90
        1
176
     1
 90
        0
176
     1
 62
     7
176
     1
 62
   257
176
     1
 90
        1
176
     1
 90
        1
176
     1
 40
1.0
176
     1
 90
        0
176
     1
 62
   257
176
     1
 40
1.0
176
     1
 90
        1
176
     1
 90
        6
176
     1
 90
        2
176
     1
 62
     7
176
     1
 90
        5
176
     1
 90
        0
176
     1
 90
        0
176
     1
290
     0
176
     1
 90
       13
176
     1
 40
0.0
176
     1
 90
        0
176
     1
290
     0
176
     1
290
     1
176
     1
290
     1
176
     1
290
     0
176
     1
290
     0
176
     1
290
     0
176
     1
290
     0
176
     1
290
     0
176
     1
290
     0
176
     1
 90
       50
176
     1
 40
0.0
176
     1
 40
1.0
176
     1
 90
        0
176
     1
 62
    18
420
        0
176
     1
 90
       50
176
     1
 90
        3
176
     1
 62
     5
420
      255
176
     1
290
     0
176
     1
 90
       50
176
     1
 90
       50
176
     1
 90
       50
176
     1
290
     0
176
     1
 90
       50
176
     1
 62
   256
176
     0
 40
1.0
176
     0
 90
        2
176
     1
  1
strokes_ogs.tif
176
     1
290
     0
176
     1
 40
1.0
176
     1
 40
1.0
176
     1
  0
VISUALSTYLE
  5
199
102
{ACAD_REACTORS
330
192
102
}
330
192
100
AcDbVisualStyle
  2
Hidden
 70
     6
177
     3
291
     0
 70
    58
 90
        1
176
     1
 90
        2
176
     1
 90
        2
176
     1
 90
        0
176
     1
 40
0.6
176
     1
 40
30.0
176
     1
 62
     7
420
 16777215
176
     1
 90
        2
176
     1
 90
        2
176
     1
 62
     7
176
     1
 62
   257
176
     1
 90
        2
176
     1
 90
        1
176
     1
 40
40.0
176
     1
 90
        0
176
     1
 62
   257
176
     1
 40
1.0
176
     1
 90
        1
176
     1
 90
        6
176
     1
 90
        2
176
     1
 62
     7
176
     1
 90
        3
176
     1
 90
        0
176
     1
 90
        0
176
     1
290
     0
176
     1
 90
        1
176
     1
 40
0.0
176
     1
 90
        0
176
     1
290
     0
176
     1
290
     1
176
     1
290
     1
176
     1
290
     0
176
     1
290
     0
176
     1
290
     0
176
     1
290
     0
176
     1
290
     0
176
     1
290
     0
176
     1
 90
       50
176
     1
 40
0.0
176
     1
 40
1.0
176
     1
 90
        0
176
     1
 62
    18
420
        0
176
     1
 90
       50
176
     1
 90
        3
176
     1
 62
     5
420
      255
176
     1
290
     0
176
     1
 90
       50
176
     1
 90
       50
176
     1
 90
       50
176
     1
290
     0
176
     1
 90
       50
176
     1
 62
   256
176
     0
 40
1.0
176
     0
 90
        2
176
     1
  1
strokes_ogs.tif
176
     1
290
     0
176
     1
 40
1.0
176
     1
 40
1.0
176
     1
  0
VISUALSTYLE
  5
1A3
102
{ACAD_REACTORS
330
192
102
}
330
192
100
AcDbVisualStyle
  2
JitterOff
 70
    20
177
     3
291
     1
 70
    58
 90
        2
176
     0
 90
        2
176
     0
 90
        0
176
     0
 90
        0
176
     0
 40
0.6
176
     0
 40
30.0
176
     0
 62
     7
420
 16777215
176
     0
 90
        1
176
     0
 90
        4
176
     0
 62
     7
176
     0
 62
   257
176
     0
 90
        1
176
     0
 90
        1
176
     0
 40
1.0
176
     0
 90
       10
176
     2
 62
     7
176
     0
 40
1.0
176
     0
 90
        1
176
     0
 90
        6
176
     0
 90
        2
176
     0
 62
     7
176
     0
 90
        5
176
     0
 90
        0
176
     0
 90
        0
176
     0
290
     0
176
     0
 90
        1
176
     0
 40
0.0
176
     0
 90
        0
176
     0
290
     0
176
     0
290
     1
176
     0
290
     1
176
     0
290
     0
176
     0
290
     0
176
     0
290
     0
176
     0
290
     0
176
     0
290
     0
176
     0
290
     0
176
     0
 90
       50
176
     0
 40
0.0
176
     0
 40
1.0
176
     0
 90
        0
176
     0
 62
    18
420
        0
176
     0
 90
       50
176
     0
 90
        3
176
     0
 62
     5
420
      255
176
     0
290
     0
176
     0
 90
       50
176
     0
 90
       50
176
     0
 90
       50
176
     0
290
     0
176
     0
 90
       50
176
     0
 62
   256
176
     0
 40
1.0
176
     0
 90
        2
176
     0
  1
strokes_ogs.tif
176
     0
290
     0
176
     0
 40
1.0
176
     0
 40
1.0
176
     0
  0
VISUALSTYLE
  5
1A0
102
{ACAD_REACTORS
330
192
102
}
330
192
100
AcDbVisualStyle
  2
Linepattern
 70
    14
177
     3
291
     1
 70
    58
 90
        2
176
     1
 90
        2
176
     1
 90
        0
176
     1
 90
        0
176
     1
 40
0.6
176
     1
 40
30.0
176
     1
 62
     7
420
 16777215
176
     1
 90
        1
176
     1
 90
        4
176
     1
 62
     7
176
     1
 62
   257
176
     1
 90
        7
176
     1
 90
        7
176
     1
 40
1.0
176
     1
 90
        8
176
     1
 62
     7
176
     1
 40
1.0
176
     1
 90
        1
176
     1
 90
        6
176
     1
 90
        2
176
     1
 62
     7
176
     1
 90
        5
176
     1
 90
        0
176
     1
 90
        0
176
     1
290
     0
176
     1
 90
        1
176
     1
 40
0.0
176
     1
 90
        0
176
     1
290
     0
176
     1
290
     1
176
     1
290
     1
176
     1
290
     0
176
     1
290
     0
176
     1
290
     0
176
     1
290
     0
176
     1
290
     0
176
     1
290
     0
176
     1
 90
       50
176
     1
 40
0.0
176
     1
 40
1.0
176
     1
 90
        0
176
     1
 62
    18
420
        0
176
     1
 90
       50
176
     1
 90
        3
176
     1
 62
     5
420
      255
176
     1
290
     0
176
     1
 90
       50
176
     1
 90
       50
176
     1
 90
       50
176
     1
290
     0
176
     1
 90
       50
176
     1
 62
   256
176
     0
 40
1.0
176
     0
 90
        2
176
     1
  1
strokes_ogs.tif
176
     1
290
     0
176
     1
 40
1.0
176
     1
 40
1.0
176
     1
  0
VISUALSTYLE
  5
1A4
102
{ACAD_REACTORS
330
192
102
}
330
192
100
AcDbVisualStyle
  2
OverhangOff
 70
    21
177
     3
291
     1
 70
    58
 90
        2
176
     0
 90
        2
176
     0
 90
        0
176
     0
 90
        0
176
     0
 40
0.6
176
     0
 40
30.0
176
     0
 62
     7
420
 16777215
176
     0
 90
        1
176
     0
 90
        4
176
     0
 62
     7
176
     0
 62
   257
176
     0
 90
        1
176
     0
 90
        1
176
     0
 40
1.0
176
     0
 90
        9
176
     2
 62
     7
176
     0
 40
1.0
176
     0
 90
        1
176
     0
 90
        6
176
     0
 90
        2
176
     0
 62
     7
176
     0
 90
        5
176
     0
 90
        0
176
     0
 90
        0
176
     0
290
     0
176
     0
 90
        1
176
     0
 40
0.0
176
     0
 90
        0
176
     0
290
     0
176
     0
290
     1
176
     0
290
     1
176
     0
290
     0
176
     0
290
     0
176
     0
290
     0
176
     0
290
     0
176
     0
290
     0
176
     0
290
     0
176
     0
 90
       50
176
     0
 40
0.0
176
     0
 40
1.0
176
     0
 90
        0
176
     0
 62
    18
420
        0
176
     0
 90
       50
176
     0
 90
        3
176
     0
 62
     5
420
      255
176
     0
290
     0
176
     0
 90
       50
176
     0
 90
       50
176
     0
 90
       50
176
     0
290
     0
176
     0
 90
       50
176
     0
 62
   256
176
     0
 40
1.0
176
     0
 90
        2
176
     0
  1
strokes_ogs.tif
176
     0
290
     0
176
     0
 40
1.0
176
     0
 40
1.0
176
     0
  0
VISUALSTYLE
  5
19B
102
{ACAD_REACTORS
330
192
102
}
330
192
100
AcDbVisualStyle
  2
Realistic
 70
     8
177
     3
291
     0
 70
    58
 90
        2
176
     1
 90
        3
176
     1
 90
        0
176
     1
 90
        2
176
     1
 40
0.6
176
     1
 40
30.0
176
     1
 62
     7
420
 16777215
176
     1
 90
        0
176
     1
 90
        0
176
     1
 62
     7
176
     1
 62
   257
176
     1
 90
        1
176
     1
 90
        1
176
     1
 40
1.0
176
     1
 90
        8
176
     1
 62
   257
176
     1
 40
1.0
176
     1
 90
        1
176
     1
 90
        6
176
     1
 90
        2
176
     1
 62
     7
176
     1
 90
        3
176
     1
 90
        0
176
     1
 90
        0
176
     1
290
     0
176
     1
 90
       13
176
     1
 40
0.0
176
     1
 90
        0
176
     1
290
     0
176
     1
290
     1
176
     1
290
     1
176
     1
290
     0
176
     1
290
     0
176
     1
290
     0
176
     1
290
     0
176
     1
290
     0
176
     1
290
     0
176
     1
 90
       50
176
     1
 40
0.0
176
     1
 40
1.0
176
     1
 90
        0
176
     1
 62
    18
420
        0
176
     1
 90
       50
176
     1
 90
        3
176
     1
 62
     5
420
      255
176
     1
290
     0
176
     1
 90
       50
176
     1
 90
       50
176
     1
 90
       50
176
     1
290
     0
176
     1
 90
       50
176
     1
 62
   256
176
     0
 40
1.0
176
     0
 90
        2
176
     1
  1
strokes_ogs.tif
176
     1
290
     0
176
     1
 40
1.0
176
     1
 40
1.0
176
     1
  0
VISUALSTYLE
  5
1AA
102
{ACAD_REACTORS
330
192
102
}
330
192
100
AcDbVisualStyle
  2
Shaded
 70
    27
177
     3
291
     0
 70
    58
 90
        2
176
     1
 90
        2
176
     1
 90
        1
176
     1
 90
        2
176
     1
 40
0.6
176
     1
 40
30.0
176
     1
 62
     7
420
 16777215
176
     1
 90
        0
176
     1
 90
        4
176
     1
 62
     7
176
     1
 62
   257
176
     1
 90
        1
176
     1
 90
        1
176
     1
 40
1.0
176
     1
 90
        8
176
     1
 62
   257
176
     1
 40
1.0
176
     1
 90
        1
176
     1
 90
        6
176
     1
 90
        2
176
     1
 62
     8
420
  7895160
176
     1
 90
        3
176
     1
 90
        0
176
     1
 90
        0
176
     1
290
     0
176
     1
 90
        5
176
     1
 40
0.0
176
     1
 90
        0
176
     1
290
     0
176
     1
290
     1
176
     1
290
     1
176
     1
290
     0
176
     1
290
     0
176
     1
290
     0
176
     1
290
     0
176
     1
290
     0
176
     1
290
     0
176
     1
 90
       50
176
     1
 40
0.0
176
     1
 40
1.0
176
     1
 90
        0
176
     1
 62
    18
420
        0
176
     1
 90
       50
176
     1
 90
        3
176
     1
 62
     5
420
      255
176
     1
290
     0
176
     1
 90
       50
176
     1
 90
       50
176
     1
 90
       50
176
     1
290
     0
176
     1
 90
       50
176
     1
 62
   256
176
     0
 40
1.0
176
     0
 90
        2
176
     1
  1
strokes_ogs.tif
176
     1
290
     0
176
     1
 40
1.0
176
     1
 40
1.0
176
     1
  0
VISUALSTYLE
  5
1A9
102
{ACAD_REACTORS
330
192
102
}
330
192
100
AcDbVisualStyle
  2
Shaded with edges
 70
    26
177
     3
291
     0
 70
    58
 90
        2
176
     1
 90
        2
176
     1
 90
        1
176
     1
 90
        2
176
     1
 40
0.6
176
     1
 40
30.0
176
     1
 62
     7
420
 16777215
176
     1
 90
        1
176
     1
 90
       10
176
     1
 62
     7
176
     1
 62
   257
176
     1
 90
        2
176
     1
 90
        1
176
     1
 40
1.0
176
     1
 90
        8
176
     1
 62
   257
176
     1
 40
1.0
176
     1
 90
        1
176
     1
 90
        6
176
     1
 90
        2
176
     1
 62
     7
176
     1
 90
        3
176
     1
 90
        0
176
     1
 90
        0
176
     1
290
     0
176
     1
 90
        5
176
     1
 40
0.0
176
     1
 90
        0
176
     1
290
     0
176
     1
290
     1
176
     1
290
     1
176
     1
290
     0
176
     1
290
     0
176
     1
290
     0
176
     1
290
     0
176
     1
290
     0
176
     1
290
     0
176
     1
 90
       50
176
     1
 40
0.0
176
     1
 40
1.0
176
     1
 90
        0
176
     1
 62
    18
420
        0
176
     1
 90
       50
176
     1
 90
        3
176
     1
 62
     5
420
      255
176
     1
290
     0
176
     1
 90
       50
176
     1
 90
       50
176
     1
 90
       50
176
     1
290
     0
176
     1
 90
       50
176
     1
 62
   256
176
     0
 40
1.0
176
     0
 90
        2
176
     1
  1
strokes_ogs.tif
176
     1
290
     0
176
     1
 40
1.0
176
     1
 40
1.0
176
     1
  0
VISUALSTYLE
  5
1A6
102
{ACAD_REACTORS
330
192
102
}
330
192
100
AcDbVisualStyle
  2
Shades of Gray
 70
    23
177
     3
291
     0
 70
    58
 90
        2
176
     1
 90
        2
176
     1
 90
        3
176
     1
 90
        0
176
     1
 40
0.6
176
     1
 40
30.0
176
     1
 62
     7
420
 16777215
176
     1
 90
        2
176
     1
 90
        2
176
     1
 62
     7
176
     1
 62
     7
176
     1
 90
        1
176
     1
 90
        1
176
     1
 40
40.0
176
     1
 90
        8
176
     1
 62
     7
176
     1
 40
1.0
176
     1
 90
        1
176
     1
 90
        6
176
     1
 90
        2
176
     1
 62
     7
176
     1
 90
        3
176
     1
 90
        0
176
     1
 90
        0
176
     1
290
     0
176
     1
 90
        1
176
     1
 40
0.0
176
     1
 90
        0
176
     1
290
     0
176
     1
290
     1
176
     1
290
     1
176
     1
290
     0
176
     1
290
     0
176
     1
290
     0
176
     1
290
     0
176
     1
290
     0
176
     1
290
     0
176
     1
 90
       50
176
     1
 40
0.0
176
     1
 40
1.0
176
     1
 90
        0
176
     1
 62
    18
420
        0
176
     1
 90
       50
176
     1
 90
        3
176
     1
 62
     5
420
      255
176
     1
290
     0
176
     1
 90
       50
176
     1
 90
       50
176
     1
 90
       50
176
     1
290
     0
176
     1
 90
       50
176
     1
 62
   256
176
     0
 40
1.0
176
     0
 90
        2
176
     1
  1
strokes_ogs.tif
176
     1
290
     0
176
     1
 40
1.0
176
     1
 40
1.0
176
     1
  0
VISUALSTYLE
  5
1A7
102
{ACAD_REACTORS
330
192
102
}
330
192
100
AcDbVisualStyle
  2
Sketchy
 70
    24
177
     3
291
     0
 70
    58
 90
        1
176
     1
 90
        2
176
     1
 90
        2
176
     1
 90
        0
176
     1
 40
0.6
176
     1
 40
30.0
176
     1
 62
     7
420
 16777215
176
     1
 90
        2
176
     1
 90
        2
176
     1
 62
     7
176
     1
 62
     7
176
     1
 90
        1
176
     1
 90
        1
176
     1
 40
40.0
176
     1
 90
       11
176
     1
 62
     7
176
     1
 40
1.0
176
     1
 90
        1
176
     1
 90
        6
176
     1
 90
        2
176
     1
 62
     7
176
     1
 90
        6
176
     1
 90
        0
176
     1
 90
        0
176
     1
290
     0
176
     1
 90
        1
176
     1
 40
0.0
176
     1
 90
        0
176
     1
290
     0
176
     1
290
     1
176
     1
290
     1
176
     1
290
     0
176
     1
290
     0
176
     1
290
     0
176
     1
290
     0
176
     1
290
     0
176
     1
290
     0
176
     1
 90
       50
176
     1
 40
0.0
176
     1
 40
1.0
176
     1
 90
        0
176
     1
 62
    18
420
        0
176
     1
 90
       50
176
     1
 90
        3
176
     1
 62
     5
420
      255
176
     1
290
     0
176
     1
 90
       50
176
     1
 90
       50
176
     1
 90
       50
176
     1
290
     0
176
     1
 90
       50
176
     1
 62
   256
176
     0
 40
1.0
176
     0
 90
        2
176
     1
  1
strokes_ogs.tif
176
     1
290
     0
176
     1
 40
1.0
176
     1
 40
1.0
176
     1
  0
VISUALSTYLE
  5
19F
102
{ACAD_REACTORS
330
192
102
}
330
192
100
AcDbVisualStyle
  2
Thicken
 70
    13
177
     3
291
     1
 70
    58
 90
        2
176
     1
 90
        2
176
     1
 90
        0
176
     1
 90
        0
176
     1
 40
0.6
176
     1
 40
30.0
176
     1
 62
     7
420
 16777215
176
     1
 90
        1
176
     1
 90
        4
176
     1
 62
     7
176
     1
 62
   257
176
     1
 90
        1
176
     1
 90
        1
176
     1
 40
1.0
176
     1
 90
       12
176
     1
 62
     7
176
     1
 40
1.0
176
     1
 90
        1
176
     1
 90
        6
176
     1
 90
        2
176
     1
 62
     7
176
     1
 90
        5
176
     1
 90
        0
176
     1
 90
        0
176
     1
290
     0
176
     1
 90
        1
176
     1
 40
0.0
176
     1
 90
        0
176
     1
290
     0
176
     1
290
     1
176
     1
290
     1
176
     1
290
     0
176
     1
290
     0
176
     1
290
     0
176
     1
290
     0
176
     1
290
     0
176
     1
290
     0
176
     1
 90
       50
176
     1
 40
0.0
176
     1
 40
1.0
176
     1
 90
        0
176
     1
 62
    18
420
        0
176
     1
 90
       50
176
     1
 90
        3
176
     1
 62
     5
420
      255
176
     1
290
     0
176
     1
 90
       50
176
     1
 90
       50
176
     1
 90
       50
176
     1
290
     0
176
     1
 90
       50
176
     1
 62
   256
176
     0
 40
1.0
176
     0
 90
        2
176
     1
  1
strokes_ogs.tif
176
     1
290
     0
176
     1
 40
1.0
176
     1
 40
1.0
176
     1
  0
VISUALSTYLE
  5
198
102
{ACAD_REACTORS
330
192
102
}
330
192
100
AcDbVisualStyle
  2
Wireframe
 70
     5
177
     3
291
     0
 70
    58
 90
        0
176
     1
 90
        2
176
     1
 90
        0
176
     1
 90
        0
176
     1
 40
0.6
176
     1
 40
30.0
176
     1
 62
     7
420
 16777215
176
     1
 90
        1
176
     1
 90
        4
176
     1
 62
     7
176
     1
 62
   257
176
     1
 90
        1
176
     1
 90
        1
176
     1
 40
1.0
176
     1
 90
        0
176
     1
 62
   257
176
     1
 40
1.0
176
     1
 90
        1
176
     1
 90
        6
176
     1
 90
        2
176
     1
 62
     7
176
     1
 90
        3
176
     1
 90
        0
176
     1
 90
        0
176
     1
290
     0
176
     1
 90
        1
176
     1
 40
0.0
176
     1
 90
        0
176
     1
290
     0
176
     1
290
     1
176
     1
290
     1
176
     1
290
     0
176
     1
290
     0
176
     1
290
     0
176
     1
290
     0
176
     1
290
     0
176
     1
290
     0
176
     1
 90
       50
176
     1
 40
0.0
176
     1
 40
1.0
176
     1
 90
        0
176
     1
 62
    18
420
        0
176
     1
 90
       50
176
     1
 90
        3
176
     1
 62
     5
420
      255
176
     1
290
     0
176
     1
 90
       50
176
     1
 90
       50
176
     1
 90
       50
176
     1
290
     0
176
     1
 90
       50
176
     1
 62
   256
176
     0
 40
1.0
176
     0
 90
        2
176
     1
  1
strokes_ogs.tif
176
     1
290
     0
176
     1
 40
1.0
176
     1
 40
1.0
176
     1
  0
VISUALSTYLE
  5
1A8
102
{ACAD_REACTORS
330
192
102
}
330
192
100
AcDbVisualStyle
  2
X-Ray
 70
    25
177
     3
291
     0
 70
    58
 90
        2
176
     1
 90
        2
176
     1
 90
        1
176
     1
 90
        1
176
     1
 40
0.5
176
     1
 40
30.0
176
     1
 62
     7
420
 16777215
176
     1
 90
        1
176
     1
 90
        0
176
     1
 62
     7
176
     1
 62
   257
176
     1
 90
        1
176
     1
 90
        1
176
     1
 40
1.0
176
     1
 90
        8
176
     1
 62
     7
176
     1
 40
1.0
176
     1
 90
        1
176
     1
 90
        6
176
     1
 90
        2
176
     1
 62
     7
176
     1
 90
        3
176
     1
 90
        0
176
     1
 90
        0
176
     1
290
     0
176
     1
 90
       13
176
     1
 40
0.0
176
     1
 90
        0
176
     1
290
     0
176
     1
290
     1
176
     1
290
     1
176
     1
290
     0
176
     1
290
     0
176
     1
290
     0
176
     1
290
     0
176
     1
290
     0
176
     1
290
     0
176
     1
 90
       50
176
     1
 40
0.0
176
     1
 40
1.0
176
     1
 90
        0
176
     1
 62
    18
420
        0
176
     1
 90
       50
176
     1
 90
        3
176
     1
 62
     5
420
      255
176
     1
290
     0
176
     1
 90
       50
176
     1
 90
       50
176
     1
 90
       50
176
     1
290
     0
176
     1
 90
       50
176
     1
 62
   256
176
     0
 40
1.0
176
     0
 90
        2
176
     1
  1
strokes_ogs.tif
176
     1
290
     0
176
     1
 40
1.0
176
     1
 40
1.0
176
     1
  0
DICTIONARYVAR
  5
1C3
102
{ACAD_REACTORS
330
1C2
102
}
330
1C2
100
DictionaryVariables
280
     0
  1
0
  0
CSACDOCUMENTOPTIONS
  5
1B8
102
{ACAD_REACTORS
330
1B7
102
}
330
1B7
  0
XRECORD
  5
1BC
102
{ACAD_REACTORS
330
1B1
102
}
330
1B1
100
AcDbXrecord
280
     1
300
MC_VERSION_DATA
 90
       95
310
0600000002000000570000001C000000E404000000000000000000007801936764E5D8CFFA9993818115C460606066E0646662626666706006F218793899F8DE3171E725E6E53B3BBA2878E6951050AF75FEFFFFFF520036E40F2657000000
  0
XRECORD
  5
1B2
102
{ACAD_REACTORS
330
1B1
102
}
330
1B1
100
AcDbXrecord
280
     1
300
MCS_DOCUMENT_ID
 90
       60
310
0600000002000000150000001C000000E404000000000000000000007801E375F93AE1C022839D0EF3EB97F05E97BF5EFB1F0800769B0C7715000000
  0
XRECORD
  5
1BA
102
{ACAD_REACTORS
330
1B1
102
}
330
1B1
100
AcDbXrecord
280
     1
300
MCS_PARAMS_DATA
 90
     3313
310
0600000002000000F64B00001C000000E404000000000000000000007801C55C5B6C5CC519DE9D595FD6B9DF494B53970A1A6F4A58DF92A6426A1A1210527090E23EF0543976A2BA75E25CAC160A6DA92AF5A55255A96AD556551F4A49A0CF15A03EC0438190865E482021147221409310B6900B3826B1FB7F7366CEFC73E6
310
1CAFBDDE3D9B07D8FF3F73CEF7DFE6FB67E6ECBA757EA3143929F767A4FCCE8636299AA49C90529036BB402C105929F279912F89C6DEAF6FD8BC69AB14A46C51EAC2B9898909BA39945F872C1FCD848A834A91A13B1AD51D6D5266E8A9FAF627E9AABE92BD45CA6F03BD81A3CFC24D59D990C96408C7E066656E0232E13A03
310
14B0AB01724443F05CC3F08780DFC8F19B03FC710A073DC8486413411B49060E3311A05C24C45064703B01D7CCE196A818E5C59C9268B967CBD6DED68ED59DC52EEB78BEF08E09F8223D745649346F1DE9DB35D0B777C089FC5FC3C8EB60BF1A286CF47FE3467F17CC59C5CD990B0CD948C1A77FB9F5CA0E4F479188EA541E
310
3C25A2E22BC99C8892456878B2821857F6B05492C2AD881B41409C21325211340605C9C6DC6006EC49AC088A0CCBB25B1159B72248E415019155047D5453031360047082A7405D92B72AB0F03379693EAB50870260AC609E2C6F6510BB3D081DFE4EF5EFECD71494A7B3590EC7F12C5B25CB32539229914732934ECE22AF1D
310
D259AC8B7B7649E437DE7BDFA69EADF76EE95186E95A7ED74C032DBFA66A9BF1CEF341B19B78E45DDED9EF56FE29189043E4814BF734E1FF34659991678231F23A51010DA578E8294D435524988818E84710A7B2643B4F7C134F5CC6936D1E4176D01398C4D0A83AE0A6BDC86B0BB5C3E1E8299D70A5A945AC12322FE697C4
310
9C8DC3BBBE34D2BA77FBEEA1BEFEED79D15C120DF70F0FEE1A093EF60C8FF47F4BCAB3B0ED666EDB17F5733E2B445B5E2C298985C507BB8BEBBA3A3A3774178B1D777FA5B36B9D327BBE1ED84C030BC74C9EDAB5B64D88BC405AEF1E1CD9D73A34B88F70838775AD5DDBD1B9B6BBABBB73A0ABA37F5D7BE0E757F57D1DB80F
310
037BFBB60D6D6F1DDED1DA3B3CB47D6FDF2EF8A0AD5933506CEF2FF6F7ADD9D6B56D5DFF9A60D6A95222FF670B51F8295953F8455019945B7EE9315C7A8AFEC352DE9D4B4A5050256AA6D1B42D5F0C265BEED4473538E9811F770DEFDCDD3732B86D706870E4A1D69DC303E45F6349C807B6EFCB8B8692103DC352AE816545
310
9E9E798813B5E9A692C86DD9B1A355A5424F8E0BF018466AF90D150136590E2905AA568F782650907D5A7180140B84AD0159F8156902B8F63BDA8BE1A72E29AF48322EA98B5F578631B6F5489B26184C63434803DB221A328E6B58DEAED6DB808FEB6DC068BD0DF8A4DE065CABB7018B3045EB390B3EAD7704C6EA6DC07518
310
10B79C17773A0DB6C361F03BDD064B22C8C7303844629E5064B47323116EB9039777E096BB70247238880C6E39831B9F221C81B3E543C57019D4736C30574EE2DD4AD73B12B9771099772B997713E97A974DF4CECD5D9582B938116EC00926492C777A7F676A8F441E4C882C98032C983211AE26DE8974E196022EC7174366
310
F9AE62C95769E105B5C4B012E2E82ED8CD3516C5E34D519CF0D1F6765A8551C6CC0505130A3E8ABEC46EF81CED54DC1DA04AB7BC4DB0CA082453194AB29B82400C2B438BA6322032B88FE093B3E13470C11297490C8EEF78E88158D51A8AD42283A38F61044E78707A57F8BBDFE2DF2167F36975041D1DA7FCF59430C35792
310
05112533A905D5D3CAAB4759DBB4CA160F3E9309466F934A1794E7E1154C402D3088858048DCDF7EA3E7FECD5B7A7B376D5480CBF43A7E5E49CCBE6BEB37D945B2402FC65F52AB73B67E7F3A58AE93F37A04F6B7011D680556EBCCA2819BC8A21C320F385BBDB4EE56E6E32CE2CB18E358AD7676B4C7C096B1674BAF7B1278
310
1E906198B0DF8681EA696AF34D20563061CAB731C0DB01185B8B0DCA46538BD880EB0E2C6FC3120B40E62289BC162112587895C11513E18290E892090EBF46A9321968C513E0BB89A0AE8F2431B88A7DFC9E07A7BD0A8E668E3AF3CDEA083A3A8ECFB770A00AB53712018F2859D8DB3D93C2E4D422CB77A40BB73A5DB807A7
310
0857A5727AC8838BE45965D0D3D5B29CBEEF99145F4E558AC0C3E9C23D922EDC0FD285FBA107E7958EEDE721E98018A3E3AAC64E7F5C166D7ABA81B65C437BB31D766C74A6ED6E1FBC2766B7AFDAD87156F9771BF44A2A724C461AB43EE729AAFB710D63E2111810BBA3ABC9AE6037E09AB9BF3AB40BE8309F8736AB64CAB2
310
BE7E3364E5AC569CA6976081AF5A311628A8EF68C5B3A4609E3E86AC3AA156E3E83562F4B5A292099A878C61EB3B549CF92354989982613F016CE7AD5A4D09AA1F5126387AAD451EE384D9C035A925859E39C1AA865EE9A9B8DA21CEE289167F7CF1D4C4BC7A125EC5AED5D8BB0B5A9D9144D134CFA71BF85A8D44BE568348
310
F6AA55A2F3CAEACF6982FD29118CC249D3CBF852A586F278BA70FBD3853B90085793EDE51E143F0AD06C6B4CB2242BDDBDD1419166C2865E85F9CE1648F3CBF54B2E655D5432557AB8C599EEE6E763403914E55050D879E2BFFA30F366F009F0CB378371CA9B99D05949929DD07465EA8797A3808B6B06B9536E64AF9C844C
310
903AF2F3709D3783A318A078E4F37AEBBCEC2DD1B228B722F785DC2DB9D64C476675A63353CC74E937B1FA39BFA7DB58A6AFC19E49583A4A9B6110A6BA038D3C80418F79D091B18A763C1D8524AA5361F194EC4CC4B23EDBA3192533E95398E41423EB6DCA1C239B4DBF91D13F6D762A6897D7013D496371DC8BECCAA7D45E
310
0C251095ABC98AA38E1B6540CD3DACF829EF15C38D27C2B92DA64A071D13897001094F16523EC1C9E5A99FF465029665AB5B13C49AF8984D174EA40B273D389D33BB29A272F6749622C2719C22AC925104534E7A8CF33714555C6B3CF3BE4BE0AF28994CA9B8353E0F28878DD26D8D2F007FBAAD11BD305CEB4EAB35BE08B8
310
B8D678FEB81BD9134AB6ADF10A644BBEF9C2334A81E4EAA6772450D87DD2AF49C178F020A0EBD3055FF292CC5B8AB3FC4114C86BA708ACDB15F49C43C04EBBE7FCBD0CA8A1CB2AF59CC3897035E1E39713E16AD873FE91085A131FFF19C04DBEDBF8D75406FD3B3A2842E56C8ABE82A171BC3BF89ECB0E0F287926BC7B0450
310
75E4DDA3C09F2EEF56BE2579157071BCBBE7881BD93E255BDE7D04B225A07C61BD5230DE1DBA8C1158736B225E412358525F03747D78F79897E472BCCBAF5BAF2BA0DDE3804E9B765F2F035A65DA3D910857134A7A2311AE52DA8D6E0E9C1341735A873DD47F12A16BE2E99BE9C275792B70532835F1AEDB838B7404B509F7
310
74C449519D9AA19EB28205FF5B08785CE3F9307262735AC933693C270155C7C6730AF8E9359ED3808B6B3CA387DDC6734EC9B6F1C897238DE72006D89713F9C2E58B91C6F3388D608DE70CA0A7DA7866D30F8008DC16BEAA2D26A2AAB848F4108A0CF46D0F54D7A73989E2C56D75B6B8431D2F6EAB64C5CD94644C04869974
310
1626C5B6A280378D1BEE62BCE2C3917700E714386FAA719B1D7E7D464DF7DD444F8317374E8CAA75BEF65E19D0F8F0523EC21D7470DCC60B8CAEF29753FC38EF4760CFDBF99B4673F680D0869F6742513F06849341B61DF57EE3400A02734628D75C0DBC8B68A868B98655ECA330208EA3C6F1B52E3DF1E8849E2433679564
310
431A886148B568E62C4406F75F64308EFD2F9D7039EA6D259B5B2BF91AD8396F72B01004EFC5CD6C88F911E8CCDF849C077E5C64E9488747967101058B73015D99FA9B900B808B63FFB117DCC85E50324556799F2F34BC086EC70CD18A4318C0D9FF2AB6807CDB718046B0A4BE0FE8B4D9FFA207EA504E3D7E65FA014C7226
310
B329B0E8D703AAFEBAA304E869379E693123CD68457958A4FF2F11AE86ECFF6119D078F6E7138AD87FF2370F86D6E1E34789702D76FED2134932CCA824CB8C811832A3160D33426421BD940847AF6F0C11D33DEECB1CFE9B7175D1F926045DE5BD8DBFBDBE9C081764D0049324E6DDB40A8607F34A225C4D16463974B5B836
310
F3B3A32E193EACE499B49986C93A780A6DA631A981D7A6CD34012EAECDFCF23937B23F51B26D337F80CCDBCC36A5C0ECD07DE7E7A7236D663D8D6033A419D0536D33E07F56B8C4CA7C0D48229F9610695A461A0883CE7B494E8DD95B004DF38E8247AB09FE45AC1A52EDAC32A0861DD8DA85D8A76276989D08579353913989
310
700119397510D9BB4CAB9DF096393711B4263ECE4B176E7EBA700B3C389DB3F0B5335AA6A7234288EA142D784A9083AFB414616018456CF64C3293C4CD2F49D3E5A5F0410CEE3E0F2E6A6FEA11580893E29AEE529C2FC11C4DF48D4AA628982DB44A422820F8563073C8F989CF2240392BED74F7768B819FDEDE6E09E0E29A
310
EE0AFA030B3CB273954C91D5916E83CC9BEE074FAB1E6B73B11CFB6CBEB73B4C23589D2D05F4CC9AAE2E4C768646F0614DBB4BD40606BDCC4B726A4DF72640A7DD749797013521AB4ED3C5971C1BF2225712D922FD192CAA82F186C253F467B664EED8B163100EA1787299890C1D4314EEF90B040C236113FD72905624B8F0
310
99FF03A92412CEF64B0000
  0
DICTIONARY
  5
1BE
330
1B6
100
AcDbDictionary
280
     1
281
     1
  3
ACAD_ROUNDTRIP_2008_TABLESTYLE_CELLSTYLEMAP
360
1BF
  0
CELLSTYLEMAP
  5
1BF
102
{ACAD_REACTORS
330
1BE
102
}
330
1BE
100
AcDbCellStyleMap
 90
        3
300
CELLSTYLE
  1
TABLEFORMAT_BEGIN
 90
        5
170
     1
 91
        0
 92
        0
 62
   257
 93
        1
300
CONTENTFORMAT
  1
CONTENTFORMAT_BEGIN
 90
        0
 91
        0
 92
        4
 93
        0
300

 40
0.0
140
1.0
 94
        5
 62
     0
340
11
144
6.0
309
CONTENTFORMAT_END
171
     1
301
MARGIN
  1
CELLMARGIN_BEGIN
 40
1.5
 40
1.5
 40
1.5
 40
1.5
 40
4.5
 40
4.5
309
CELLMARGIN_END
 94
        6
 95
        1
302
GRIDFORMAT
  1
GRIDFORMAT_BEGIN
 90
        0
 91
        1
 62
     0
 92
       -2
340
14
 93
        0
 40
1.125
309
GRIDFORMAT_END
 95
        2
302
GRIDFORMAT
  1
GRIDFORMAT_BEGIN
 90
        0
 91
        1
 62
     0
 92
       -2
340
14
 93
        0
 40
1.125
309
GRIDFORMAT_END
 95
        4
302
GRIDFORMAT
  1
GRIDFORMAT_BEGIN
 90
        0
 91
        1
 62
     0
 92
       -2
340
14
 93
        0
 40
1.125
309
GRIDFORMAT_END
 95
        8
302
GRIDFORMAT
  1
GRIDFORMAT_BEGIN
 90
        0
 91
        1
 62
     0
 92
       -2
340
14
 93
        0
 40
1.125
309
GRIDFORMAT_END
 95
       16
302
GRIDFORMAT
  1
GRIDFORMAT_BEGIN
 90
        0
 91
        1
 62
     0
 92
       -2
340
14
 93
        0
 40
1.125
309
GRIDFORMAT_END
 95
       32
302
GRIDFORMAT
  1
GRIDFORMAT_BEGIN
 90
        0
 91
        1
 62
     0
 92
       -2
340
14
 93
        0
 40
1.125
309
GRIDFORMAT_END
309
TABLEFORMAT_END
  1
CELLSTYLE_BEGIN
 90
        1
 91
        1
300
_TITLE
309
CELLSTYLE_END
300
CELLSTYLE
  1
TABLEFORMAT_BEGIN
 90
        5
170
     1
 91
        0
 92
        0
 62
   257
 93
        1
300
CONTENTFORMAT
  1
CONTENTFORMAT_BEGIN
 90
        0
 91
        0
 92
        4
 93
        0
300

 40
0.0
140
1.0
 94
        5
 62
     0
340
11
144
4.5
309
CONTENTFORMAT_END
171
     1
301
MARGIN
  1
CELLMARGIN_BEGIN
 40
1.5
 40
1.5
 40
1.5
 40
1.5
 40
4.5
 40
4.5
309
CELLMARGIN_END
 94
        6
 95
        1
302
GRIDFORMAT
  1
GRIDFORMAT_BEGIN
 90
        0
 91
        1
 62
     0
 92
       -2
340
14
 93
        0
 40
1.125
309
GRIDFORMAT_END
 95
        2
302
GRIDFORMAT
  1
GRIDFORMAT_BEGIN
 90
        0
 91
        1
 62
     0
 92
       -2
340
14
 93
        0
 40
1.125
309
GRIDFORMAT_END
 95
        4
302
GRIDFORMAT
  1
GRIDFORMAT_BEGIN
 90
        0
 91
        1
 62
     0
 92
       -2
340
14
 93
        0
 40
1.125
309
GRIDFORMAT_END
 95
        8
302
GRIDFORMAT
  1
GRIDFORMAT_BEGIN
 90
        0
 91
        1
 62
     0
 92
       -2
340
14
 93
        0
 40
1.125
309
GRIDFORMAT_END
 95
       16
302
GRIDFORMAT
  1
GRIDFORMAT_BEGIN
 90
        0
 91
        1
 62
     0
 92
       -2
340
14
 93
        0
 40
1.125
309
GRIDFORMAT_END
 95
       32
302
GRIDFORMAT
  1
GRIDFORMAT_BEGIN
 90
        0
 91
        1
 62
     0
 92
       -2
340
14
 93
        0
 40
1.125
309
GRIDFORMAT_END
309
TABLEFORMAT_END
  1
CELLSTYLE_BEGIN
 90
        2
 91
        1
300
_HEADER
309
CELLSTYLE_END
300
CELLSTYLE
  1
TABLEFORMAT_BEGIN
 90
        5
170
     1
 91
        0
 92
        0
 62
   257
 93
        1
300
CONTENTFORMAT
  1
CONTENTFORMAT_BEGIN
 90
        0
 91
        0
 92
        4
 93
        0
300

 40
0.0
140
1.0
 94
        2
 62
     0
340
11
144
4.5
309
CONTENTFORMAT_END
171
     1
301
MARGIN
  1
CELLMARGIN_BEGIN
 40
1.5
 40
1.5
 40
1.5
 40
1.5
 40
4.5
 40
4.5
309
CELLMARGIN_END
 94
        6
 95
        1
302
GRIDFORMAT
  1
GRIDFORMAT_BEGIN
 90
        0
 91
        1
 62
     0
 92
       -2
340
14
 93
        0
 40
1.125
309
GRIDFORMAT_END
 95
        2
302
GRIDFORMAT
  1
GRIDFORMAT_BEGIN
 90
        0
 91
        1
 62
     0
 92
       -2
340
14
 93
        0
 40
1.125
309
GRIDFORMAT_END
 95
        4
302
GRIDFORMAT
  1
GRIDFORMAT_BEGIN
 90
        0
 91
        1
 62
     0
 92
       -2
340
14
 93
        0
 40
1.125
309
GRIDFORMAT_END
 95
        8
302
GRIDFORMAT
  1
GRIDFORMAT_BEGIN
 90
        0
 91
        1
 62
     0
 92
       -2
340
14
 93
        0
 40
1.125
309
GRIDFORMAT_END
 95
       16
302
GRIDFORMAT
  1
GRIDFORMAT_BEGIN
 90
        0
 91
        1
 62
     0
 92
       -2
340
14
 93
        0
 40
1.125
309
GRIDFORMAT_END
 95
       32
302
GRIDFORMAT
  1
GRIDFORMAT_BEGIN
 90
        0
 91
        1
 62
     0
 92
       -2
340
14
 93
        0
 40
1.125
309
GRIDFORMAT_END
309
TABLEFORMAT_END
  1
CELLSTYLE_BEGIN
 90
        3
 91
        2
300
_DATA
309
CELLSTYLE_END
  0
ENDSEC
  0
EOF
