  0
SECTION
  2
HEADER
  9
$ACADVER
  1
AC1027
  9
$ACADMAINTVER
 70
     8
  9
$DWGCODEPAGE
  3
ANSI_1252
  9
$REQUIREDVERSIONS
160
                 0
  9
$LASTSAVEDBY
  1
maika.huard
  9
$INSBASE
 10
0.0
 20
0.0
 30
0.0
  9
$EXTMIN
 10
0.0
 20
0.0
 30
0.0
  9
$EXTMAX
 10
279.4
 20
215.9
 30
0.0
  9
$LIMMIN
 10
0.0
 20
0.0
  9
$LIMMAX
 10
279.4
 20
215.9
  9
$ORTHOMODE
 70
     0
  9
$REGENMODE
 70
     1
  9
$FILLMODE
 70
     1
  9
$QTEXTMODE
 70
     0
  9
$MIRRTEXT
 70
     1
  9
$LTSCALE
 40
1.0
  9
$ATTMODE
 70
     1
  9
$TEXTSIZE
 40
3.175
  9
$TRACEWID
 40
1.0
  9
$TEXTSTYLE
  7
Standard
  9
$CLAYER
  8
0
  9
$CELTYPE
  6
ByLayer
  9
$CECOLOR
 62
   256
  9
$CELTSCALE
 40
1.0
  9
$DISPSILH
 70
     0
  9
$DIMSCALE
 40
1.0
  9
$DIMASZ
 40
3.302
  9
$DIMEXO
 40
1.27
  9
$DIMDLI
 40
3.75
  9
$DIMRND
 40
0.0
  9
$DIMDLE
 40
0.0
  9
$DIMEXE
 40
1.0
  9
$DIMTP
 40
0.0
  9
$DIMTM
 40
0.0
  9
$DIMTXT
 40
3.175
  9
$DIMCEN
 40
2.5
  9
$DIMTSZ
 40
0.0
  9
$DIMTOL
 70
     0
  9
$DIMLIM
 70
     0
  9
$DIMTIH
 70
     1
  9
$DIMTOH
 70
     1
  9
$DIMSE1
 70
     0
  9
$DIMSE2
 70
     0
  9
$DIMTAD
 70
     0
  9
$DIMZIN
 70
     0
  9
$DIMBLK
  1

  9
$DIMASO
 70
     1
  9
$DIMSHO
 70
     1
  9
$DIMPOST
  1

  9
$DIMAPOST
  1

  9
$DIMALT
 70
     0
  9
$DIMALTD
 70
     3
  9
$DIMALTF
 40
0.03937
  9
$DIMLFAC
 40
24.0
  9
$DIMTOFL
 70
     1
  9
$DIMTVP
 40
0.0
  9
$DIMTIX
 70
     0
  9
$DIMSOXD
 70
     0
  9
$DIMSAH
 70
     0
  9
$DIMBLK1
  1

  9
$DIMBLK2
  1

  9
$DIMSTYLE
  2
ISO-25
  9
$DIMCLRD
 70
     0
  9
$DIMCLRE
 70
     0
  9
$DIMCLRT
 70
     0
  9
$DIMTFAC
 40
1.0
  9
$DIMGAP
 40
1.524
  9
$DIMJUST
 70
     0
  9
$DIMSD1
 70
     0
  9
$DIMSD2
 70
     0
  9
$DIMTOLJ
 70
     0
  9
$DIMTZIN
 70
     0
  9
$DIMALTZ
 70
     0
  9
$DIMALTTZ
 70
     0
  9
$DIMUPT
 70
     0
  9
$DIMDEC
 70
     0
  9
$DIMTDEC
 70
     0
  9
$DIMALTU
 70
     2
  9
$DIMALTTD
 70
     3
  9
$DIMTXSTY
  7
Standard
  9
$DIMAUNIT
 70
     0
  9
$DIMADEC
 70
     1
  9
$DIMALTRND
 40
0.0
  9
$DIMAZIN
 70
     0
  9
$DIMDSEP
 70
    44
  9
$DIMATFIT
 70
     3
  9
$DIMFRAC
 70
     0
  9
$DIMLDRBLK
  1

  9
$DIMLUNIT
 70
     2
  9
$DIMLWD
 70
    -2
  9
$DIMLWE
 70
    -2
  9
$DIMTMOVE
 70
     0
  9
$DIMFXL
 40
1.0
  9
$DIMFXLON
 70
     0
  9
$DIMJOGANG
 40
0.785398
  9
$DIMTFILL
 70
     0
  9
$DIMTFILLCLR
 70
     0
  9
$DIMARCSYM
 70
     0
  9
$DIMLTYPE
  6

  9
$DIMLTEX1
  6

  9
$DIMLTEX2
  6

  9
$DIMTXTDIRECTION
 70
     0
  9
$LUNITS
 70
     2
  9
$LUPREC
 70
     0
  9
$SKETCHINC
 40
1.0
  9
$FILLETRAD
 40
0.0
  9
$AUNITS
 70
     0
  9
$AUPREC
 70
     1
  9
$MENU
  1
.
  9
$ELEVATION
 40
0.0
  9
$PELEVATION
 40
0.0
  9
$THICKNESS
 40
0.0
  9
$LIMCHECK
 70
     0
  9
$CHAMFERA
 40
0.0
  9
$CHAMFERB
 40
0.0
  9
$CHAMFERC
 40
0.0
  9
$CHAMFERD
 40
0.0
  9
$SKPOLY
 70
     0
  9
$TDCREATE
 40
2460516.427795799
  9
$TDUCREATE
 40
2460516.594462465
  9
$TDUPDATE
 40
2460521.384011759
  9
$TDUUPDATE
 40
2460521.550678426
  9
$TDINDWG
 40
0.0000000116
  9
$TDUSRTIMER
 40
0.0000000116
  9
$USRTIMER
 70
     1
  9
$ANGBASE
 50
0.0
  9
$ANGDIR
 70
     0
  9
$PDMODE
 70
     0
  9
$PDSIZE
 40
-1.0
  9
$PLINEWID
 40
0.0
  9
$SPLFRAME
 70
     0
  9
$SPLINETYPE
 70
     6
  9
$SPLINESEGS
 70
     8
  9
$HANDSEED
  5
1C3
  9
$SURFTAB1
 70
     6
  9
$SURFTAB2
 70
     6
  9
$SURFTYPE
 70
     6
  9
$SURFU
 70
     6
  9
$SURFV
 70
     6
  9
$UCSBASE
  2

  9
$UCSNAME
  2

  9
$UCSORG
 10
0.0
 20
0.0
 30
0.0
  9
$UCSXDIR
 10
1.0
 20
0.0
 30
0.0
  9
$UCSYDIR
 10
0.0
 20
1.0
 30
0.0
  9
$UCSORTHOREF
  2

  9
$UCSORTHOVIEW
 70
     0
  9
$UCSORGTOP
 10
0.0
 20
0.0
 30
0.0
  9
$UCSORGBOTTOM
 10
0.0
 20
0.0
 30
0.0
  9
$UCSORGLEFT
 10
0.0
 20
0.0
 30
0.0
  9
$UCSORGRIGHT
 10
0.0
 20
0.0
 30
0.0
  9
$UCSORGFRONT
 10
0.0
 20
0.0
 30
0.0
  9
$UCSORGBACK
 10
0.0
 20
0.0
 30
0.0
  9
$PUCSBASE
  2

  9
$PUCSNAME
  2

  9
$PUCSORG
 10
0.0
 20
0.0
 30
0.0
  9
$PUCSXDIR
 10
1.0
 20
0.0
 30
0.0
  9
$PUCSYDIR
 10
0.0
 20
1.0
 30
0.0
  9
$PUCSORTHOREF
  2

  9
$PUCSORTHOVIEW
 70
     0
  9
$PUCSORGTOP
 10
0.0
 20
0.0
 30
0.0
  9
$PUCSORGBOTTOM
 10
0.0
 20
0.0
 30
0.0
  9
$PUCSORGLEFT
 10
0.0
 20
0.0
 30
0.0
  9
$PUCSORGRIGHT
 10
0.0
 20
0.0
 30
0.0
  9
$PUCSORGFRONT
 10
0.0
 20
0.0
 30
0.0
  9
$PUCSORGBACK
 10
0.0
 20
0.0
 30
0.0
  9
$USERI1
 70
     0
  9
$USERI2
 70
     0
  9
$USERI3
 70
     0
  9
$USERI4
 70
     0
  9
$USERI5
 70
     0
  9
$USERR1
 40
0.0
  9
$USERR2
 40
0.0
  9
$USERR3
 40
0.0
  9
$USERR4
 40
0.0
  9
$USERR5
 40
0.0
  9
$WORLDVIEW
 70
     1
  9
$SHADEDGE
 70
     3
  9
$SHADEDIF
 70
    70
  9
$TILEMODE
 70
     1
  9
$MAXACTVP
 70
    64
  9
$PINSBASE
 10
0.0
 20
0.0
 30
0.0
  9
$PLIMCHECK
 70
     0
  9
$PEXTMIN
 10
1.000000E+20
 20
1.000000E+20
 30
1.000000E+20
  9
$PEXTMAX
 10
-1.000000E+20
 20
-1.000000E+20
 30
-1.000000E+20
  9
$PLIMMIN
 10
0.0
 20
0.0
  9
$PLIMMAX
 10
420.0
 20
297.0
  9
$UNITMODE
 70
     0
  9
$VISRETAIN
 70
     1
  9
$PLINEGEN
 70
     0
  9
$PSLTSCALE
 70
     0
  9
$TREEDEPTH
 70
  3020
  9
$CMLSTYLE
  2
Standard
  9
$CMLJUST
 70
     0
  9
$CMLSCALE
 40
20.0
  9
$PROXYGRAPHICS
 70
     1
  9
$MEASUREMENT
 70
     1
  9
$CELWEIGHT
370
    -1
  9
$ENDCAPS
280
     0
  9
$JOINSTYLE
280
     0
  9
$LWDISPLAY
290
     1
  9
$INSUNITS
 70
     4
  9
$HYPERLINKBASE
  1

  9
$STYLESHEET
  1

  9
$XEDIT
290
     1
  9
$CEPSNTYPE
380
     0
  9
$PSTYLEMODE
290
     1
  9
$FINGERPRINTGUID
  2
{aa8d5caa-61a7-47bf-b928-f2b6d1c5dd7b}
  9
$VERSIONGUID
  2
{FAEB1C32-E019-11D5-929B-00C0DF256EC4}
  9
$EXTNAMES
290
     1
  9
$PSVPSCALE
 40
0.0
  9
$OLESTARTUP
290
     0
  9
$SORTENTS
280
   127
  9
$INDEXCTL
280
     0
  9
$HIDETEXT
280
     1
  9
$XCLIPFRAME
280
     2
  9
$HALOGAP
280
     0
  9
$OBSCOLOR
 70
   257
  9
$OBSLTYPE
280
     0
  9
$INTERSECTIONDISPLAY
280
     0
  9
$INTERSECTIONCOLOR
 70
   257
  9
$DIMASSOC
280
     2
  9
$PROJECTNAME
  1

  9
$CAMERADISPLAY
290
     0
  9
$LENSLENGTH
 40
50.0
  9
$CAMERAHEIGHT
 40
0.0
  9
$STEPSPERSEC
 40
2.0
  9
$STEPSIZE
 40
6.0
  9
$3DDWFPREC
 40
2.0
  9
$PSOLWIDTH
 40
0.25
  9
$PSOLHEIGHT
 40
4.0
  9
$LOFTANG1
 40
1.570796
  9
$LOFTANG2
 40
1.570796
  9
$LOFTMAG1
 40
0.0
  9
$LOFTMAG2
 40
0.0
  9
$LOFTPARAM
 70
     7
  9
$LOFTNORMALS
280
     1
  9
$LATITUDE
 40
37.795
  9
$LONGITUDE
 40
-122.394
  9
$NORTHDIRECTION
 40
0.0
  9
$TIMEZONE
 70
 -8000
  9
$LIGHTGLYPHDISPLAY
280
     1
  9
$TILEMODELIGHTSYNCH
280
     1
  9
$SOLIDHIST
280
     1
  9
$SHOWHIST
280
     1
  9
$DWFFRAME
280
     2
  9
$DGNFRAME
280
     2
  9
$REALWORLDSCALE
290
     1
  9
$INTERFERECOLOR
 62
   256
  9
$CSHADOW
280
     0
  9
$SHADOWPLANELOCATION
 40
0.0
  0
ENDSEC
  0
SECTION
  2
CLASSES
  0
CLASS
  1
ACDBDICTIONARYWDFLT
  2
AcDbDictionaryWithDefault
  3
ObjectDBX Classes
 90
        0
 91
        6
280
     0
281
     0
  0
CLASS
  1
VISUALSTYLE
  2
AcDbVisualStyle
  3
ObjectDBX Classes
 90
     4095
 91
        5
280
     0
281
     0
  0
CLASS
  1
MATERIAL
  2
AcDbMaterial
  3
ObjectDBX Classes
 90
     1153
 91
        5
280
     0
281
     0
  0
CLASS
  1
SCALE
  2
AcDbScale
  3
ObjectDBX Classes
 90
     1153
 91
        5
280
     0
281
     0
  0
CLASS
  1
TABLESTYLE
  2
AcDbTableStyle
  3
ObjectDBX Classes
 90
     4095
 91
        5
280
     0
281
     0
  0
CLASS
  1
MLEADERSTYLE
  2
AcDbMLeaderStyle
  3
ACDB_MLEADERSTYLE_CLASS
 90
     4095
 91
        4
280
     0
281
     0
  0
CLASS
  1
SUN
  2
AcDbSun
  3
SCENEOE
 90
     1153
 91
        5
280
     0
281
     0
  0
CLASS
  1
ACDBPLACEHOLDER
  2
AcDbPlaceHolder
  3
ObjectDBX Classes
 90
        0
 91
        1
280
     0
281
     0
  0
CLASS
  1
LAYOUT
  2
AcDbLayout
  3
ObjectDBX Classes
 90
        0
 91
        1
280
     0
281
     0
  0
CLASS
  1
CSACDOCUMENTOPTIONS
  2
CDocDataContainer
  3
"DERU003_CSAPP"
 90
     4095
 91
        4
280
     0
281
     0
  0
CLASS
  1
CELLSTYLEMAP
  2
AcDbCellStyleMap
  3
ObjectDBX Classes
 90
     1152
 91
        4
280
     0
281
     0
  0
CLASS
  1
DICTIONARYVAR
  2
AcDbDictionaryVar
  3
ObjectDBX Classes
 90
        0
 91
        4
280
     0
281
     0
  0
ENDSEC
  0
SECTION
  2
TABLES
  0
TABLE
  2
VPORT
  5
8
330
0
100
AcDbSymbolTable
 70
     1
  0
VPORT
  5
29
330
8
100
AcDbSymbolTableRecord
100
AcDbViewportTableRecord
  2
*Active
 70
     0
 10
0.0
 20
0.0
 11
1.0
 21
1.0
 12
80.793274
 22
120.416307
 13
0.0
 23
0.0
 14
10.0
 24
10.0
 15
10.0
 25
10.0
 16
0.0
 26
0.0
 36
1.0
 17
0.0
 27
0.0
 37
0.0
 40
323.85
 41
2.019036
 42
50.0
 43
0.0
 44
0.0
 50
0.0
 51
0.0
 71
    16
 72
  2000
 73
     1
 74
     3
 75
     0
 76
     0
 77
     0
 78
     0
281
     0
 65
     1
110
0.0
120
0.0
130
0.0
111
1.0
121
0.0
131
0.0
112
0.0
122
1.0
132
0.0
 79
     0
146
0.0
 60
     3
 61
     5
292
     1
282
     1
141
0.0
142
0.0
 63
   256
361
1B1
  0
ENDTAB
  0
TABLE
  2
LTYPE
  5
5
330
0
100
AcDbSymbolTable
 70
     6
  0
LTYPE
  5
14
330
5
100
AcDbSymbolTableRecord
100
AcDbLinetypeTableRecord
  2
ByBlock
 70
     0
  3

 72
    65
 73
     0
 40
0.0
  0
LTYPE
  5
15
330
5
100
AcDbSymbolTableRecord
100
AcDbLinetypeTableRecord
  2
ByLayer
 70
     0
  3

 72
    65
 73
     0
 40
0.0
  0
LTYPE
  5
16
330
5
100
AcDbSymbolTableRecord
100
AcDbLinetypeTableRecord
  2
Continuous
 70
     0
  3
Solid line
 72
    65
 73
     0
 40
0.0
  0
LTYPE
  5
5E
330
5
100
AcDbSymbolTableRecord
100
AcDbLinetypeTableRecord
  2
HIDDEN
 70
     0
  3
Hidden __ __ __ __ __ __ __ __ __ __ __ __ __ __
 72
    65
 73
     2
 40
1.905
 49
1.27
 74
     0
 49
-0.635
 74
     0
  0
LTYPE
  5
5F
330
5
100
AcDbSymbolTableRecord
100
AcDbLinetypeTableRecord
  2
PHANTOM
 70
     0
  3
Phantom ______  __  __  ______  __  __  ______
 72
    65
 73
     6
 40
12.7
 49
6.35
 74
     0
 49
-1.27
 74
     0
 49
1.27
 74
     0
 49
-1.27
 74
     0
 49
1.27
 74
     0
 49
-1.27
 74
     0
  0
LTYPE
  5
60
330
5
100
AcDbSymbolTableRecord
100
AcDbLinetypeTableRecord
  2
CENTER
 70
     0
  3
Center ____ _ ____ _ ____ _ ____ _ ____ _ ____
 72
    65
 73
     4
 40
10.16
 49
6.35
 74
     0
 49
-1.27
 74
     0
 49
1.27
 74
     0
 49
-1.27
 74
     0
  0
LTYPE
  5
61
330
5
100
AcDbSymbolTableRecord
100
AcDbLinetypeTableRecord
  2
CENTERX2
 70
     0
  3
Center (2x) ________  __  ________  __  _____
 72
    65
 73
     4
 40
20.32
 49
12.7
 74
     0
 49
-2.54
 74
     0
 49
2.54
 74
     0
 49
-2.54
 74
     0
  0
LTYPE
  5
62
330
5
100
AcDbSymbolTableRecord
100
AcDbLinetypeTableRecord
  2
DOT2
 70
     0
  3
Dot (.5x) ........................................
 72
    65
 73
     2
 40
0.635
 49
0.0
 74
     0
 49
-0.635
 74
     0
  0
ENDTAB
  0
TABLE
  2
LAYER
  5
2
330
0
100
AcDbSymbolTable
 70
     2
  0
LAYER
  5
10
330
2
100
AcDbSymbolTableRecord
100
AcDbLayerTableRecord
  2
0
 70
     0
 62
     7
  6
Continuous
370
    -3
390
F
347
1AB
348
0
  0
LAYER
  5
63
330
2
100
AcDbSymbolTableRecord
100
AcDbLayerTableRecord
  2
FORMAT
 70
     0
 62
     7
  6
Continuous
370
    -3
390
F
347
1AB
348
0
  0
ENDTAB
  0
TABLE
  2
STYLE
  5
3
330
0
100
AcDbSymbolTable
 70
     4
  0
STYLE
  5
11
330
3
100
AcDbSymbolTableRecord
100
AcDbTextStyleTableRecord
  2
Standard
 70
     0
 40
0.0
 41
1.0
 50
0.0
 71
     0
 42
3.175
  3
txt
  4

  0
STYLE
  5
87
330
3
100
AcDbSymbolTableRecord
100
AcDbTextStyleTableRecord
  2
SLDTEXTSTYLE0
 70
     0
 40
0.0
 41
0.605
 50
0.0
 71
     0
 42
3.175
  3
TXT
  4

  0
STYLE
  5
99
330
3
100
AcDbSymbolTableRecord
100
AcDbTextStyleTableRecord
  2
SLDTEXTSTYLE1
 70
     0
 40
0.0
 41
0.75
 50
0.0
 71
     0
 42
3.175
  3
TXT
  4

  0
STYLE
  5
A7
330
3
100
AcDbSymbolTableRecord
100
AcDbTextStyleTableRecord
  2
SLDTEXTSTYLE2
 70
     0
 40
0.0
 41
0.696429
 50
0.0
 71
     0
 42
3.175
  3
TXT
  4

  0
ENDTAB
  0
TABLE
  2
VIEW
  5
6
330
0
100
AcDbSymbolTable
 70
     0
  0
ENDTAB
  0
TABLE
  2
UCS
  5
7
330
0
100
AcDbSymbolTable
 70
     0
  0
ENDTAB
  0
TABLE
  2
APPID
  5
9
330
0
100
AcDbSymbolTable
 70
     6
  0
APPID
  5
12
330
9
100
AcDbSymbolTableRecord
100
AcDbRegAppTableRecord
  2
ACAD
 70
     0
  0
APPID
  5
1AC
330
9
100
AcDbSymbolTableRecord
100
AcDbRegAppTableRecord
  2
MCS_DIM1
 70
     0
  0
APPID
  5
1AD
330
9
100
AcDbSymbolTableRecord
100
AcDbRegAppTableRecord
  2
McsXdata5
 70
     0
  0
APPID
  5
1B0
330
9
100
AcDbSymbolTableRecord
100
AcDbRegAppTableRecord
  2
MCS_DOCUMENT_ID
 70
     0
  0
APPID
  5
1B8
330
9
100
AcDbSymbolTableRecord
100
AcDbRegAppTableRecord
  2
MCS_PARAMS_DATA
 70
     0
  0
APPID
  5
1BA
330
9
100
AcDbSymbolTableRecord
100
AcDbRegAppTableRecord
  2
MC_VERSION_DATA
 70
     0
  0
ENDTAB
  0
TABLE
  2
DIMSTYLE
  5
A
330
0
100
AcDbSymbolTable
 70
     4
100
AcDbDimStyleTable
  0
DIMSTYLE
105
27
330
A
100
AcDbSymbolTableRecord
100
AcDbDimStyleTableRecord
  2
ISO-25
 70
     0
 41
2.5
 42
0.625
 43
3.75
 44
1.25
 73
     0
 74
     0
 77
     1
 78
     8
140
2.5
141
2.5
143
0.03937
147
0.625
171
     3
172
     1
178
     0
271
     2
272
     2
274
     3
278
    44
283
     0
284
     8
340
11
  0
DIMSTYLE
105
E3
330
A
100
AcDbSymbolTableRecord
100
AcDbDimStyleTableRecord
  2
SLDDIMSTYLE0
 70
     0
 41
3.302
 44
0.0
 45
0.0
 78
    12
 79
     3
140
2.311487
143
0.03937
144
8.0
147
0.577872
148
0.0
170
     1
171
     3
172
     1
173
     1
178
     0
271
     0
272
     0
274
     3
276
     2
284
    12
289
     0
340
87
  0
DIMSTYLE
105
F1
330
A
100
AcDbSymbolTableRecord
100
AcDbDimStyleTableRecord
  2
SLDDIMSTYLE1
 70
     0
 41
3.302
 44
0.0
 45
0.0
 78
    12
 79
     3
140
2.311487
143
0.03937
144
8.0
147
0.577872
148
0.0
170
     1
171
     3
173
     1
178
     0
271
     0
272
     0
274
     3
276
     2
284
    12
340
87
  0
DIMSTYLE
105
116
330
A
100
AcDbSymbolTableRecord
100
AcDbDimStyleTableRecord
  2
SLDDIMSTYLE2
 70
     0
 41
3.302
 44
0.0
 45
0.0
146
3.302
147
0.0
173
     1
178
     0
271
     0
272
     0
276
     2
340
11
  0
ENDTAB
  0
TABLE
  2
BLOCK_RECORD
  5
1
330
0
100
AcDbSymbolTable
 70
     5
  0
BLOCK_RECORD
  5
1F
330
1
100
AcDbSymbolTableRecord
100
AcDbBlockTableRecord
  2
*Model_Space
340
22
 70
     0
280
     1
281
     0
  0
BLOCK_RECORD
  5
1B
330
1
100
AcDbSymbolTableRecord
100
AcDbBlockTableRecord
  2
*Paper_Space
340
1E
 70
     0
280
     1
281
     0
  0
BLOCK_RECORD
  5
23
330
1
100
AcDbSymbolTableRecord
100
AcDbBlockTableRecord
  2
*Paper_Space0
340
26
 70
     0
280
     1
281
     0
  0
BLOCK_RECORD
  5
B9
330
1
100
AcDbSymbolTableRecord
100
AcDbBlockTableRecord
  2
SW_BROKEN_VIEW_0
340
0
102
{BLKREFS
331
0
102
}
 70
     0
280
     1
281
     0
  0
BLOCK_RECORD
  5
E4
330
1
100
AcDbSymbolTableRecord
100
AcDbBlockTableRecord
  2
_D
340
0
 70
     0
280
     1
281
     0
  0
BLOCK_RECORD
  5
F2
330
1
100
AcDbSymbolTableRecord
100
AcDbBlockTableRecord
  2
_D_1
340
0
 70
     0
280
     1
281
     0
  0
BLOCK_RECORD
  5
104
330
1
100
AcDbSymbolTableRecord
100
AcDbBlockTableRecord
  2
_D_2
340
0
 70
     0
280
     1
281
     0
  0
ENDTAB
  0
ENDSEC
  0
SECTION
  2
BLOCKS
  0
BLOCK
  5
20
330
1F
100
AcDbEntity
  8
0
100
AcDbBlockBegin
  2
*Model_Space
 70
     0
 10
0.0
 20
0.0
 30
0.0
  3
*Model_Space
  1
*Model_Space
  0
ENDBLK
  5
21
330
1F
100
AcDbEntity
  8
0
100
AcDbBlockEnd
  0
BLOCK
  5
1C
330
1B
100
AcDbEntity
 67
     1
  8
0
100
AcDbBlockBegin
  2
*Paper_Space
 70
     0
 10
0.0
 20
0.0
 30
0.0
  3
*Paper_Space
  1
*Paper_Space
  0
ENDBLK
  5
1D
330
1B
100
AcDbEntity
 67
     1
  8
0
100
AcDbBlockEnd
  0
BLOCK
  5
24
330
23
100
AcDbEntity
  8
0
100
AcDbBlockBegin
  2
*Paper_Space0
 70
     0
 10
0.0
 20
0.0
 30
0.0
  3
*Paper_Space0
  1
*Paper_Space0
  0
ENDBLK
  5
25
330
23
100
AcDbEntity
  8
0
100
AcDbBlockEnd
  0
BLOCK
  5
BA
330
B9
100
AcDbEntity
  8
0
100
AcDbBlockBegin
  2
SW_BROKEN_VIEW_0
 70
     0
 10
0.0
 20
0.0
 30
0.0
  3
SW_BROKEN_VIEW_0
  1
SW_BROKEN_VIEW_0
  0
LINE
  5
BC
330
B9
100
AcDbEntity
  8
0
  6
Continuous
 62
     0
100
AcDbLine
 10
0.0
 20
0.0
 30
0.0
 11
133.576423
 21
0.0
 31
0.0
  0
ENDBLK
  5
BB
330
B9
100
AcDbEntity
  8
0
100
AcDbBlockEnd
  0
BLOCK
  5
E5
330
E4
100
AcDbEntity
  8
0
100
AcDbBlockBegin
  2
_D
 70
     0
 10
0.0
 20
0.0
 30
0.0
  3
_D
  1
_D
  0
SOLID
  5
E7
330
E4
100
AcDbEntity
  8
0
  6
Continuous
 62
     7
370
    18
100
AcDbTrace
 10
42.284415
 20
164.98192
 30
0.0
 11
41.776415
 21
161.67992
 31
0.0
 12
42.792415
 22
161.67992
 32
0.0
 13
42.792415
 23
161.67992
 33
0.0
  0
SOLID
  5
E8
330
E4
100
AcDbEntity
  8
0
  6
Continuous
 62
     7
370
    18
100
AcDbTrace
 10
42.284415
 20
188.05985
 30
0.0
 11
42.792415
 21
191.36185
 31
0.0
 12
41.776415
 22
191.36185
 32
0.0
 13
41.776415
 23
191.36185
 33
0.0
  0
LINE
  5
E9
330
E4
100
AcDbEntity
  8
0
  6
Continuous
 62
     7
370
     0
100
AcDbLine
 10
55.923415
 20
188.05985
 30
0.0
 11
41.284415
 21
188.05985
 31
0.0
  0
LINE
  5
EA
330
E4
100
AcDbEntity
  8
0
  6
Continuous
 62
     7
370
     0
100
AcDbLine
 10
42.284415
 20
164.98192
 30
0.0
 11
42.284415
 21
158.63192
 31
0.0
  0
LINE
  5
EB
330
E4
100
AcDbEntity
  8
0
  6
Continuous
 62
     7
370
     0
100
AcDbLine
 10
42.284415
 20
188.05985
 30
0.0
 11
42.284415
 21
194.40985
 31
0.0
  0
MTEXT
  5
EC
330
E4
100
AcDbEntity
  8
0
  6
Continuous
 62
     7
370
    18
100
AcDbMText
 10
39.021221
 20
185.046344
 30
0.0
 40
2.38125
 41
0.0
 46
0.0
 71
     1
 72
     1
  1
min.
  7
SLDTEXTSTYLE0
 73
     1
 44
1.0
  0
MTEXT
  5
ED
330
E4
100
AcDbEntity
  8
0
  6
Continuous
 62
     7
370
    18
100
AcDbMText
 10
36.375388
 20
181.496518
 30
0.0
 40
2.38125
 41
0.0
 46
0.0
 71
     1
 72
     1
  1
152 mm
  7
SLDTEXTSTYLE0
 73
     1
 44
1.0
  0
MTEXT
  5
EE
330
E4
100
AcDbEntity
  8
0
  6
Continuous
 62
     7
370
    18
100
AcDbMText
 10
39.590075
 20
177.946691
 30
0.0
 40
2.38125
 41
0.0
 46
0.0
 71
     1
 72
     1
  1
(6'')
  7
SLDTEXTSTYLE0
 73
     1
 44
1.0
  0
MTEXT
  5
EF
330
E4
100
AcDbEntity
  8
0
  6
Continuous
 62
     7
370
    18
100
AcDbMText
 10
33.817749
 20
174.396865
 30
0.0
 40
2.38125
 41
0.0
 46
0.0
 71
     1
 72
     1
  1
voir note#2
  7
SLDTEXTSTYLE0
 73
     1
 44
1.0
  0
ENDBLK
  5
E6
330
E4
100
AcDbEntity
  8
0
100
AcDbBlockEnd
  0
BLOCK
  5
F3
330
F2
100
AcDbEntity
  8
0
100
AcDbBlockBegin
  2
_D_1
 70
     0
 10
0.0
 20
0.0
 30
0.0
  3
_D_1
  1
_D_1
  0
SOLID
  5
F5
330
F2
100
AcDbEntity
  8
FORMAT
100
AcDbTrace
 10
42.284415
 20
45.928095
 30
0.0
 11
42.792415
 21
49.230095
 31
0.0
 12
41.776415
 22
49.230095
 32
0.0
 13
41.776415
 23
49.230095
 33
0.0
  0
SOLID
  5
F6
330
F2
100
AcDbEntity
  8
FORMAT
100
AcDbTrace
 10
42.284415
 20
164.98192
 30
0.0
 11
41.776415
 21
161.67992
 31
0.0
 12
42.792415
 22
161.67992
 32
0.0
 13
42.792415
 23
161.67992
 33
0.0
  0
LINE
  5
F7
330
F2
100
AcDbEntity
  8
FORMAT
100
AcDbLine
 10
69.386309
 20
45.928095
 30
0.0
 11
41.284415
 21
45.928095
 31
0.0
  0
LINE
  5
F8
330
F2
100
AcDbEntity
  8
FORMAT
100
AcDbLine
 10
42.284415
 20
45.928095
 30
0.0
 11
42.284415
 21
78.306083
 31
0.0
  0
LINE
  5
F9
330
F2
100
AcDbEntity
  8
FORMAT
100
AcDbLine
 10
42.284415
 20
164.98192
 30
0.0
 11
42.284415
 21
122.9903
 31
0.0
  0
LINE
  5
FA
330
F2
100
AcDbEntity
  8
FORMAT
100
AcDbLine
 10
42.284415
 20
78.306083
 30
0.0
 11
43.871915
 21
79.099833
 31
0.0
  0
LINE
  5
FB
330
F2
100
AcDbEntity
  8
FORMAT
100
AcDbLine
 10
43.871915
 20
79.099833
 30
0.0
 11
40.696915
 21
80.687333
 31
0.0
  0
LINE
  5
FC
330
F2
100
AcDbEntity
  8
FORMAT
100
AcDbLine
 10
40.696915
 20
80.687333
 30
0.0
 11
42.284415
 21
81.481083
 31
0.0
  0
LINE
  5
FD
330
F2
100
AcDbEntity
  8
FORMAT
100
AcDbLine
 10
42.284415
 20
81.481083
 30
0.0
 11
42.284415
 21
105.24117
 31
0.0
  0
MTEXT
  5
FE
330
F2
100
AcDbEntity
  8
FORMAT
100
AcDbMText
 10
31.171913
 20
122.510067
 30
0.0
 40
2.38125
 41
0.0
 46
0.0
 71
     1
 72
     1
  1
Sous le niveau
  7
SLDTEXTSTYLE0
 73
     1
 44
1.0
  0
MTEXT
  5
FF
330
F2
100
AcDbEntity
  8
FORMAT
100
AcDbMText
 10
29.824743
 20
118.96024
 30
0.0
 40
2.38125
 41
0.0
 46
0.0
 71
     1
 72
     1
  1
du gel et jusqu'à
  7
SLDTEXTSTYLE0
 73
     1
 44
1.0
  0
MTEXT
  5
100
330
F2
100
AcDbEntity
  8
FORMAT
100
AcDbMText
 10
29.736551
 20
115.410414
 30
0.0
 40
2.38125
 41
0.0
 46
0.0
 71
     1
 72
     1
  1
l'obtention de la
  7
SLDTEXTSTYLE0
 73
     1
 44
1.0
  0
MTEXT
  5
101
330
F2
100
AcDbEntity
  8
FORMAT
100
AcDbMText
 10
29.143443
 20
111.860588
 30
0.0
 40
2.38125
 41
0.0
 46
0.0
 71
     1
 72
     1
  1
capacité portante
  7
SLDTEXTSTYLE0
 73
     1
 44
1.0
  0
MTEXT
  5
102
330
F2
100
AcDbEntity
  8
FORMAT
100
AcDbMText
 10
36.198998
 20
108.310761
 30
0.0
 40
2.38125
 41
0.0
 46
0.0
 71
     1
 72
     1
  1
requise.
  7
SLDTEXTSTYLE0
 73
     1
 44
1.0
  0
ENDBLK
  5
F4
330
F2
100
AcDbEntity
  8
0
100
AcDbBlockEnd
  0
BLOCK
  5
105
330
104
100
AcDbEntity
  8
0
100
AcDbBlockBegin
  2
_D_2
 70
     0
 10
0.0
 20
0.0
 30
0.0
  3
_D_2
  1
_D_2
  0
SOLID
  5
107
330
104
100
AcDbEntity
  8
FORMAT
100
AcDbTrace
 10
83.860647
 20
44.486913
 30
0.0
 11
80.558647
 21
44.994913
 31
0.0
 12
80.558647
 22
43.978913
 32
0.0
 13
80.558647
 23
43.978913
 33
0.0
  0
SOLID
  5
108
330
104
100
AcDbEntity
  8
FORMAT
100
AcDbTrace
 10
46.050306
 20
44.486913
 30
0.0
 11
49.352306
 21
43.978913
 31
0.0
 12
49.352306
 22
44.994913
 32
0.0
 13
49.352306
 23
44.994913
 33
0.0
  0
LINE
  5
109
330
104
100
AcDbEntity
  8
FORMAT
100
AcDbLine
 10
83.860647
 20
63.773544
 30
0.0
 11
83.860647
 21
43.486913
 31
0.0
  0
LINE
  5
10A
330
104
100
AcDbEntity
  8
FORMAT
100
AcDbLine
 10
46.050306
 20
58.953745
 30
0.0
 11
46.050306
 21
43.486913
 31
0.0
  0
LINE
  5
10B
330
104
100
AcDbEntity
  8
FORMAT
100
AcDbLine
 10
83.860647
 20
44.486913
 30
0.0
 11
92.430284
 21
44.486913
 31
0.0
  0
LINE
  5
10C
330
104
100
AcDbEntity
  8
FORMAT
100
AcDbLine
 10
46.050306
 20
44.486913
 30
0.0
 11
83.860647
 21
44.486913
 31
0.0
  0
MTEXT
  5
10D
330
104
100
AcDbEntity
  8
FORMAT
100
AcDbMText
 10
92.959109
 20
51.106332
 30
0.0
 40
2.38125
 41
0.0
 46
0.0
 71
     1
 72
     1
  1
203 à 610 mm
  7
SLDTEXTSTYLE0
 73
     1
 44
1.0
  0
MTEXT
  5
10E
330
104
100
AcDbEntity
  8
FORMAT
100
AcDbMText
 10
92.959109
 20
47.556505
 30
0.0
 40
2.38125
 41
0.0
 46
0.0
 71
     1
 72
     1
  1
(8'' à 24'')
  7
SLDTEXTSTYLE0
 73
     1
 44
1.0
  0
MTEXT
  5
10F
330
104
100
AcDbEntity
  8
FORMAT
100
AcDbMText
 10
92.959109
 20
44.006679
 30
0.0
 40
2.38125
 41
0.0
 46
0.0
 71
     1
 72
     1
  1
Selon le type de sol et la
  7
SLDTEXTSTYLE0
 73
     1
 44
1.0
  0
MTEXT
  5
110
330
104
100
AcDbEntity
  8
FORMAT
100
AcDbMText
 10
92.959109
 20
40.456853
 30
0.0
 40
2.38125
 41
0.0
 46
0.0
 71
     1
 72
     1
  1
capacité portante requise.
  7
SLDTEXTSTYLE0
 73
     1
 44
1.0
  0
ENDBLK
  5
106
330
104
100
AcDbEntity
  8
0
100
AcDbBlockEnd
  0
ENDSEC
  0
SECTION
  2
ENTITIES
  0
LINE
  5
138
330
1F
100
AcDbEntity
  8
0
  6
Continuous
 62
     7
370
    25
100
AcDbLine
 10
189.996069
 20
192.988514
 30
0.0
 11
189.996069
 21
193.507018
 31
0.0
  0
LINE
  5
139
330
1F
100
AcDbEntity
  8
0
  6
Continuous
 62
     7
370
    25
100
AcDbLine
 10
172.561608
 20
193.507018
 30
0.0
 11
172.561608
 21
192.988514
 31
0.0
  0
LINE
  5
13A
330
1F
100
AcDbEntity
  8
0
  6
Continuous
 62
     7
370
    25
100
AcDbLine
 10
176.375043
 20
180.534356
 30
0.0
 11
176.375043
 21
44.167958
 31
0.0
  0
LINE
  5
13B
330
1F
100
AcDbEntity
  8
0
  6
Continuous
 62
     7
370
    25
100
AcDbLine
 10
186.217543
 20
44.167958
 30
0.0
 11
186.217543
 21
180.534356
 31
0.0
  0
LINE
  5
13C
330
1F
100
AcDbEntity
  8
0
  6
Continuous
 62
     7
370
    25
100
AcDbLine
 10
196.536293
 20
28.92964
 30
0.0
 11
196.536293
 21
29.966646
 31
0.0
  0
LINE
  5
13D
330
1F
100
AcDbEntity
  8
0
  6
Continuous
 62
     7
370
    25
100
AcDbLine
 10
166.056293
 20
33.305808
 30
0.0
 11
166.056293
 21
32.268801
 31
0.0
  0
LINE
  5
13E
330
1F
100
AcDbEntity
  8
0
  6
Continuous
 62
     7
370
    25
100
AcDbLine
 10
185.741293
 20
24.957275
 30
0.0
 11
185.741293
 21
25.528308
 31
0.0
  0
LINE
  5
13F
330
1F
100
AcDbEntity
  8
0
  6
Continuous
 62
     7
370
    25
100
AcDbLine
 10
185.741293
 20
29.334113
 30
0.0
 11
185.741293
 21
42.948708
 31
0.0
  0
LINE
  5
140
330
1F
100
AcDbEntity
  8
0
  6
Continuous
 62
     7
370
    25
100
AcDbLine
 10
185.741293
 20
180.534356
 30
0.0
 11
185.741293
 21
190.380443
 31
0.0
  0
LINE
  5
141
330
1F
100
AcDbEntity
  8
0
  6
Continuous
 62
     7
370
    25
100
AcDbLine
 10
176.851293
 20
190.360291
 30
0.0
 11
176.851293
 21
180.534356
 31
0.0
  0
LINE
  5
142
330
1F
100
AcDbEntity
  8
0
  6
Continuous
 62
     7
370
    25
100
AcDbLine
 10
176.851293
 20
42.948708
 30
0.0
 11
176.851293
 21
33.020995
 31
0.0
  0
LINE
  5
143
330
1F
100
AcDbEntity
  8
0
  6
Continuous
 62
     7
370
    25
100
AcDbLine
 10
176.851293
 20
25.215846
 30
0.0
 11
176.851293
 21
19.824354
 31
0.0
  0
LWPOLYLINE
  5
144
330
1F
100
AcDbEntity
  8
0
  6
Continuous
 62
     7
370
    25
100
AcDbPolyline
 90
       25
 70
   128
 43
0.0
 10
180.914015
 20
189.667476
 10
181.02087
 20
189.620143
 10
181.145304
 20
189.590388
 10
181.278838
 20
189.580239
 10
181.412373
 20
189.590388
 10
181.536807
 20
189.620143
 10
181.643661
 20
189.667476
 10
181.725653
 20
189.729162
 10
181.777196
 20
189.800996
 10
181.794776
 20
189.878084
 10
181.777196
 20
189.955172
 10
181.725653
 20
190.027006
 10
181.643661
 20
190.088691
 10
181.536807
 20
190.136025
 10
181.412373
 20
190.165779
 10
181.278838
 20
190.175928
 10
181.145304
 20
190.165779
 10
181.02087
 20
190.136025
 10
180.914015
 20
190.088691
 10
180.832023
 20
190.027006
 10
180.780481
 20
189.955172
 10
180.762901
 20
189.878084
 10
180.780481
 20
189.800996
 10
180.832023
 20
189.729162
 10
180.914015
 20
189.667476
  0
LWPOLYLINE
  5
145
330
1F
100
AcDbEntity
  8
0
  6
Continuous
 62
     7
370
    25
100
AcDbPolyline
 90
       25
 70
   128
 43
0.0
 10
187.200195
 20
193.29641
 10
187.307049
 20
193.249077
 10
187.431483
 20
193.219322
 10
187.565018
 20
193.209173
 10
187.698552
 20
193.219322
 10
187.822986
 20
193.249077
 10
187.92984
 20
193.29641
 10
188.011833
 20
193.358096
 10
188.063375
 20
193.42993
 10
188.080955
 20
193.507018
 10
188.063375
 20
193.584106
 10
188.011833
 20
193.65594
 10
187.92984
 20
193.717626
 10
187.822986
 20
193.764959
 10
187.698552
 20
193.794713
 10
187.565018
 20
193.804862
 10
187.431483
 20
193.794713
 10
187.307049
 20
193.764959
 10
187.200195
 20
193.717626
 10
187.118203
 20
193.65594
 10
187.06666
 20
193.584106
 10
187.04908
 20
193.507018
 10
187.06666
 20
193.42993
 10
187.118203
 20
193.358096
 10
187.200195
 20
193.29641
  0
LINE
  5
146
330
1F
100
AcDbEntity
  8
0
  6
Continuous
 62
     7
370
    25
100
AcDbLine
 10
180.829825
 20
198.432
 30
0.0
 11
172.747595
 21
193.766227
 31
0.0
  0
ARC
  5
147
330
1F
100
AcDbEntity
  8
0
  6
Continuous
 62
     7
370
    25
100
AcDbCircle
 10
181.278838
 20
197.565408
 30
0.0
 40
0.9760089115241999
100
AcDbArc
 50
62.609672
 51
117.390328
  0
LINE
  5
148
330
1F
100
AcDbEntity
  8
0
  6
Continuous
 62
     7
370
    25
100
AcDbLine
 10
189.810082
 20
193.766227
 30
0.0
 11
181.727851
 21
198.432
 31
0.0
  0
ARC
  5
149
330
1F
100
AcDbEntity
  8
0
  6
Continuous
 62
     7
370
    25
100
AcDbCircle
 10
189.711703
 20
193.507018
 30
0.0
 40
0.2772507261897957
100
AcDbArc
 50
290.783421
 51
69.216579
  0
LINE
  5
14A
330
1F
100
AcDbEntity
  8
0
  6
Continuous
 62
     7
370
    25
100
AcDbLine
 10
181.727851
 20
188.582036
 30
0.0
 11
189.810082
 21
193.247808
 31
0.0
  0
ARC
  5
14B
330
1F
100
AcDbEntity
  8
0
  6
Continuous
 62
     7
370
    25
100
AcDbCircle
 10
181.278838
 20
189.448627
 30
0.0
 40
0.9760089115241877
100
AcDbArc
 50
242.609672
 51
297.390328
  0
LINE
  5
14C
330
1F
100
AcDbEntity
  8
0
  6
Continuous
 62
     7
370
    25
100
AcDbLine
 10
172.747595
 20
193.247808
 30
0.0
 11
180.829825
 21
188.582036
 31
0.0
  0
ARC
  5
14D
330
1F
100
AcDbEntity
  8
0
  6
Continuous
 62
     7
370
    25
100
AcDbCircle
 10
172.845974
 20
193.507018
 30
0.0
 40
0.2772507261898259
100
AcDbArc
 50
110.783421
 51
249.216579
  0
LWPOLYLINE
  5
14E
330
1F
100
AcDbEntity
  8
0
  6
Continuous
 62
     7
370
    25
100
AcDbPolyline
 90
       25
 70
   128
 43
0.0
 10
180.914015
 20
196.925344
 10
181.02087
 20
196.878011
 10
181.145304
 20
196.848256
 10
181.278838
 20
196.838107
 10
181.412373
 20
196.848256
 10
181.536807
 20
196.878011
 10
181.643661
 20
196.925344
 10
181.725653
 20
196.98703
 10
181.777196
 20
197.058864
 10
181.794776
 20
197.135952
 10
181.777196
 20
197.21304
 10
181.725653
 20
197.284874
 10
181.643661
 20
197.34656
 10
181.536807
 20
197.393893
 10
181.412373
 20
197.423647
 10
181.278838
 20
197.433796
 10
181.145304
 20
197.423647
 10
181.02087
 20
197.393893
 10
180.914015
 20
197.34656
 10
180.832023
 20
197.284874
 10
180.780481
 20
197.21304
 10
180.762901
 20
197.135952
 10
180.780481
 20
197.058864
 10
180.832023
 20
196.98703
 10
180.914015
 20
196.925344
  0
LWPOLYLINE
  5
14F
330
1F
100
AcDbEntity
  8
0
  6
Continuous
 62
     7
370
    25
100
AcDbPolyline
 90
       25
 70
   128
 43
0.0
 10
174.627836
 20
193.29641
 10
174.73469
 20
193.249077
 10
174.859125
 20
193.219322
 10
174.992659
 20
193.209173
 10
175.126193
 20
193.219322
 10
175.250628
 20
193.249077
 10
175.357482
 20
193.29641
 10
175.439474
 20
193.358096
 10
175.491016
 20
193.42993
 10
175.508596
 20
193.507018
 10
175.491016
 20
193.584106
 10
175.439474
 20
193.65594
 10
175.357482
 20
193.717626
 10
175.250628
 20
193.764959
 10
175.126193
 20
193.794713
 10
174.992659
 20
193.804862
 10
174.859125
 20
193.794713
 10
174.73469
 20
193.764959
 10
174.627836
 20
193.717626
 10
174.545844
 20
193.65594
 10
174.494302
 20
193.584106
 10
174.476721
 20
193.507018
 10
174.494302
 20
193.42993
 10
174.545844
 20
193.358096
 10
174.627836
 20
193.29641
  0
LWPOLYLINE
  5
150
330
1F
100
AcDbEntity
  8
0
  6
Continuous
 62
     7
370
    25
100
AcDbPolyline
 90
       19
 70
   128
 43
0.0
 10
177.911242
 20
195.19188
 10
178.001567
 20
195.155369
 10
178.108077
 20
195.138893
 10
178.217924
 20
195.144441
 10
178.317859
 20
195.171343
 10
178.395829
 20
195.216355
 10
178.44243
 20
195.274046
 10
178.45204
 20
195.337459
 10
178.423501
 20
195.398946
 10
178.360255
 20
195.45109
 10
178.26993
 20
195.487601
 10
178.163421
 20
195.504076
 10
178.053574
 20
195.498528
 10
177.953638
 20
195.471626
 10
177.875668
 20
195.426615
 10
177.829067
 20
195.368923
 10
177.819457
 20
195.30551
 10
177.847996
 20
195.244024
 10
177.911242
 20
195.19188
  0
LWPOLYLINE
  5
151
330
1F
100
AcDbEntity
  8
0
  6
Continuous
 62
     7
370
    25
100
AcDbPolyline
 90
       19
 70
   128
 43
0.0
 10
184.197422
 20
195.19188
 10
184.287747
 20
195.155369
 10
184.394256
 20
195.138893
 10
184.504103
 20
195.144441
 10
184.604038
 20
195.171343
 10
184.682009
 20
195.216355
 10
184.728609
 20
195.274046
 10
184.73822
 20
195.337459
 10
184.709681
 20
195.398946
 10
184.646434
 20
195.45109
 10
184.556109
 20
195.487601
 10
184.4496
 20
195.504076
 10
184.339753
 20
195.498528
 10
184.239817
 20
195.471626
 10
184.161847
 20
195.426615
 10
184.115246
 20
195.368923
 10
184.105636
 20
195.30551
 10
184.134175
 20
195.244024
 10
184.197422
 20
195.19188
  0
LWPOLYLINE
  5
152
330
1F
100
AcDbEntity
  8
0
  6
Continuous
 62
     7
370
    25
100
AcDbPolyline
 90
       19
 70
   128
 43
0.0
 10
184.197422
 20
191.562946
 10
184.287747
 20
191.526435
 10
184.394256
 20
191.509959
 10
184.504103
 20
191.515507
 10
184.604038
 20
191.542409
 10
184.682009
 20
191.587421
 10
184.728609
 20
191.645112
 10
184.73822
 20
191.708525
 10
184.709681
 20
191.770012
 10
184.646434
 20
191.822156
 10
184.556109
 20
191.858667
 10
184.4496
 20
191.875142
 10
184.339753
 20
191.869594
 10
184.239817
 20
191.842692
 10
184.161847
 20
191.797681
 10
184.115246
 20
191.739989
 10
184.105636
 20
191.676576
 10
184.134175
 20
191.61509
 10
184.197422
 20
191.562946
  0
LWPOLYLINE
  5
153
330
1F
100
AcDbEntity
  8
0
  6
Continuous
 62
     7
370
    25
100
AcDbPolyline
 90
       19
 70
   128
 43
0.0
 10
177.911242
 20
191.562946
 10
178.001567
 20
191.526435
 10
178.108077
 20
191.509959
 10
178.217924
 20
191.515507
 10
178.317859
 20
191.542409
 10
178.395829
 20
191.587421
 10
178.44243
 20
191.645112
 10
178.45204
 20
191.708525
 10
178.423501
 20
191.770012
 10
178.360255
 20
191.822156
 10
178.26993
 20
191.858667
 10
178.163421
 20
191.875142
 10
178.053574
 20
191.869594
 10
177.953638
 20
191.842692
 10
177.875668
 20
191.797681
 10
177.829067
 20
191.739989
 10
177.819457
 20
191.676576
 10
177.847996
 20
191.61509
 10
177.911242
 20
191.562946
  0
LINE
  5
154
330
1F
100
AcDbEntity
  8
0
  6
Continuous
 62
     7
370
    25
100
AcDbLine
 10
180.802588
 20
196.073062
 30
0.0
 11
180.802588
 21
194.240173
 31
0.0
  0
LWPOLYLINE
  5
155
330
1F
100
AcDbEntity
  8
0
  6
Continuous
 62
     7
370
    25
100
AcDbPolyline
 90
       12
 70
   128
 43
0.0
 10
180.802588
 20
194.240173
 10
180.82188
 20
194.162716
 10
180.878191
 20
194.091533
 10
180.966961
 20
194.032392
 10
181.080997
 20
193.990085
 10
181.211061
 20
193.968038
 10
181.346616
 20
193.968038
 10
181.47668
 20
193.990085
 10
181.590716
 20
194.032392
 10
181.679485
 20
194.091533
 10
181.735797
 20
194.162716
 10
181.755088
 20
194.240173
  0
LINE
  5
156
330
1F
100
AcDbEntity
  8
0
  6
Continuous
 62
     7
370
    25
100
AcDbLine
 10
181.755088
 20
194.240173
 30
0.0
 11
181.755088
 21
196.073062
 31
0.0
  0
LWPOLYLINE
  5
157
330
1F
100
AcDbEntity
  8
0
  6
Continuous
 62
     7
370
    25
100
AcDbPolyline
 90
       12
 70
   128
 43
0.0
 10
181.755088
 20
196.073062
 10
181.735797
 20
196.150519
 10
181.679485
 20
196.221702
 10
181.590716
 20
196.280842
 10
181.47668
 20
196.32315
 10
181.346616
 20
196.345197
 10
181.211061
 20
196.345197
 10
181.080997
 20
196.32315
 10
180.966961
 20
196.280842
 10
180.878191
 20
196.221702
 10
180.82188
 20
196.150519
 10
180.802588
 20
196.073062
  0
LINE
  5
158
330
1F
100
AcDbEntity
  8
0
  6
Continuous
 62
     7
370
    25
100
AcDbLine
 10
181.755088
 20
190.940974
 30
0.0
 11
181.755088
 21
192.773862
 31
0.0
  0
LWPOLYLINE
  5
159
330
1F
100
AcDbEntity
  8
0
  6
Continuous
 62
     7
370
    25
100
AcDbPolyline
 90
       12
 70
   128
 43
0.0
 10
181.755088
 20
192.773862
 10
181.735797
 20
192.85132
 10
181.679485
 20
192.922503
 10
181.590716
 20
192.981643
 10
181.47668
 20
193.02395
 10
181.346616
 20
193.045997
 10
181.211061
 20
193.045997
 10
181.080997
 20
193.02395
 10
180.966961
 20
192.981643
 10
180.878191
 20
192.922503
 10
180.82188
 20
192.85132
 10
180.802588
 20
192.773862
  0
LINE
  5
15A
330
1F
100
AcDbEntity
  8
0
  6
Continuous
 62
     7
370
    25
100
AcDbLine
 10
180.802588
 20
192.773862
 30
0.0
 11
180.802588
 21
190.940974
 31
0.0
  0
LWPOLYLINE
  5
15B
330
1F
100
AcDbEntity
  8
0
  6
Continuous
 62
     7
370
    25
100
AcDbPolyline
 90
       12
 70
   128
 43
0.0
 10
180.802588
 20
190.940974
 10
180.82188
 20
190.863516
 10
180.878191
 20
190.792334
 10
180.966961
 20
190.733193
 10
181.080997
 20
190.690886
 10
181.211061
 20
190.668839
 10
181.346616
 20
190.668839
 10
181.47668
 20
190.690886
 10
181.590716
 20
190.733193
 10
181.679485
 20
190.792334
 10
181.735797
 20
190.863516
 10
181.755088
 20
190.940974
  0
LINE
  5
15C
330
1F
100
AcDbEntity
  8
0
  6
Continuous
 62
     7
370
    25
100
AcDbLine
 10
180.829825
 20
188.582036
 30
0.0
 11
180.829825
 21
188.063532
 31
0.0
  0
LINE
  5
15D
330
1F
100
AcDbEntity
  8
0
  6
Continuous
 62
     7
370
    25
100
AcDbLine
 10
181.727851
 20
188.582036
 30
0.0
 11
181.727851
 21
188.063532
 31
0.0
  0
ARC
  5
15E
330
1F
100
AcDbEntity
  8
0
  6
Continuous
 62
     7
370
    25
100
AcDbCircle
 10
181.278838
 20
188.930124
 30
0.0
 40
0.9760089115240616
100
AcDbArc
 50
242.609672
 51
297.390328
  0
LINE
  5
15F
330
1F
100
AcDbEntity
  8
0
  6
Continuous
 62
     7
370
    25
100
AcDbLine
 10
189.810082
 20
193.247808
 30
0.0
 11
189.810082
 21
192.729305
 31
0.0
  0
LINE
  5
160
330
1F
100
AcDbEntity
  8
0
  6
Continuous
 62
     7
370
    25
100
AcDbLine
 10
181.727851
 20
188.063532
 30
0.0
 11
189.810082
 21
192.729305
 31
0.0
  0
LINE
  5
161
330
1F
100
AcDbEntity
  8
0
  6
Continuous
 62
     7
370
    25
100
AcDbLine
 10
172.747595
 20
193.247808
 30
0.0
 11
172.747595
 21
192.729305
 31
0.0
  0
LINE
  5
162
330
1F
100
AcDbEntity
  8
0
  6
Continuous
 62
     7
370
    25
100
AcDbLine
 10
172.747595
 20
192.729305
 30
0.0
 11
180.829825
 21
188.063532
 31
0.0
  0
ARC
  5
163
330
1F
100
AcDbEntity
  8
0
  6
Continuous
 62
     7
370
    25
100
AcDbCircle
 10
181.278838
 20
188.809071
 30
0.0
 40
0.8486613476835696
100
AcDbArc
 50
72.585097
 51
107.414903
  0
LWPOLYLINE
  5
164
330
1F
100
AcDbEntity
  8
0
  6
Continuous
 62
     7
370
    25
100
AcDbPolyline
 90
       12
 70
   128
 43
0.0
 10
181.755088
 20
192.255359
 10
181.735797
 20
192.332817
 10
181.679485
 20
192.403999
 10
181.590716
 20
192.46314
 10
181.47668
 20
192.505447
 10
181.346616
 20
192.527494
 10
181.211061
 20
192.527494
 10
181.080997
 20
192.505447
 10
180.966961
 20
192.46314
 10
180.878191
 20
192.403999
 10
180.82188
 20
192.332817
 10
180.802588
 20
192.255359
  0
ARC
  5
165
330
1F
100
AcDbEntity
  8
0
  6
Continuous
 62
     7
370
    25
100
AcDbCircle
 10
174.992659
 20
192.438005
 30
0.0
 40
0.848661347694735
100
AcDbArc
 50
72.585097
 51
107.414903
  0
ARC
  5
166
330
1F
100
AcDbEntity
  8
0
  6
Continuous
 62
     7
370
    25
100
AcDbCircle
 10
187.565018
 20
192.438005
 30
0.0
 40
0.8486613476914191
100
AcDbArc
 50
72.585097
 51
107.414903
  0
ARC
  5
167
330
1F
100
AcDbEntity
  8
0
  6
Continuous
 62
     7
370
    25
100
AcDbCircle
 10
189.678279
 20
193.020205
 30
0.0
 40
0.3193664418436796
100
AcDbArc
 50
294.374658
 51
354.305201
  0
ARC
  5
168
330
1F
100
AcDbEntity
  8
0
  6
Continuous
 62
     7
370
    25
100
AcDbCircle
 10
172.879398
 20
193.020205
 30
0.0
 40
0.3193664418435633
100
AcDbArc
 50
185.694799
 51
245.625342
  0
LWPOLYLINE
  5
169
330
1F
100
AcDbEntity
  8
0
  6
Continuous
 62
     7
370
    25
100
AcDbPolyline
 90
       12
 70
   128
 43
0.0
 10
181.755088
 20
195.554558
 10
181.735797
 20
195.632016
 10
181.679485
 20
195.703198
 10
181.590716
 20
195.762339
 10
181.47668
 20
195.804646
 10
181.346616
 20
195.826693
 10
181.211061
 20
195.826693
 10
181.080997
 20
195.804646
 10
180.966961
 20
195.762339
 10
180.878191
 20
195.703198
 10
180.82188
 20
195.632016
 10
180.802588
 20
195.554558
  0
ARC
  5
16A
330
1F
100
AcDbEntity
  8
0
  6
Continuous
 62
     7
370
    25
100
AcDbCircle
 10
181.278838
 20
196.066939
 30
0.0
 40
0.8486613476886959
100
AcDbArc
 50
72.585097
 51
107.414903
  0
ARC
  5
16B
330
1F
100
AcDbEntity
  8
0
  6
Continuous
 62
     7
370
    25
100
AcDbCircle
 10
181.296333
 20
196.57016
 30
0.0
 40
5.401916226703885
100
AcDbArc
 50
264.755749
 51
274.87169
  0
ARC
  5
16C
330
1F
100
AcDbEntity
  8
0
  6
Continuous
 62
     7
370
    25
100
AcDbCircle
 10
181.296338
 20
189.385168
 30
0.0
 40
5.403458991620186
100
AcDbArc
 50
85.129758
 51
95.242803
  0
ARC
  5
16D
330
1F
100
AcDbEntity
  8
0
  6
Continuous
 62
     7
370
    25
100
AcDbCircle
 10
181.296323
 20
197.171265
 30
0.0
 40
6.300667651398554
100
AcDbArc
 50
265.582947
 51
274.089901
  0
ARC
  5
16E
330
1F
100
AcDbEntity
  8
0
  6
Continuous
 62
     7
370
    25
100
AcDbCircle
 10
181.296324
 20
188.78628
 30
0.0
 40
6.299999664736336
100
AcDbArc
 50
85.824039
 51
94.494921
  0
LWPOLYLINE
  5
16F
330
1F
100
AcDbEntity
  8
0
  6
Continuous
 62
     7
370
    25
100
AcDbPolyline
 90
       28
 70
   128
 43
0.0
 10
184.439382
 20
178.719889
 10
184.144985
 20
178.564546
 10
183.827651
 20
178.425063
 10
183.489937
 20
178.302562
 10
183.13456
 20
178.198031
 10
182.764383
 20
178.11231
 10
182.382386
 20
178.04609
 10
181.991644
 20
177.999905
 10
181.595303
 20
177.974125
 10
181.196555
 20
177.968958
 10
180.798611
 20
177.984447
 10
180.404673
 20
178.020466
 10
180.017914
 20
178.076726
 10
179.641447
 20
178.152772
 10
179.278305
 20
178.247994
 10
178.93141
 20
178.361625
 10
178.603556
 20
178.492749
 10
178.297382
 20
178.64031
 10
178.015354
 20
178.803122
 10
177.759741
 20
178.979872
 10
177.532604
 20
179.169139
 10
177.335769
 20
179.369397
 10
177.170821
 20
179.579034
 10
177.03909
 20
179.796364
 10
176.941635
 20
180.019635
 10
176.879242
 20
180.24705
 10
176.852412
 20
180.476779
 10
176.851293
 20
180.534356
  0
LWPOLYLINE
  5
170
330
1F
100
AcDbEntity
  8
0
  6
Continuous
 62
     7
370
    25
100
AcDbPolyline
 90
       10
 70
   128
 43
0.0
 10
185.741293
 20
180.534356
 10
185.731224
 20
180.361741
 10
185.686567
 20
180.132939
 10
185.606563
 20
179.907368
 10
185.491854
 20
179.686846
 10
185.343365
 20
179.473147
 10
185.162292
 20
179.267992
 10
184.950092
 20
179.073034
 10
184.708473
 20
178.889841
 10
184.439382
 20
178.719889
  0
LWPOLYLINE
  5
171
330
1F
100
AcDbEntity
  8
0
  6
Continuous
 62
     7
370
    25
100
AcDbPolyline
 90
       34
 70
   128
 43
0.0
 10
184.776142
 20
178.525482
 10
184.468494
 20
178.362355
 10
184.13799
 20
178.214876
 10
183.787012
 20
178.08411
 10
183.418088
 20
177.970998
 10
183.033876
 20
177.876355
 10
182.637145
 20
177.800863
 10
182.230753
 20
177.745066
 10
181.817629
 20
177.709365
 10
181.400748
 20
177.694019
 10
180.983115
 20
177.699138
 10
180.567738
 20
177.724684
 10
180.15761
 20
177.770474
 10
179.755686
 20
177.836178
 10
179.364863
 20
177.921322
 10
178.987956
 20
178.025293
 10
178.62768
 20
178.147343
 10
178.286631
 20
178.28659
 10
177.967268
 20
178.442033
 10
177.67189
 20
178.612551
 10
177.402626
 20
178.796916
 10
177.161416
 20
178.993799
 10
176.949997
 20
179.201782
 10
176.769894
 20
179.419366
 10
176.622404
 20
179.644983
 10
176.508589
 20
179.877009
 10
176.42927
 20
180.11377
 10
176.385018
 20
180.353562
 10
176.376151
 20
180.594657
 10
176.402735
 20
180.835317
 10
176.464576
 20
181.073809
 10
176.56123
 20
181.308414
 10
176.692001
 20
181.537442
 10
176.851293
 20
181.753606
  0
LWPOLYLINE
  5
172
330
1F
100
AcDbEntity
  8
0
  6
Continuous
 62
     7
370
    25
100
AcDbPolyline
 90
       16
 70
   128
 43
0.0
 10
185.741293
 20
181.753606
 10
185.822691
 20
181.649347
 10
185.970181
 20
181.423729
 10
186.083996
 20
181.191704
 10
186.163315
 20
180.954942
 10
186.207567
 20
180.71515
 10
186.216434
 20
180.474055
 10
186.189851
 20
180.233395
 10
186.128009
 20
179.994903
 10
186.031355
 20
179.760298
 10
185.900585
 20
179.531271
 10
185.73664
 20
179.30947
 10
185.540703
 20
179.096495
 10
185.314185
 20
178.893879
 10
185.058717
 20
178.703083
 10
184.776142
 20
178.525482
  0
LWPOLYLINE
  5
173
330
1F
100
AcDbEntity
  8
0
  6
Continuous
 62
     7
370
    25
100
AcDbPolyline
 90
       29
 70
   128
 43
0.0
 10
184.776142
 20
42.159084
 10
184.468494
 20
41.995956
 10
184.13799
 20
41.848478
 10
183.787012
 20
41.717712
 10
183.418088
 20
41.6046
 10
183.033876
 20
41.509957
 10
182.637145
 20
41.434465
 10
182.230753
 20
41.378667
 10
181.817629
 20
41.342967
 10
181.400748
 20
41.327621
 10
180.983115
 20
41.332739
 10
180.567738
 20
41.358286
 10
180.15761
 20
41.404076
 10
179.755686
 20
41.46978
 10
179.364863
 20
41.554924
 10
178.987956
 20
41.658895
 10
178.62768
 20
41.780944
 10
178.286631
 20
41.920192
 10
177.967268
 20
42.075635
 10
177.67189
 20
42.246153
 10
177.402626
 20
42.430518
 10
177.161416
 20
42.627401
 10
176.949997
 20
42.835383
 10
176.769894
 20
43.052967
 10
176.622404
 20
43.278585
 10
176.508589
 20
43.51061
 10
176.42927
 20
43.747372
 10
176.385018
 20
43.987164
 10
176.375043
 20
44.167958
  0
LWPOLYLINE
  5
174
330
1F
100
AcDbEntity
  8
0
  6
Continuous
 62
     7
370
    25
100
AcDbPolyline
 90
       11
 70
   128
 43
0.0
 10
186.217543
 20
44.167958
 10
186.216434
 20
44.107657
 10
186.189851
 20
43.866997
 10
186.128009
 20
43.628505
 10
186.031355
 20
43.3939
 10
185.900585
 20
43.164872
 10
185.73664
 20
42.943072
 10
185.540703
 20
42.730096
 10
185.314185
 20
42.527481
 10
185.058717
 20
42.336685
 10
184.776142
 20
42.159084
  0
LINE
  5
175
330
1F
100
AcDbEntity
  8
0
  6
Continuous
 62
     7
370
    25
100
AcDbLine
 10
182.84372
 20
32.891354
 30
0.0
 11
186.50868
 21
27.078417
 31
0.0
  0
SPLINE
  5
176
330
1F
100
AcDbEntity
  8
0
  6
Continuous
 62
     7
370
    25
100
AcDbSpline
210
0.0
220
0.0
230
1.0
 70
     8
 71
     3
 72
    44
 73
    40
 74
     0
 42
0.000000001
 43
0.00000001
 40
0.0
 40
0.0
 40
0.0
 40
0.0
 40
0.027422188313078
 40
0.0550121304918855
 40
0.0826621710834748
 40
0.1102632226232242
 40
0.1377073656690968
 40
0.164618500716558
 40
0.1917008786652181
 40
0.2188556787094494
 40
0.2459795843879745
 40
0.2734585526448902
 40
0.3008367189079578
 40
0.3283910645612915
 40
0.3560354212649021
 40
0.3836608373993846
 40
0.4106698187006162
 40
0.4375494524516159
 40
0.4645903447013665
 40
0.491734303542521
 40
0.5193708295770689
 40
0.5468985910049328
 40
0.5742662120202849
 40
0.6017768389904975
 40
0.6294072264677864
 40
0.6565560025385622
 40
0.6836123501452384
 40
0.7104986171037203
 40
0.737489023204918
 40
0.7651063754159422
 40
0.792753804197433
 40
0.8203222845178333
 40
0.8477128546013314
 40
0.8751717193938504
 40
0.902286497756195
 40
0.9294429046507688
 40
0.9565375865552067
 40
0.9834686087553747
 40
1.0
 40
1.0
 40
1.0
 40
1.0
 10
186.5086795882787
 20
27.07841683252318
 30
0.0
 10
186.0866331054422
 20
26.9659690590021
 30
0.0
 10
185.2399582915154
 20
26.74038561832853
 30
0.0
 10
183.9266194443607
 20
26.4826956646793
 30
0.0
 10
182.5929012290346
 20
26.28707703228286
 30
0.0
 10
181.2506727745483
 20
26.16139417706669
 30
0.0
 10
179.9208688700584
 20
26.10542238356339
 30
0.0
 10
178.6098135434331
 20
26.11644765171578
 30
0.0
 10
177.3235849600977
 20
26.19020292279198
 30
0.0
 10
176.0637948732308
 20
26.32761872847011
 30
0.0
 10
174.8373215132609
 20
26.52824413890493
 30
0.0
 10
173.6564783246121
 20
26.79120215644647
 30
0.0
 10
172.528061277884
 20
27.11541417951631
 30
0.0
 10
171.4651283439118
 20
27.49384436953746
 30
0.0
 10
170.4754204471502
 20
27.92530965172146
 30
0.0
 10
169.575845996441
 20
28.40202642222793
 30
0.0
 10
168.7733509557539
 20
28.91782833413185
 30
0.0
 10
168.0693686729421
 20
29.4688656821845
 30
0.0
 10
167.4625750767406
 20
30.05151064563866
 30
0.0
 10
166.9543646184744
 20
30.66700910275157
 30
0.0
 10
166.5529952533255
 20
31.309263308645
 30
0.0
 10
166.2645969510648
 20
31.97148760232543
 30
0.0
 10
166.0922006786486
 20
32.64633241546277
 30
0.0
 10
166.0366308014093
 20
33.32599366261115
 30
0.0
 10
166.0988820979076
 20
34.00288848275849
 30
0.0
 10
166.2765598405358
 20
34.66990785702545
 30
0.0
 10
166.5648230704681
 20
35.3197347264112
 30
0.0
 10
166.9618913865407
 20
35.95325172320482
 30
0.0
 10
167.4686602363077
 20
36.56727838900936
 30
0.0
 10
168.0857214717708
 20
37.15759659310739
 30
0.0
 10
168.8098840574673
 20
37.71761810054583
 30
0.0
 10
169.6288627001097
 20
38.23721571719992
 30
0.0
 10
170.5359169716757
 20
38.71387598975505
 30
0.0
 10
171.520138882099
 20
39.13935765040657
 30
0.0
 10
172.575619630268
 20
39.51086350313139
 30
0.0
 10
173.6914333160702
 20
39.82703909898807
 30
0.0
 10
174.8631480888477
 20
40.08279889682856
 30
0.0
 10
175.9184939216448
 20
40.26384247424755
 30
0.0
 10
176.5942583977097
 20
40.33188127016631
 30
0.0
 10
176.8512926039955
 20
40.35776054989326
 30
0.0
  0
SPLINE
  5
177
330
1F
100
AcDbEntity
  8
0
  6
Continuous
 62
     7
370
    25
100
AcDbSpline
210
0.0
220
0.0
230
1.0
 70
     8
 71
     3
 72
    30
 73
    26
 74
     0
 42
0.000000001
 43
0.00000001
 40
0.0
 40
0.0
 40
0.0
 40
0.0
 40
0.027454329698207
 40
0.0716661951051625
 40
0.116456811194741
 40
0.1610831204091374
 40
0.2059966013746176
 40
0.25105680001738
 40
0.2960861256028859
 40
0.3401106647021516
 40
0.3839243677754646
 40
0.4280009216021685
 40
0.4722454735896504
 40
0.5172929082709562
 40
0.5621630570477629
 40
0.6067721775475915
 40
0.6516143972221342
 40
0.6966518260779307
 40
0.7409042301317843
 40
0.7850059761328123
 40
0.8288304913096586
 40
0.8728247529019333
 40
0.9152133191192445
 40
0.9576545717632299
 40
1.0
 40
1.0
 40
1.0
 40
1.0
 10
185.7412926039955
 20
39.72806166352758
 30
0.0
 10
186.0030364364515
 20
39.66335975661468
 30
0.0
 10
186.6862869390339
 20
39.494463282526
 30
0.0
 10
187.7543545884315
 20
39.14931889936074
 30
0.0
 10
188.9363507615824
 20
38.70364814721988
 30
0.0
 10
190.0644582237796
 20
38.19550261753013
 30
0.0
 10
191.1274745833104
 20
37.62956917689012
 30
0.0
 10
192.1171600064484
 20
37.00898221068569
 30
0.0
 10
193.0167404536911
 20
36.34460941473473
 30
0.0
 10
193.8192339244484
 20
35.64454217162884
 30
0.0
 10
194.523216623145
 20
34.91367063616541
 30
0.0
 10
195.1300101079781
 20
34.14716561297296
 30
0.0
 10
195.6382205940822
 20
33.34495597338103
 30
0.0
 10
196.0395899603208
 20
32.51486565622103
 30
0.0
 10
196.3279882299551
 20
31.66553331427517
 30
0.0
 10
196.5003846311825
 20
30.80761140007711
 30
0.0
 10
196.55595402308
 20
29.94122521132604
 30
0.0
 10
196.4937045375581
 20
29.07658687463478
 30
0.0
 10
196.3160201515951
 20
28.222782484135
 30
0.0
 10
196.0277814892209
 20
27.38876552996011
 30
0.0
 10
195.6306219767458
 20
26.57528631216638
 30
0.0
 10
195.1342145806389
 20
25.79304474766801
 30
0.0
 10
194.5431017618191
 20
25.0455147425425
 30
0.0
 10
193.8739911989621
 20
24.3346799759009
 30
0.0
 10
193.3555190474413
 20
23.8909942867671
 30
0.0
 10
193.096575955709
 20
23.66940216505967
 30
0.0
  0
SPLINE
  5
178
330
1F
100
AcDbEntity
  8
0
  6
Continuous
 62
     7
370
    25
100
AcDbSpline
210
0.0
220
0.0
230
1.0
 70
     8
 71
     3
 72
    12
 73
     8
 74
     0
 42
0.000000001
 43
0.00000001
 40
0.0
 40
0.0
 40
0.0
 40
0.0
 40
0.0984521015290654
 40
0.3226196832547911
 40
0.5479905076118595
 40
0.7738657115680587
 40
0.9999999999999999
 40
0.9999999999999999
 40
0.9999999999999999
 40
0.9999999999999999
 10
186.1359225225089
 20
27.66964120584525
 30
0.0
 10
186.3717821206463
 20
27.53585559521378
 30
0.0
 10
187.1446752093856
 20
27.09745082115993
 30
0.0
 10
188.4185983273455
 20
26.36495990698399
 30
0.0
 10
189.9833144254049
 20
25.46490810224388
 30
0.0
 10
191.5417670569076
 20
24.56638826607892
 30
0.0
 10
192.5781083608374
 20
23.96851119319555
 30
0.0
 10
193.0965760197768
 20
23.66940131005586
 30
0.0
  0
SPLINE
  5
179
330
1F
100
AcDbEntity
  8
0
  6
Continuous
 62
     7
370
    25
100
AcDbSpline
210
0.0
220
0.0
230
1.0
 70
     8
 71
     3
 72
    21
 73
    17
 74
     0
 42
0.000000001
 43
0.00000001
 40
0.0
 40
0.0
 40
0.0
 40
0.0
 40
0.0749181558871946
 40
0.1502954894401523
 40
0.2250925471567793
 40
0.3001412751465879
 40
0.3754966043543209
 40
0.450212838942126
 40
0.5253707556040594
 40
0.6006821179868923
 40
0.6753579137136756
 40
0.7506034303196267
 40
0.8258489469255779
 40
0.900524742652361
 40
0.9758361050351939
 40
1.0
 40
1.0
 40
1.0
 40
1.0
 10
182.8437199899546
 20
32.89135410655054
 30
0.0
 10
182.6177373448828
 20
32.79529820265337
 30
0.0
 10
182.1643869941724
 20
32.60259766272575
 30
0.0
 10
181.4550329197379
 20
32.39016281228523
 30
0.0
 10
180.7425925551384
 20
32.24222250476838
 30
0.0
 10
180.0437549931304
 20
32.1576725803445
 30
0.0
 10
179.3769662205863
 20
32.13235978680769
 30
0.0
 10
178.7555893791656
 20
32.17091438529653
 30
0.0
 10
178.1978352523086
 20
32.25934849999457
 30
0.0
 10
177.7167735339595
 20
32.39361891194937
 30
0.0
 10
177.3225533756936
 20
32.57324348194188
 30
0.0
 10
177.0275633192871
 20
32.77909375477467
 30
0.0
 10
176.8355575914497
 20
33.00720668984186
 30
0.0
 10
176.760872068745
 20
33.25210719677593
 30
0.0
 10
176.7670546453552
 20
33.44076606434826
 30
0.0
 10
176.8348292334
 20
33.54386165860701
 30
0.0
 10
176.8512926039955
 20
33.56890498272022
 30
0.0
  0
SPLINE
  5
17A
330
1F
100
AcDbEntity
  8
0
  6
Continuous
 62
     7
370
    25
100
AcDbSpline
210
0.0
220
0.0
230
1.0
 70
     8
 71
     3
 72
    11
 73
     7
 74
     0
 42
0.000000001
 43
0.00000001
 40
0.0
 40
0.0
 40
0.0
 40
0.0
 40
0.2731007107047268
 40
0.5609735436445011
 40
0.8482598401974646
 40
1.0
 40
1.0
 40
1.0
 40
1.0
 10
185.7412926039955
 20
30.64178171362161
 30
0.0
 10
185.7743406618927
 20
30.46033991072576
 30
0.0
 10
185.8422243598197
 20
30.08764204819335
 30
0.0
 10
185.8007926600494
 20
29.51671638818164
 30
0.0
 10
185.6953039442366
 20
29.03210176900987
 30
0.0
 10
185.5601984977876
 20
28.75323658019894
 30
0.0
 10
185.5135021729134
 20
28.65685275708084
 30
0.0
  0
LINE
  5
17B
330
1F
100
AcDbEntity
  8
0
  6
Continuous
 62
     7
370
    25
100
AcDbLine
 10
186.50868
 20
27.078417
 30
0.0
 11
186.50868
 21
26.04141
 31
0.0
  0
SPLINE
  5
17C
330
1F
100
AcDbEntity
  8
0
  6
Continuous
 62
     7
370
    25
100
AcDbSpline
210
0.0
220
0.0
230
1.0
 70
     8
 71
     3
 72
    29
 73
    25
 74
     0
 42
0.000000001
 43
0.00000001
 40
0.0
 40
0.0
 40
0.0
 40
0.0
 40
0.0456270645110275
 40
0.0915332503075714
 40
0.1375394322869762
 40
0.183464102659681
 40
0.2291276970784646
 40
0.2739044333788966
 40
0.3189660962800383
 40
0.3641482604186786
 40
0.4092790202273286
 40
0.4550005594072206
 40
0.5005543767764519
 40
0.5464013344419064
 40
0.5923980591482257
 40
0.6383632691351647
 40
0.6833028092673691
 40
0.7280271313815438
 40
0.7730197673093885
 40
0.8181838930527513
 40
0.8641675885128851
 40
0.9099703133783661
 40
0.955506584784733
 40
0.9999999999999999
 40
0.9999999999999999
 40
0.9999999999999999
 40
0.9999999999999999
 10
186.5086795882787
 20
26.04141000142828
 30
0.0
 10
186.0866331054422
 20
25.92896222790722
 30
0.0
 10
185.2399582915154
 20
25.70337878723365
 30
0.0
 10
183.9266194443608
 20
25.44568883358439
 30
0.0
 10
182.5929012290343
 20
25.25007020118797
 30
0.0
 10
181.2506727745493
 20
25.12438734597179
 30
0.0
 10
179.9208688700545
 20
25.06841555246851
 30
0.0
 10
178.6098135434475
 20
25.0794408206208
 30
0.0
 10
177.3235849600435
 20
25.1531960916974
 30
0.0
 10
176.0637948734335
 20
25.29061189737401
 30
0.0
 10
174.8373215125011
 20
25.49123730781456
 30
0.0
 10
173.6564783274848
 20
25.75419532533445
 30
0.0
 10
172.5280612671824
 20
26.0784073484852
 30
0.0
 10
171.465128384196
 20
26.45683753820238
 30
0.0
 10
170.4754202963356
 20
26.88830282152575
 30
0.0
 10
169.5758465534871
 20
27.36501958781182
 30
0.0
 10
168.7733489324708
 20
27.88082151510012
 30
0.0
 10
168.069376208378
 20
28.43185880616204
 30
0.0
 10
167.4625467144957
 20
29.01450398364437
 30
0.0
 10
166.9544717129011
 20
29.63000163314117
 30
0.0
 10
166.5525882259254
 20
30.27225890431783
 30
0.0
 10
166.2661047106122
 20
30.93447178170748
 30
0.0
 10
166.0882740569244
 20
31.60305474574539
 30
0.0
 10
166.0679410231598
 20
32.048631909458
 30
0.0
 10
166.0578922698228
 20
32.26883982641794
 30
0.0
  0
SPLINE
  5
17D
330
1F
100
AcDbEntity
  8
0
  6
Continuous
 62
     7
370
    25
100
AcDbSpline
210
0.0
220
0.0
230
1.0
 70
     8
 71
     3
 72
    17
 73
    13
 74
     0
 42
0.000000001
 43
0.00000001
 40
0.0
 40
0.0
 40
0.0
 40
0.0
 40
0.0031512050079779
 40
0.1162616496284909
 40
0.2274005228995332
 40
0.3381610220099343
 40
0.4482252624176882
 40
0.5587158169603657
 40
0.6692597601717473
 40
0.7799309198835118
 40
0.8903119297111147
 40
1.0
 40
1.0
 40
1.0
 40
1.0
 10
196.5346929381683
 20
28.92960117483949
 30
0.0
 10
196.5352243053706
 20
28.92152907007299
 30
0.0
 10
196.5548287510796
 20
28.62371403939411
 30
0.0
 10
196.4851708628957
 20
28.0393719571345
 30
0.0
 10
196.3182876994553
 20
27.18582758008008
 30
0.0
 10
196.0271563548348
 20
26.35175684729932
 30
0.0
 10
195.6308741370752
 20
25.5382356708847
 30
0.0
 10
195.1276275574398
 20
24.74644175911528
 30
0.0
 10
194.5213329328386
 20
23.9797051311728
 30
0.0
 10
193.8152540951595
 20
23.24664132441088
 30
0.0
 10
193.0239300016077
 20
22.5498487527961
 30
0.0
 10
192.4255114687249
 20
22.12307014243929
 30
0.0
 10
192.1272443334133
 20
21.91035274394865
 30
0.0
  0
LINE
  5
17E
330
1F
100
AcDbEntity
  8
0
  6
Continuous
 62
     7
370
    25
100
AcDbLine
 10
193.096576
 20
23.669401
 30
0.0
 11
192.127244
 21
21.910353
 31
0.0
  0
SPLINE
  5
17F
330
1F
100
AcDbEntity
  8
0
  6
Continuous
 62
     7
370
    25
100
AcDbSpline
210
0.0
220
0.0
230
1.0
 70
     8
 71
     3
 72
    16
 73
    12
 74
     0
 42
0.000000001
 43
0.00000001
 40
0.0
 40
0.0
 40
0.0
 40
0.0
 40
0.1236853223598452
 40
0.2413922002245576
 40
0.353121075855062
 40
0.45887246651379
 40
0.5586469824306929
 40
0.6524453504881892
 40
0.7706309674479599
 40
0.9876211002800734
 40
1.0
 40
1.0
 40
1.0
 40
1.0
 10
188.2835772489798
 20
24.06067053651077
 30
0.0
 10
188.1678071320612
 20
24.13011963238611
 30
0.0
 10
187.9418627539407
 20
24.26566093783043
 30
0.0
 10
187.6113548855578
 20
24.46479561312188
 30
0.0
 10
187.2976463428572
 20
24.65450479660023
 30
0.0
 10
187.0007376715992
 20
24.83483522733317
 30
0.0
 10
186.7206296046857
 20
25.00579435796939
 30
0.0
 10
186.4289075165729
 20
25.18474108544187
 30
0.0
 10
186.0275699136487
 20
25.43304088453445
 30
0.0
 10
185.7023982324276
 20
25.63465508549796
 30
0.0
 10
185.4879576565052
 20
25.77136104749925
 30
0.0
 10
185.4763844360243
 20
25.77873898067488
 30
0.0
  0
SPLINE
  5
180
330
1F
100
AcDbEntity
  8
0
  6
Continuous
 62
     7
370
    25
100
AcDbSpline
210
0.0
220
0.0
230
1.0
 70
     8
 71
     3
 72
     9
 73
     5
 74
     0
 42
0.000000001
 43
0.00000001
 40
0.0
 40
0.0
 40
0.0
 40
0.0
 40
0.4999992840836489
 40
0.9999999999999999
 40
0.9999999999999999
 40
0.9999999999999999
 40
0.9999999999999999
 10
192.1272443344052
 20
21.91035274462395
 30
0.0
 10
191.4893950822689
 20
22.27099591178243
 30
0.0
 10
190.213694751407
 20
22.99228327886226
 30
0.0
 10
188.9269555008404
 20
23.70455031000497
 30
0.0
 10
188.2835849543595
 20
24.06068433549995
 30
0.0
  0
LINE
  5
181
330
1F
100
AcDbEntity
  8
0
  6
Continuous
 62
     7
370
    25
100
AcDbLine
 10
185.741293
 20
29.604775
 30
0.0
 11
185.765587
 21
29.431681
 31
0.0
  0
LINE
  5
182
330
1F
100
AcDbEntity
  8
0
  6
Continuous
 62
     7
370
    25
100
AcDbLine
 10
188.283217
 20
24.060886
 30
0.0
 11
185.359157
 21
25.74891
 31
0.0
  0
ARC
  5
183
330
1F
100
AcDbEntity
  8
0
  6
Continuous
 62
     7
370
    25
100
AcDbCircle
 10
181.296321
 20
197.208591
 30
0.0
 40
6.356321287781044
100
AcDbArc
 50
265.689926
 51
273.982922
  0
ARC
  5
184
330
1F
100
AcDbEntity
  8
0
  6
Continuous
 62
     7
370
    25
100
AcDbCircle
 10
181.296323
 20
188.749512
 30
0.0
 40
6.355096476445205
100
AcDbArc
 50
85.860299
 51
94.455865
  0
ARC
  5
185
330
1F
100
AcDbEntity
  8
0
  6
Continuous
 62
     7
370
    25
100
AcDbCircle
 10
181.296319
 20
187.862521
 30
0.0
 40
7.681966854275831
100
AcDbArc
 50
86.576245
 51
93.685023
  0
ELLIPSE
  5
186
330
1F
100
AcDbEntity
  8
0
  6
Continuous
 62
     7
370
    25
100
AcDbEllipse
 10
181.296293
 20
22.390814
 30
0.0
 11
4.444999994549988
 21
2.566460982214288
 31
0.0
210
0.0
220
0.0
230
1.0
 40
0.00007
 41
0.0
 42
6.283185307179586
  0
SPLINE
  5
187
330
1F
100
AcDbEntity
  8
0
  6
Continuous
 62
     7
370
    25
100
AcDbSpline
210
0.0
220
0.0
230
1.0
 70
    11
 71
     3
 72
    99
 73
    95
 74
     0
 42
0.000000001
 43
0.00000001
 40
0.0
 40
0.0
 40
0.0
 40
0.0
 40
0.0312499999999724
 40
0.0312499999999724
 40
0.0468749999999586
 40
0.0468749999999586
 40
0.0624999999999449
 40
0.0624999999999449
 40
0.0937499999999173
 40
0.0937499999999173
 40
0.109374999999912
 40
0.109374999999912
 40
0.1249999999999067
 40
0.1249999999999067
 40
0.1562499999999105
 40
0.1562499999999105
 40
0.1718749999999123
 40
0.1718749999999123
 40
0.1874999999999142
 40
0.1874999999999142
 40
0.2031249999999162
 40
0.2031249999999162
 40
0.218749999999918
 40
0.218749999999918
 40
0.2499999999999219
 40
0.2499999999999219
 40
0.2812499999999257
 40
0.2812499999999257
 40
0.3124999999999296
 40
0.3124999999999296
 40
0.3281249999999314
 40
0.3281249999999314
 40
0.3437499999999333
 40
0.3437499999999333
 40
0.3593749999999352
 40
0.3593749999999352
 40
0.3749999999999371
 40
0.3749999999999371
 40
0.4062499999999408
 40
0.4062499999999408
 40
0.4218749999999342
 40
0.4218749999999342
 40
0.4374999999999276
 40
0.4374999999999276
 40
0.4687499999999144
 40
0.4687499999999144
 40
0.4843749999999077
 40
0.4843749999999077
 40
0.4999999999999012
 40
0.4999999999999012
 40
0.531249999999888
 40
0.531249999999888
 40
0.5624999999998747
 40
0.5624999999998747
 40
0.5781249999998775
 40
0.5781249999998775
 40
0.5937499999998804
 40
0.5937499999998804
 40
0.6249999999999031
 40
0.6249999999999031
 40
0.6406249999999072
 40
0.6406249999999072
 40
0.6562499999999112
 40
0.6562499999999112
 40
0.6874999999999308
 40
0.6874999999999308
 40
0.7031249999999407
 40
0.7031249999999407
 40
0.7187499999999506
 40
0.7343749999999605
 40
0.7343749999999605
 40
0.7499999999999702
 40
0.7499999999999702
 40
0.7812499999999899
 40
0.7812499999999899
 40
0.8125000000000095
 40
0.8125000000000095
 40
0.8437500000000292
 40
0.8437500000000292
 40
0.8593750000000332
 40
0.8593750000000332
 40
0.8750000000000373
 40
0.8750000000000373
 40
0.8906250000000414
 40
0.8906250000000414
 40
0.9062500000000455
 40
0.9062500000000455
 40
0.9375000000000371
 40
0.9375000000000371
 40
0.9531250000000328
 40
0.9531250000000328
 40
0.9687500000000285
 40
0.9687500000000285
 40
1.0
 40
1.0
 40
1.0
 40
1.0
 10
178.9687126301868
 20
187.6813032549195
 30
0.0
 10
178.9687126301868
 20
187.6254340965766
 30
0.0
 10
178.9628003704152
 20
187.5726256227465
 30
0.0
 10
178.9455566912663
 20
187.4978540327988
 30
0.0
 10
178.938404234333
 20
187.4736769553703
 30
0.0
 10
178.9212707947433
 20
187.4268706148794
 30
0.0
 10
178.9112576921061
 20
187.4042263692645
 30
0.0
 10
178.8777130071643
 20
187.3401697707378
 30
0.0
 10
178.8505378519502
 20
187.3020505723558
 30
0.0
 10
178.8030241752391
 20
187.2518834410021
 30
0.0
 10
178.7859577919381
 20
187.2362674566799
 30
0.0
 10
178.750043559193
 20
187.2079038502464
 30
0.0
 10
178.7312583726849
 20
187.1951791762229
 30
0.0
 10
178.6725952049158
 20
187.1613179435095
 30
0.0
 10
178.6304320339854
 20
187.1444501924013
 30
0.0
 10
178.5628717101645
 20
187.1282590042344
 30
0.0
 10
178.5397735237971
 20
187.1244433544993
 30
0.0
 10
178.4931563778117
 20
187.1200565597775
 30
0.0
 10
178.4695407549871
 20
187.1194608938413
 30
0.0
 10
178.421754559737
 20
187.1214734275567
 30
0.0
 10
178.397583917317
 20
187.1240814890988
 30
0.0
 10
178.348720611658
 20
187.1325989894916
 30
0.0
 10
178.3238826421326
 20
187.1385598604201
 30
0.0
 10
178.2499718550006
 20
187.1612235146488
 30
0.0
 10
178.2014246528271
 20
187.1825865844314
 30
0.0
 10
178.1058738054237
 20
187.2376637829513
 30
0.0
 10
178.0584557477768
 20
187.271845835076
 30
0.0
 10
177.9690055945372
 20
187.3499845053927
 30
0.0
 10
177.92656024416
 20
187.3940576376869
 30
0.0
 10
177.8660746214248
 20
187.4676103378449
 30
0.0
 10
177.8464193798246
 20
187.4934378544393
 30
0.0
 10
177.8089643989006
 20
187.5464493090483
 30
0.0
 10
177.791051563618
 20
187.5737616155573
 30
0.0
 10
177.7567499003543
 20
187.6299367992152
 30
0.0
 10
177.7403612395599
 20
187.6587997649445
 30
0.0
 10
177.7090425508993
 20
187.7180580097142
 30
0.0
 10
177.6940427622069
 20
187.7486104583863
 30
0.0
 10
177.651726528435
 20
187.8414000782926
 30
0.0
 10
177.6272224182813
 20
187.9042994179378
 30
0.0
 10
177.5953918108681
 20
187.9999664912887
 30
0.0
 10
177.5856096163522
 20
188.0320772191784
 30
0.0
 10
177.567677512833
 20
188.0967246378269
 30
0.0
 10
177.5595815869607
 20
188.1291007416701
 30
0.0
 10
177.5381634173374
 20
188.2247188809312
 30
0.0
 10
177.5274970341667
 20
188.2870968403321
 30
0.0
 10
177.5166842365071
 20
188.3784493393911
 30
0.0
 10
177.5139449385584
 20
188.4087016839661
 30
0.0
 10
177.5103239851621
 20
188.467388849223
 30
0.0
 10
177.509428698852
 20
188.4958269013588
 30
0.0
 10
177.5094057812683
 20
188.5784859391819
 30
0.0
 10
177.5129063002548
 20
188.630072646625
 30
0.0
 10
177.527335163488
 20
188.7260306993486
 30
0.0
 10
177.5380585229283
 20
188.7689241716378
 30
0.0
 10
177.5593733584778
 20
188.8258055308212
 30
0.0
 10
177.5673611598571
 20
188.8435362365055
 30
0.0
 10
177.5852038331672
 20
188.8765329940141
 30
0.0
 10
177.595087804859
 20
188.8918063161699
 30
0.0
 10
177.6270296570033
 20
188.9330078624089
 30
0.0
 10
177.6515270618464
 20
188.9547412628274
 30
0.0
 10
177.693542209864
 20
188.9791039455088
 30
0.0
 10
177.7085097113048
 20
188.9858652845099
 30
0.0
 10
177.7399893862621
 20
188.9964358931172
 30
0.0
 10
177.75642269444
 20
189.0002380178469
 30
0.0
 10
177.8078675572429
 20
189.0073792488419
 30
0.0
 10
177.8450046954787
 20
189.0064969519138
 30
0.0
 10
177.9055495439213
 20
188.9966297967244
 30
0.0
 10
177.9264845888694
 20
188.9918982805331
 30
0.0
 10
177.969095767199
 20
188.9797998558655
 30
0.0
 10
178.0126646684845
 20
188.96503554233
 30
0.0
 10
178.0582022248486
 20
188.9450373905976
 30
0.0
 10
178.104765585651
 20
188.9223867662769
 30
0.0
 10
178.1287031475316
 20
188.9096494904955
 30
0.0
 10
178.2009153943886
 20
188.8679999099233
 30
0.0
 10
178.2494916115181
 20
188.835808591384
 30
0.0
 10
178.3473783880375
 20
188.762730298637
 30
0.0
 10
178.3971377023863
 20
188.7213685678126
 30
0.0
 10
178.4930770231507
 20
188.6328913606599
 30
0.0
 10
178.5396529613776
 20
188.5855562980527
 30
0.0
 10
178.6070547350331
 20
188.5096086578486
 30
0.0
 10
178.6291405879019
 20
188.4834038498599
 30
0.0
 10
178.6714708865505
 20
188.4303884953309
 30
0.0
 10
178.6918380403533
 20
188.4034462946292
 30
0.0
 10
178.7309343346105
 20
188.3486530386288
 30
0.0
 10
178.7496635751313
 20
188.3208020672881
 30
0.0
 10
178.7853919204684
 20
188.2641235975896
 30
0.0
 10
178.8024621174136
 20
188.2351644094369
 30
0.0
 10
178.8503464294004
 20
188.1476162533293
 30
0.0
 10
178.877522773788
 20
188.0890670393686
 30
0.0
 10
178.9109511477151
 20
188.000691149813
 30
0.0
 10
178.9208636534614
 20
187.9711408897709
 30
0.0
 10
178.9380944592189
 20
187.9118129414763
 30
0.0
 10
178.9453812236251
 20
187.8820833548728
 30
0.0
 10
178.9627987372903
 20
187.7943504059094
 30
0.0
 10
178.9687126301868
 20
187.7371724132625
 30
0.0
 10
178.9687126301868
 20
187.6813032549195
 30
0.0
  0
SPLINE
  5
188
330
1F
100
AcDbEntity
  8
0
  6
Continuous
 62
     7
370
    25
100
AcDbSpline
210
0.0
220
0.0
230
1.0
 70
    11
 71
     3
 72
    99
 73
    95
 74
     0
 42
0.000000001
 43
0.00000001
 40
0.0
 40
0.0
 40
0.0
 40
0.0
 40
0.0312499999999907
 40
0.0312499999999907
 40
0.046874999999986
 40
0.046874999999986
 40
0.0624999999999813
 40
0.0624999999999813
 40
0.0937499999999908
 40
0.0937499999999908
 40
0.109374999999987
 40
0.109374999999987
 40
0.1249999999999833
 40
0.1249999999999833
 40
0.1562499999999613
 40
0.1562499999999613
 40
0.1718749999999504
 40
0.1718749999999504
 40
0.1874999999999394
 40
0.1874999999999394
 40
0.2031249999999284
 40
0.2031249999999284
 40
0.2187499999999174
 40
0.2187499999999174
 40
0.2499999999998954
 40
0.2499999999998954
 40
0.2812499999998735
 40
0.2812499999998735
 40
0.3124999999998515
 40
0.3124999999998515
 40
0.3281249999998444
 40
0.3281249999998444
 40
0.3437499999998373
 40
0.3437499999998373
 40
0.3593749999998302
 40
0.3593749999998302
 40
0.3749999999998231
 40
0.3749999999998231
 40
0.4062499999998231
 40
0.4062499999998231
 40
0.4218749999998316
 40
0.4218749999998316
 40
0.4374999999998401
 40
0.4374999999998401
 40
0.468749999999857
 40
0.468749999999857
 40
0.4843749999998655
 40
0.4843749999998655
 40
0.499999999999874
 40
0.499999999999874
 40
0.5312499999998704
 40
0.5312499999998704
 40
0.5624999999998669
 40
0.5624999999998669
 40
0.5781249999998651
 40
0.5781249999998651
 40
0.5937499999998632
 40
0.5937499999998632
 40
0.6249999999998765
 40
0.6249999999998765
 40
0.6406249999998832
 40
0.6406249999998832
 40
0.6562499999998899
 40
0.6562499999998899
 40
0.6874999999998919
 40
0.6874999999998919
 40
0.7031249999998929
 40
0.7031249999998929
 40
0.7187499999998939
 40
0.7343749999998949
 40
0.7343749999998949
 40
0.7499999999998958
 40
0.7499999999998958
 40
0.7812499999998977
 40
0.7812499999998977
 40
0.8124999999998997
 40
0.8124999999998997
 40
0.8437499999999017
 40
0.8437499999999017
 40
0.8593749999999083
 40
0.8593749999999083
 40
0.8749999999999148
 40
0.8749999999999148
 40
0.8906249999999214
 40
0.8906249999999214
 40
0.906249999999928
 40
0.906249999999928
 40
0.9374999999999578
 40
0.9374999999999578
 40
0.9531249999999634
 40
0.9531249999999634
 40
0.9687499999999689
 40
0.9687499999999689
 40
1.0
 40
1.0
 40
1.0
 40
1.0
 10
178.9687126301868
 20
181.9777656838975
 30
0.0
 10
178.9687126301868
 20
181.9218965255546
 30
0.0
 10
178.9628003704152
 20
181.8690880517243
 30
0.0
 10
178.9455566912663
 20
181.7943164617768
 30
0.0
 10
178.938404234333
 20
181.7701393843483
 30
0.0
 10
178.9212707947433
 20
181.7233330438574
 30
0.0
 10
178.9112576921061
 20
181.7006887982427
 30
0.0
 10
178.8777130071643
 20
181.6366321997157
 30
0.0
 10
178.8505378519503
 20
181.5985130013336
 30
0.0
 10
178.8030241752391
 20
181.5483458699802
 30
0.0
 10
178.7859577919381
 20
181.5327298856578
 30
0.0
 10
178.750043559193
 20
181.5043662792244
 30
0.0
 10
178.7312583726849
 20
181.491641605201
 30
0.0
 10
178.6725952049158
 20
181.4577803724875
 30
0.0
 10
178.6304320339854
 20
181.4409126213793
 30
0.0
 10
178.5628717101645
 20
181.4247214332124
 30
0.0
 10
178.5397735237971
 20
181.4209057834773
 30
0.0
 10
178.4931563778117
 20
181.4165189887555
 30
0.0
 10
178.4695407549871
 20
181.4159233228192
 30
0.0
 10
178.421754559737
 20
181.4179358565348
 30
0.0
 10
178.397583917317
 20
181.4205439180769
 30
0.0
 10
178.348720611658
 20
181.4290614184695
 30
0.0
 10
178.3238826421326
 20
181.4350222893981
 30
0.0
 10
178.2499718550006
 20
181.4576859436268
 30
0.0
 10
178.2014246528271
 20
181.4790490134095
 30
0.0
 10
178.1058738054237
 20
181.5341262119293
 30
0.0
 10
178.0584557477768
 20
181.5683082640541
 30
0.0
 10
177.9690055945372
 20
181.6464469343707
 30
0.0
 10
177.92656024416
 20
181.6905200666647
 30
0.0
 10
177.8660746214248
 20
181.7640727668229
 30
0.0
 10
177.8464193798246
 20
181.7899002834172
 30
0.0
 10
177.8089643989006
 20
181.8429117380264
 30
0.0
 10
177.791051563618
 20
181.8702240445353
 30
0.0
 10
177.7567499003543
 20
181.9263992281932
 30
0.0
 10
177.7403612395599
 20
181.9552621939227
 30
0.0
 10
177.7090425508993
 20
182.0145204386922
 30
0.0
 10
177.6940427622069
 20
182.0450728873644
 30
0.0
 10
177.651726528435
 20
182.1378625072707
 30
0.0
 10
177.6272224182813
 20
182.2007618469157
 30
0.0
 10
177.5953918108681
 20
182.2964289202669
 30
0.0
 10
177.5856096163522
 20
182.3285396481565
 30
0.0
 10
177.567677512833
 20
182.393187066805
 30
0.0
 10
177.5595815869608
 20
182.4255631706482
 30
0.0
 10
177.5381634173374
 20
182.5211813099092
 30
0.0
 10
177.5274970341667
 20
182.5835592693104
 30
0.0
 10
177.5166842365071
 20
182.6749117683692
 30
0.0
 10
177.5139449385584
 20
182.7051641129441
 30
0.0
 10
177.5103239851621
 20
182.7638512782009
 30
0.0
 10
177.509428698852
 20
182.7922893303369
 30
0.0
 10
177.5094057812683
 20
182.8749483681598
 30
0.0
 10
177.5129063002548
 20
182.926535075603
 30
0.0
 10
177.527335163488
 20
183.0224931283266
 30
0.0
 10
177.5380585229282
 20
183.0653866006159
 30
0.0
 10
177.5593733584778
 20
183.1222679597992
 30
0.0
 10
177.5673611598571
 20
183.1399986654836
 30
0.0
 10
177.5852038331672
 20
183.1729954229922
 30
0.0
 10
177.595087804859
 20
183.1882687451478
 30
0.0
 10
177.6270296570033
 20
183.2294702913869
 30
0.0
 10
177.6515270618464
 20
183.2512036918053
 30
0.0
 10
177.693542209864
 20
183.2755663744868
 30
0.0
 10
177.7085097113048
 20
183.2823277134879
 30
0.0
 10
177.7399893862621
 20
183.2928983220953
 30
0.0
 10
177.75642269444
 20
183.296700446825
 30
0.0
 10
177.8078675572429
 20
183.30384167782
 30
0.0
 10
177.8450046954787
 20
183.302959380892
 30
0.0
 10
177.9055495439213
 20
183.2930922257023
 30
0.0
 10
177.9264845888694
 20
183.2883607095112
 30
0.0
 10
177.9690958314285
 20
183.2762622766975
 30
0.0
 10
178.0126646684845
 20
183.2614979713081
 30
0.0
 10
178.0582022248486
 20
183.2414998195757
 30
0.0
 10
178.104765585651
 20
183.218849195255
 30
0.0
 10
178.1287031475316
 20
183.2061119194735
 30
0.0
 10
178.2009153943886
 20
183.1644623389013
 30
0.0
 10
178.2494916115181
 20
183.132271020362
 30
0.0
 10
178.3473783880375
 20
183.059192727615
 30
0.0
 10
178.3971377023863
 20
183.0178309967906
 30
0.0
 10
178.4930770231507
 20
182.9293537896379
 30
0.0
 10
178.5396529613777
 20
182.8820187270308
 30
0.0
 10
178.6070547350331
 20
182.8060710868265
 30
0.0
 10
178.6291405879019
 20
182.779866278838
 30
0.0
 10
178.6714708865505
 20
182.7268509243088
 30
0.0
 10
178.6918380403533
 20
182.6999087236073
 30
0.0
 10
178.7309343346105
 20
182.6451154676069
 30
0.0
 10
178.7496635751313
 20
182.617264496266
 30
0.0
 10
178.7853919204684
 20
182.5605860265676
 30
0.0
 10
178.8024621174137
 20
182.5316268384149
 30
0.0
 10
178.8503464294004
 20
182.4440786823073
 30
0.0
 10
178.877522773788
 20
182.3855294683464
 30
0.0
 10
178.9109511477151
 20
182.297153578791
 30
0.0
 10
178.9208636534614
 20
182.2676033187488
 30
0.0
 10
178.9380944592189
 20
182.2082753704543
 30
0.0
 10
178.9453812236251
 20
182.1785457838508
 30
0.0
 10
178.9627987372903
 20
182.0908128348875
 30
0.0
 10
178.9687126301868
 20
182.0336348422405
 30
0.0
 10
178.9687126301868
 20
181.9777656838975
 30
0.0
  0
ELLIPSE
  5
189
330
1F
100
AcDbEntity
  8
0
  6
Continuous
 62
     7
370
    25
100
AcDbEllipse
 10
181.296293
 20
22.390814
 30
0.0
 11
3.682999996696566
 21
2.126496243106082
 31
0.0
210
0.0
220
0.0
230
1.0
 40
0.00007
 41
0.0
 42
6.283185307179586
  0
SPLINE
  5
18A
330
1F
100
AcDbEntity
  8
0
  6
Continuous
 62
     7
370
    25
100
AcDbSpline
210
0.0
220
0.0
230
1.0
 70
     8
 71
     3
 72
    14
 73
    10
 74
     0
 42
0.000000001
 43
0.00000001
 40
0.0
 40
0.0
 40
0.0
 40
0.0
 40
0.0372408637070471
 40
0.2045759159904241
 40
0.3672942847688246
 40
0.5317935381253571
 40
0.7018437629856755
 40
0.8730852801555988
 40
1.0
 40
1.0
 40
1.0
 40
1.0
 10
178.924263034649
 20
187.4485765969713
 30
0.0
 10
178.9060102480487
 20
187.4481009690721
 30
0.0
 10
178.8057418824299
 20
187.4454881936565
 30
0.0
 10
178.6182069255418
 20
187.5546080203817
 30
0.0
 10
178.4016342767653
 20
187.7655339273091
 30
0.0
 10
178.2315880950981
 20
188.0592553643391
 30
0.0
 10
178.1186203279717
 20
188.3908745203752
 30
0.0
 10
178.0626464588913
 20
188.703666927251
 30
0.0
 10
178.0712816458783
 20
188.8622716712298
 30
0.0
 10
178.0749573440567
 20
188.9297841836281
 30
0.0
  0
SPLINE
  5
18B
330
1F
100
AcDbEntity
  8
0
  6
Continuous
 62
     7
370
    25
100
AcDbSpline
210
0.0
220
0.0
230
1.0
 70
     8
 71
     3
 72
    14
 73
    10
 74
     0
 42
0.000000001
 43
0.00000001
 40
0.0
 40
0.0
 40
0.0
 40
0.0
 40
0.0372408637070471
 40
0.2045759159904241
 40
0.3672942847688245
 40
0.5317935381253571
 40
0.7018437629856755
 40
0.8730852801555988
 40
1.0
 40
1.0
 40
1.0
 40
1.0
 10
178.924263034649
 20
181.7450390259493
 30
0.0
 10
178.9060102480487
 20
181.7445633980501
 30
0.0
 10
178.8057418824299
 20
181.7419506226346
 30
0.0
 10
178.6182069255418
 20
181.8510704493597
 30
0.0
 10
178.4016342767653
 20
182.0619963562871
 30
0.0
 10
178.2315880950981
 20
182.3557177933171
 30
0.0
 10
178.1186203279717
 20
182.6873369493532
 30
0.0
 10
178.0626464588913
 20
183.0001293562291
 30
0.0
 10
178.0712816458783
 20
183.1587341002078
 30
0.0
 10
178.0749573440567
 20
183.2262466126061
 30
0.0
  0
ENDSEC
  0
SECTION
  2
OBJECTS
  0
DICTIONARY
  5
C
330
0
100
AcDbDictionary
281
     1
  3
ACAD_DETAILVIEWSTYLE
350
1C1
  3
ACAD_GROUP
350
D
  3
ACAD_IMAGE_DICT
350
1B6
  3
ACAD_LAYOUT
350
1A
  3
ACAD_MATERIAL
350
1A8
  3
ACAD_MLEADERSTYLE
350
1BE
  3
ACAD_MLINESTYLE
350
17
  3
ACAD_PLOTSETTINGS
350
19
  3
ACAD_PLOTSTYLENAME
350
E
  3
ACAD_SCALELIST
350
47
  3
ACAD_SECTIONVIEWSTYLE
350
1C2
  3
ACAD_TABLESTYLE
350
1B2
  3
ACAD_VISUALSTYLE
350
18F
  3
ACDB_RECOMPOSE_DATA
350
1BD
  3
AcDbVariableDictionary
350
1BF
  3
HOST_DOC_SETTINGS
350
1B4
  3
MCS_STREAM_DICT
350
1AE
  0
SUN
  5
1B1
330
29
100
AcDbSun
 90
        1
290
     0
 63
     7
421
 16777215
 40
1.0
291
     1
 91
  2455826
 92
 54000000
292
     0
 70
     2
 71
   256
280
     1
  0
DICTIONARY
  5
1C1
102
{ACAD_REACTORS
330
C
102
}
330
C
100
AcDbDictionary
281
     1
  0
DICTIONARY
  5
D
102
{ACAD_REACTORS
330
C
102
}
330
C
100
AcDbDictionary
281
     1
  0
DICTIONARY
  5
1B6
102
{ACAD_REACTORS
330
C
102
}
330
C
100
AcDbDictionary
281
     1
  0
DICTIONARY
  5
1A
102
{ACAD_REACTORS
330
C
102
}
330
C
100
AcDbDictionary
281
     1
  3
Layout1
350
1E
  3
Layout2
350
26
  3
Model
350
22
  0
DICTIONARY
  5
1A8
102
{ACAD_REACTORS
330
C
102
}
330
C
100
AcDbDictionary
281
     1
  3
ByBlock
350
1AA
  3
ByLayer
350
1A9
  3
Global
350
1AB
  0
DICTIONARY
  5
1BE
102
{ACAD_REACTORS
330
C
102
}
330
C
100
AcDbDictionary
281
     1
  0
DICTIONARY
  5
17
102
{ACAD_REACTORS
330
C
102
}
330
C
100
AcDbDictionary
281
     1
  3
Standard
350
18
  0
DICTIONARY
  5
19
102
{ACAD_REACTORS
330
C
102
}
330
C
100
AcDbDictionary
281
     1
  0
ACDBDICTIONARYWDFLT
  5
E
102
{ACAD_REACTORS
330
C
102
}
330
C
100
AcDbDictionary
281
     1
  3
Normal
350
F
100
AcDbDictionaryWithDefault
340
F
  0
DICTIONARY
  5
47
102
{ACAD_REACTORS
330
C
102
}
330
C
100
AcDbDictionary
281
     1
  3
A0
350
48
  3
A1
350
49
  3
A2
350
4A
  3
A3
350
4B
  3
A4
350
4C
  3
A5
350
4D
  3
A6
350
4E
  3
A7
350
4F
  3
A8
350
50
  3
A9
350
51
  3
B0
350
52
  3
B1
350
53
  3
B2
350
54
  3
B3
350
55
  3
B4
350
56
  3
B5
350
57
  3
B6
350
58
  0
DICTIONARY
  5
1C2
102
{ACAD_REACTORS
330
C
102
}
330
C
100
AcDbDictionary
281
     1
  0
DICTIONARY
  5
1B2
102
{ACAD_REACTORS
330
C
102
}
330
C
100
AcDbDictionary
281
     1
  3
Standard
350
1B3
  0
DICTIONARY
  5
18F
102
{ACAD_REACTORS
330
C
102
}
330
C
100
AcDbDictionary
281
     1
  3
2dWireframe
350
194
  3
Basic
350
197
  3
Brighten
350
19B
  3
ColorChange
350
19F
  3
Conceptual
350
199
  3
Dim
350
19A
  3
EdgeColorOff
350
1A2
  3
Facepattern
350
19E
  3
Flat
350
190
  3
FlatWithEdges
350
191
  3
Gouraud
350
192
  3
GouraudWithEdges
350
193
  3
Hidden
350
196
  3
JitterOff
350
1A0
  3
Linepattern
350
19D
  3
OverhangOff
350
1A1
  3
Realistic
350
198
  3
Shaded
350
1A7
  3
Shaded with edges
350
1A6
  3
Shades of Gray
350
1A3
  3
Sketchy
350
1A4
  3
Thicken
350
19C
  3
Wireframe
350
195
  3
X-Ray
350
1A5
  0
XRECORD
  5
1BD
102
{ACAD_REACTORS
330
C
102
}
330
C
100
AcDbXrecord
280
     1
 90
        1
330
1B3
  0
DICTIONARY
  5
1BF
102
{ACAD_REACTORS
330
C
102
}
330
C
100
AcDbDictionary
281
     1
  3
MSLTSCALE
350
1C0
  0
DICTIONARY
  5
1B4
102
{ACAD_REACTORS
330
C
102
}
330
C
100
AcDbDictionary
281
     1
  3
NCDocParameters
350
1B5
  0
DICTIONARY
  5
1AE
102
{ACAD_REACTORS
330
C
102
}
330
C
100
AcDbDictionary
281
     1
  3
MC_VERSION_DATA
350
1B9
  3
MCS_DOCUMENT_ID
350
1AF
  3
MCS_PARAMS_DATA
350
1B7
  0
LAYOUT
  5
1E
102
{ACAD_REACTORS
330
1A
102
}
330
1A
100
AcDbPlotSettings
  1

  2
none_device
  4

  6

 40
0.0
 41
0.0
 42
0.0
 43
0.0
 44
0.0
 45
0.0
 46
0.0
 47
0.0
 48
0.0
 49
0.0
140
0.0
141
0.0
142
1.0
143
1.0
 70
   688
 72
     1
 73
     0
 74
     5
  7

 75
    16
 76
     0
 77
     2
 78
   300
147
1.0
148
0.0
149
0.0
100
AcDbLayout
  1
Layout1
 70
     0
 71
     1
 10
0.0
 20
0.0
 11
420.0
 21
297.0
 12
0.0
 22
0.0
 32
0.0
 14
1.000000E+20
 24
1.000000E+20
 34
1.000000E+20
 15
-1.000000E+20
 25
-1.000000E+20
 35
-1.000000E+20
146
0.0
 13
0.0
 23
0.0
 33
0.0
 16
1.0
 26
0.0
 36
0.0
 17
0.0
 27
1.0
 37
0.0
 76
     0
330
1B
  0
LAYOUT
  5
26
102
{ACAD_REACTORS
330
1A
102
}
330
1A
100
AcDbPlotSettings
  1

  2
none_device
  4

  6

 40
0.0
 41
0.0
 42
0.0
 43
0.0
 44
0.0
 45
0.0
 46
0.0
 47
0.0
 48
0.0
 49
0.0
140
0.0
141
0.0
142
1.0
143
1.0
 70
   688
 72
     1
 73
     0
 74
     5
  7

 75
    16
 76
     0
 77
     2
 78
   300
147
1.0
148
0.0
149
0.0
100
AcDbLayout
  1
Layout2
 70
     1
 71
     2
 10
0.0
 20
0.0
 11
0.0
 21
0.0
 12
0.0
 22
0.0
 32
0.0
 14
0.0
 24
0.0
 34
0.0
 15
0.0
 25
0.0
 35
0.0
146
0.0
 13
0.0
 23
0.0
 33
0.0
 16
1.0
 26
0.0
 36
0.0
 17
0.0
 27
1.0
 37
0.0
 76
     0
330
23
  0
LAYOUT
  5
22
102
{ACAD_REACTORS
330
1A
102
}
330
1A
100
AcDbPlotSettings
  1

  2
none_device
  4
Letter_(8.50_x_11.00_Inches)
  6

 40
6.35
 41
6.35
 42
6.350005
 43
6.350005
 44
215.9
 45
279.4
 46
0.0
 47
0.0
 48
0.0
 49
0.0
140
0.0
141
0.0
142
1.0
143
1.0
 70
  1712
 72
     1
 73
     0
 74
     0
  7

 75
     0
 76
     0
 77
     2
 78
   300
147
1.0
148
0.0
149
0.0
100
AcDbLayout
  1
Model
 70
     1
 71
     0
 10
0.0
 20
0.0
 11
279.4
 21
215.9
 12
0.0
 22
0.0
 32
0.0
 14
0.0
 24
0.0
 34
0.0
 15
279.4
 25
215.9
 35
0.0
146
0.0
 13
0.0
 23
0.0
 33
0.0
 16
1.0
 26
0.0
 36
0.0
 17
0.0
 27
1.0
 37
0.0
 76
     0
330
1F
331
29
  0
MATERIAL
  5
1AA
102
{ACAD_REACTORS
330
1A8
102
}
330
1A8
100
AcDbMaterial
  1
ByBlock
 72
     1
 94
      127
  0
MATERIAL
  5
1A9
102
{ACAD_REACTORS
330
1A8
102
}
330
1A8
100
AcDbMaterial
  1
ByLayer
 72
     1
 94
      127
  0
MATERIAL
  5
1AB
102
{ACAD_REACTORS
330
1A8
102
}
330
1A8
100
AcDbMaterial
  1
Global
 72
     1
 94
      127
  0
MLINESTYLE
  5
18
102
{ACAD_REACTORS
330
17
102
}
330
17
100
AcDbMlineStyle
  2
Standard
 70
     0
  3

 62
   256
 51
90.0
 52
90.0
 71
     2
 49
0.5
 62
   256
  6
BYLAYER
 49
-0.5
 62
   256
  6
BYLAYER
  0
ACDBPLACEHOLDER
  5
F
102
{ACAD_REACTORS
330
E
102
}
330
E
  0
SCALE
  5
48
102
{ACAD_REACTORS
330
47
102
}
330
47
100
AcDbScale
 70
     0
300
1:1
140
1.0
141
1.0
290
     1
  0
SCALE
  5
49
102
{ACAD_REACTORS
330
47
102
}
330
47
100
AcDbScale
 70
     0
300
1:2
140
1.0
141
2.0
290
     0
  0
SCALE
  5
4A
102
{ACAD_REACTORS
330
47
102
}
330
47
100
AcDbScale
 70
     0
300
1:4
140
1.0
141
4.0
290
     0
  0
SCALE
  5
4B
102
{ACAD_REACTORS
330
47
102
}
330
47
100
AcDbScale
 70
     0
300
1:5
140
1.0
141
5.0
290
     0
  0
SCALE
  5
4C
102
{ACAD_REACTORS
330
47
102
}
330
47
100
AcDbScale
 70
     0
300
1:8
140
1.0
141
8.0
290
     0
  0
SCALE
  5
4D
102
{ACAD_REACTORS
330
47
102
}
330
47
100
AcDbScale
 70
     0
300
1:10
140
1.0
141
10.0
290
     0
  0
SCALE
  5
4E
102
{ACAD_REACTORS
330
47
102
}
330
47
100
AcDbScale
 70
     0
300
1:16
140
1.0
141
16.0
290
     0
  0
SCALE
  5
4F
102
{ACAD_REACTORS
330
47
102
}
330
47
100
AcDbScale
 70
     0
300
1:20
140
1.0
141
20.0
290
     0
  0
SCALE
  5
50
102
{ACAD_REACTORS
330
47
102
}
330
47
100
AcDbScale
 70
     0
300
1:30
140
1.0
141
30.0
290
     0
  0
SCALE
  5
51
102
{ACAD_REACTORS
330
47
102
}
330
47
100
AcDbScale
 70
     0
300
1:40
140
1.0
141
40.0
290
     0
  0
SCALE
  5
52
102
{ACAD_REACTORS
330
47
102
}
330
47
100
AcDbScale
 70
     0
300
1:50
140
1.0
141
50.0
290
     0
  0
SCALE
  5
53
102
{ACAD_REACTORS
330
47
102
}
330
47
100
AcDbScale
 70
     0
300
1:100
140
1.0
141
100.0
290
     0
  0
SCALE
  5
54
102
{ACAD_REACTORS
330
47
102
}
330
47
100
AcDbScale
 70
     0
300
2:1
140
2.0
141
1.0
290
     0
  0
SCALE
  5
55
102
{ACAD_REACTORS
330
47
102
}
330
47
100
AcDbScale
 70
     0
300
4:1
140
4.0
141
1.0
290
     0
  0
SCALE
  5
56
102
{ACAD_REACTORS
330
47
102
}
330
47
100
AcDbScale
 70
     0
300
8:1
140
8.0
141
1.0
290
     0
  0
SCALE
  5
57
102
{ACAD_REACTORS
330
47
102
}
330
47
100
AcDbScale
 70
     0
300
10:1
140
10.0
141
1.0
290
     0
  0
SCALE
  5
58
102
{ACAD_REACTORS
330
47
102
}
330
47
100
AcDbScale
 70
     0
300
100:1
140
100.0
141
1.0
290
     0
  0
TABLESTYLE
  5
1B3
102
{ACAD_REACTORS
330
1B2
102
}
102
{ACAD_XDICTIONARY
360
1BB
102
}
330
1B2
100
AcDbTableStyle
  3
Standard
 70
     0
 71
     8
 40
1.5
 41
1.5
280
     0
281
     0
  7
Standard
140
4.5
170
     2
 62
     0
 63
   257
283
     0
 90
        4
 91
        0
  1

274
    -2
284
     1
 64
     0
275
    -2
285
     1
 65
     0
276
    -2
286
     1
 66
     0
277
    -2
287
     1
 67
     0
278
    -2
288
     1
 68
     0
279
    -2
289
     1
 69
     0
  7
Standard
140
6.0
170
     5
 62
     0
 63
   257
283
     0
 90
        4
 91
        0
  1

274
    -2
284
     1
 64
     0
275
    -2
285
     1
 65
     0
276
    -2
286
     1
 66
     0
277
    -2
287
     1
 67
     0
278
    -2
288
     1
 68
     0
279
    -2
289
     1
 69
     0
  7
Standard
140
4.5
170
     5
 62
     0
 63
   257
283
     0
 90
        4
 91
        0
  1

274
    -2
284
     1
 64
     0
275
    -2
285
     1
 65
     0
276
    -2
286
     1
 66
     0
277
    -2
287
     1
 67
     0
278
    -2
288
     1
 68
     0
279
    -2
289
     1
 69
     0
  0
VISUALSTYLE
  5
194
102
{ACAD_REACTORS
330
18F
102
}
330
18F
100
AcDbVisualStyle
  2
2dWireframe
 70
     4
177
     3
291
     0
 70
    58
 90
        0
176
     1
 90
        2
176
     1
 90
        0
176
     1
 90
        0
176
     1
 40
0.6
176
     1
 40
30.0
176
     1
 62
     7
420
 16777215
176
     1
 90
        1
176
     1
 90
        4
176
     1
 62
     7
176
     1
 62
   257
176
     1
 90
        1
176
     1
 90
        1
176
     1
 40
1.0
176
     1
 90
        0
176
     1
 62
   257
176
     1
 40
1.0
176
     1
 90
        1
176
     1
 90
        6
176
     1
 90
        2
176
     1
 62
     7
176
     1
 90
        5
176
     1
 90
        0
176
     1
 90
        0
176
     1
290
     0
176
     1
 90
        1
176
     1
 40
0.0
176
     1
 90
        0
176
     1
290
     1
176
     1
290
     1
176
     1
290
     0
176
     1
290
     0
176
     1
290
     0
176
     1
290
     0
176
     1
290
     0
176
     1
290
     0
176
     1
290
     0
176
     1
 90
       50
176
     1
 40
0.0
176
     1
 40
1.0
176
     1
 90
        0
176
     1
 62
    18
420
        0
176
     1
 90
       50
176
     1
 90
        3
176
     1
 62
     5
420
      255
176
     1
290
     0
176
     1
 90
       50
176
     1
 90
       50
176
     1
 90
       50
176
     1
290
     0
176
     1
 90
       50
176
     1
 62
   256
176
     0
 40
1.0
176
     0
 90
        2
176
     1
  1
strokes_ogs.tif
176
     1
290
     0
176
     1
 40
1.0
176
     1
 40
1.0
176
     1
  0
VISUALSTYLE
  5
197
102
{ACAD_REACTORS
330
18F
102
}
330
18F
100
AcDbVisualStyle
  2
Basic
 70
     7
177
     3
291
     1
 70
    58
 90
        1
176
     1
 90
        0
176
     1
 90
        1
176
     1
 90
        0
176
     1
 40
0.6
176
     1
 40
30.0
176
     1
 62
     7
420
 16777215
176
     1
 90
        0
176
     1
 90
        4
176
     1
 62
     7
176
     1
 62
   257
176
     1
 90
        1
176
     1
 90
        1
176
     1
 40
1.0
176
     1
 90
        8
176
     1
 62
     7
176
     1
 40
1.0
176
     1
 90
        1
176
     1
 90
        6
176
     1
 90
        2
176
     1
 62
     7
176
     1
 90
        5
176
     1
 90
        0
176
     1
 90
        0
176
     1
290
     0
176
     1
 90
        1
176
     1
 40
0.0
176
     1
 90
        0
176
     1
290
     0
176
     1
290
     1
176
     1
290
     1
176
     1
290
     0
176
     1
290
     0
176
     1
290
     0
176
     1
290
     0
176
     1
290
     0
176
     1
290
     0
176
     1
 90
       50
176
     1
 40
0.0
176
     1
 40
1.0
176
     1
 90
        0
176
     1
 62
    18
420
        0
176
     1
 90
       50
176
     1
 90
        3
176
     1
 62
     5
420
      255
176
     1
290
     0
176
     1
 90
       50
176
     1
 90
       50
176
     1
 90
       50
176
     1
290
     0
176
     1
 90
       50
176
     1
 62
   256
176
     0
 40
1.0
176
     0
 90
        2
176
     1
  1
strokes_ogs.tif
176
     1
290
     0
176
     1
 40
1.0
176
     1
 40
1.0
176
     1
  0
VISUALSTYLE
  5
19B
102
{ACAD_REACTORS
330
18F
102
}
330
18F
100
AcDbVisualStyle
  2
Brighten
 70
    12
177
     3
291
     1
 70
    58
 90
        2
176
     1
 90
        2
176
     1
 90
        0
176
     1
 90
        0
176
     1
 40
0.6
176
     1
 40
30.0
176
     1
 62
     7
420
 16777215
176
     1
 90
        1
176
     1
 90
        4
176
     1
 62
     7
176
     1
 62
   257
176
     1
 90
        1
176
     1
 90
        1
176
     1
 40
1.0
176
     1
 90
        8
176
     1
 62
     7
176
     1
 40
1.0
176
     1
 90
        1
176
     1
 90
        6
176
     1
 90
        2
176
     1
 62
     7
176
     1
 90
        5
176
     1
 90
        0
176
     1
 90
        0
176
     1
290
     0
176
     1
 90
        1
176
     1
 40
50.0
176
     1
 90
        0
176
     1
290
     0
176
     1
290
     1
176
     1
290
     1
176
     1
290
     0
176
     1
290
     0
176
     1
290
     0
176
     1
290
     0
176
     1
290
     0
176
     1
290
     0
176
     1
 90
       50
176
     1
 40
0.0
176
     1
 40
1.0
176
     1
 90
        0
176
     1
 62
    18
420
        0
176
     1
 90
       50
176
     1
 90
        3
176
     1
 62
     5
420
      255
176
     1
290
     0
176
     1
 90
       50
176
     1
 90
       50
176
     1
 90
       50
176
     1
290
     0
176
     1
 90
       50
176
     1
 62
   256
176
     0
 40
1.0
176
     0
 90
        2
176
     1
  1
strokes_ogs.tif
176
     1
290
     0
176
     1
 40
1.0
176
     1
 40
1.0
176
     1
  0
VISUALSTYLE
  5
19F
102
{ACAD_REACTORS
330
18F
102
}
330
18F
100
AcDbVisualStyle
  2
ColorChange
 70
    16
177
     3
291
     1
 70
    58
 90
        2
176
     1
 90
        2
176
     1
 90
        3
176
     1
 90
        0
176
     1
 40
0.6
176
     1
 40
30.0
176
     1
 62
     8
420
  8421504
176
     1
 90
        1
176
     1
 90
        4
176
     1
 62
     7
176
     1
 62
   257
176
     1
 90
        1
176
     1
 90
        1
176
     1
 40
1.0
176
     1
 90
        8
176
     1
 62
     8
420
  8421504
176
     1
 40
1.0
176
     1
 90
        1
176
     1
 90
        6
176
     1
 90
        2
176
     1
 62
     7
176
     1
 90
        5
176
     1
 90
        0
176
     1
 90
        0
176
     1
290
     0
176
     1
 90
        1
176
     1
 40
0.0
176
     1
 90
        0
176
     1
290
     0
176
     1
290
     1
176
     1
290
     1
176
     1
290
     0
176
     1
290
     0
176
     1
290
     0
176
     1
290
     0
176
     1
290
     0
176
     1
290
     0
176
     1
 90
       50
176
     1
 40
0.0
176
     1
 40
1.0
176
     1
 90
        0
176
     1
 62
    18
420
        0
176
     1
 90
       50
176
     1
 90
        3
176
     1
 62
     5
420
      255
176
     1
290
     0
176
     1
 90
       50
176
     1
 90
       50
176
     1
 90
       50
176
     1
290
     0
176
     1
 90
       50
176
     1
 62
   256
176
     0
 40
1.0
176
     0
 90
        2
176
     1
  1
strokes_ogs.tif
176
     1
290
     0
176
     1
 40
1.0
176
     1
 40
1.0
176
     1
  0
VISUALSTYLE
  5
199
102
{ACAD_REACTORS
330
18F
102
}
330
18F
100
AcDbVisualStyle
  2
Conceptual
 70
     9
177
     3
291
     0
 70
    58
 90
        3
176
     1
 90
        2
176
     1
 90
        0
176
     1
 90
        0
176
     1
 40
0.6
176
     1
 40
30.0
176
     1
 62
     7
420
 16777215
176
     1
 90
        2
176
     1
 90
        2
176
     1
 62
     7
176
     1
 62
   257
176
     1
 90
        1
176
     1
 90
        1
176
     1
 40
179.0
176
     1
 90
        8
176
     1
 62
     7
176
     1
 40
1.0
176
     1
 90
        1
176
     1
 90
        6
176
     1
 90
        2
176
     1
 62
     7
176
     1
 90
        3
176
     1
 90
        0
176
     1
 90
        0
176
     1
290
     0
176
     1
 90
        1
176
     1
 40
0.0
176
     1
 90
        0
176
     1
290
     0
176
     1
290
     1
176
     1
290
     1
176
     1
290
     0
176
     1
290
     0
176
     1
290
     0
176
     1
290
     0
176
     1
290
     0
176
     1
290
     0
176
     1
 90
       50
176
     1
 40
0.0
176
     1
 40
1.0
176
     1
 90
        0
176
     1
 62
    18
420
        0
176
     1
 90
       50
176
     1
 90
        3
176
     1
 62
     5
420
      255
176
     1
290
     0
176
     1
 90
       50
176
     1
 90
       50
176
     1
 90
       50
176
     1
290
     0
176
     1
 90
       50
176
     1
 62
   256
176
     0
 40
1.0
176
     0
 90
        2
176
     1
  1
strokes_ogs.tif
176
     1
290
     0
176
     1
 40
1.0
176
     1
 40
1.0
176
     1
  0
VISUALSTYLE
  5
19A
102
{ACAD_REACTORS
330
18F
102
}
330
18F
100
AcDbVisualStyle
  2
Dim
 70
    11
177
     3
291
     1
 70
    58
 90
        2
176
     1
 90
        2
176
     1
 90
        0
176
     1
 90
        0
176
     1
 40
0.6
176
     1
 40
30.0
176
     1
 62
     7
420
 16777215
176
     1
 90
        1
176
     1
 90
        4
176
     1
 62
     7
176
     1
 62
   257
176
     1
 90
        1
176
     1
 90
        1
176
     1
 40
1.0
176
     1
 90
        8
176
     1
 62
     7
176
     1
 40
1.0
176
     1
 90
        1
176
     1
 90
        6
176
     1
 90
        2
176
     1
 62
     7
176
     1
 90
        5
176
     1
 90
        0
176
     1
 90
        0
176
     1
290
     0
176
     1
 90
        1
176
     1
 40
-50.0
176
     1
 90
        0
176
     1
290
     0
176
     1
290
     1
176
     1
290
     1
176
     1
290
     0
176
     1
290
     0
176
     1
290
     0
176
     1
290
     0
176
     1
290
     0
176
     1
290
     0
176
     1
 90
       50
176
     1
 40
0.0
176
     1
 40
1.0
176
     1
 90
        0
176
     1
 62
    18
420
        0
176
     1
 90
       50
176
     1
 90
        3
176
     1
 62
     5
420
      255
176
     1
290
     0
176
     1
 90
       50
176
     1
 90
       50
176
     1
 90
       50
176
     1
290
     0
176
     1
 90
       50
176
     1
 62
   256
176
     0
 40
1.0
176
     0
 90
        2
176
     1
  1
strokes_ogs.tif
176
     1
290
     0
176
     1
 40
1.0
176
     1
 40
1.0
176
     1
  0
VISUALSTYLE
  5
1A2
102
{ACAD_REACTORS
330
18F
102
}
330
18F
100
AcDbVisualStyle
  2
EdgeColorOff
 70
    22
177
     3
291
     1
 70
    58
 90
        2
176
     0
 90
        2
176
     0
 90
        0
176
     0
 90
        0
176
     0
 40
0.6
176
     0
 40
30.0
176
     0
 62
     7
420
 16777215
176
     0
 90
        1
176
     0
 90
        4
176
     0
 62
     7
176
     0
 62
   257
176
     0
 90
        1
176
     0
 90
        1
176
     0
 40
1.0
176
     0
 90
        8
176
     2
 62
     7
176
     0
 40
1.0
176
     0
 90
        1
176
     0
 90
        6
176
     0
 90
        2
176
     0
 62
     7
176
     0
 90
        5
176
     0
 90
        0
176
     0
 90
        0
176
     0
290
     0
176
     0
 90
        1
176
     0
 40
0.0
176
     0
 90
        0
176
     0
290
     0
176
     0
290
     1
176
     0
290
     1
176
     0
290
     0
176
     0
290
     0
176
     0
290
     0
176
     0
290
     0
176
     0
290
     0
176
     0
290
     0
176
     0
 90
       50
176
     0
 40
0.0
176
     0
 40
1.0
176
     0
 90
        0
176
     0
 62
    18
420
        0
176
     0
 90
       50
176
     0
 90
        3
176
     0
 62
     5
420
      255
176
     0
290
     0
176
     0
 90
       50
176
     0
 90
       50
176
     0
 90
       50
176
     0
290
     0
176
     0
 90
       50
176
     0
 62
   256
176
     0
 40
1.0
176
     0
 90
        2
176
     0
  1
strokes_ogs.tif
176
     0
290
     0
176
     0
 40
1.0
176
     0
 40
1.0
176
     0
  0
VISUALSTYLE
  5
19E
102
{ACAD_REACTORS
330
18F
102
}
330
18F
100
AcDbVisualStyle
  2
Facepattern
 70
    15
177
     3
291
     1
 70
    58
 90
        2
176
     1
 90
        2
176
     1
 90
        0
176
     1
 90
        0
176
     1
 40
0.6
176
     1
 40
30.0
176
     1
 62
     7
420
 16777215
176
     1
 90
        1
176
     1
 90
        4
176
     1
 62
     7
176
     1
 62
   257
176
     1
 90
        1
176
     1
 90
        1
176
     1
 40
1.0
176
     1
 90
        8
176
     1
 62
     7
176
     1
 40
1.0
176
     1
 90
        1
176
     1
 90
        6
176
     1
 90
        2
176
     1
 62
     7
176
     1
 90
        5
176
     1
 90
        0
176
     1
 90
        0
176
     1
290
     0
176
     1
 90
        1
176
     1
 40
0.0
176
     1
 90
        0
176
     1
290
     0
176
     1
290
     1
176
     1
290
     1
176
     1
290
     0
176
     1
290
     0
176
     1
290
     0
176
     1
290
     0
176
     1
290
     0
176
     1
290
     0
176
     1
 90
       50
176
     1
 40
0.0
176
     1
 40
1.0
176
     1
 90
        0
176
     1
 62
    18
420
        0
176
     1
 90
       50
176
     1
 90
        3
176
     1
 62
     5
420
      255
176
     1
290
     0
176
     1
 90
       50
176
     1
 90
       50
176
     1
 90
       50
176
     1
290
     0
176
     1
 90
       50
176
     1
 62
   256
176
     0
 40
1.0
176
     0
 90
        2
176
     1
  1
strokes_ogs.tif
176
     1
290
     0
176
     1
 40
1.0
176
     1
 40
1.0
176
     1
  0
VISUALSTYLE
  5
190
102
{ACAD_REACTORS
330
18F
102
}
330
18F
100
AcDbVisualStyle
  2
Flat
 70
     0
177
     3
291
     1
 70
    58
 90
        2
176
     1
 90
        1
176
     1
 90
        1
176
     1
 90
        2
176
     1
 40
0.6
176
     1
 40
30.0
176
     1
 62
     7
420
 16777215
176
     1
 90
        0
176
     1
 90
        0
176
     1
 62
     7
176
     1
 62
   257
176
     1
 90
        1
176
     1
 90
        1
176
     1
 40
1.0
176
     1
 90
        8
176
     1
 62
     7
176
     1
 40
1.0
176
     1
 90
        1
176
     1
 90
        6
176
     1
 90
        2
176
     1
 62
     7
176
     1
 90
        5
176
     1
 90
        0
176
     1
 90
        0
176
     1
290
     0
176
     1
 90
       13
176
     1
 40
0.0
176
     1
 90
        0
176
     1
290
     0
176
     1
290
     1
176
     1
290
     1
176
     1
290
     0
176
     1
290
     0
176
     1
290
     0
176
     1
290
     0
176
     1
290
     0
176
     1
290
     0
176
     1
 90
       50
176
     1
 40
0.0
176
     1
 40
1.0
176
     1
 90
        0
176
     1
 62
    18
420
        0
176
     1
 90
       50
176
     1
 90
        3
176
     1
 62
     5
420
      255
176
     1
290
     0
176
     1
 90
       50
176
     1
 90
       50
176
     1
 90
       50
176
     1
290
     0
176
     1
 90
       50
176
     1
 62
   256
176
     0
 40
1.0
176
     0
 90
        2
176
     1
  1
strokes_ogs.tif
176
     1
290
     0
176
     1
 40
1.0
176
     1
 40
1.0
176
     1
  0
VISUALSTYLE
  5
191
102
{ACAD_REACTORS
330
18F
102
}
330
18F
100
AcDbVisualStyle
  2
FlatWithEdges
 70
     1
177
     3
291
     1
 70
    58
 90
        2
176
     1
 90
        1
176
     1
 90
        1
176
     1
 90
        2
176
     1
 40
0.6
176
     1
 40
30.0
176
     1
 62
     7
420
 16777215
176
     1
 90
        1
176
     1
 90
        0
176
     1
 62
     7
176
     1
 62
   257
176
     1
 90
        1
176
     1
 90
        1
176
     1
 40
1.0
176
     1
 90
        0
176
     1
 62
   257
176
     1
 40
1.0
176
     1
 90
        1
176
     1
 90
        6
176
     1
 90
        2
176
     1
 62
     7
176
     1
 90
        5
176
     1
 90
        0
176
     1
 90
        0
176
     1
290
     0
176
     1
 90
       13
176
     1
 40
0.0
176
     1
 90
        0
176
     1
290
     0
176
     1
290
     1
176
     1
290
     1
176
     1
290
     0
176
     1
290
     0
176
     1
290
     0
176
     1
290
     0
176
     1
290
     0
176
     1
290
     0
176
     1
 90
       50
176
     1
 40
0.0
176
     1
 40
1.0
176
     1
 90
        0
176
     1
 62
    18
420
        0
176
     1
 90
       50
176
     1
 90
        3
176
     1
 62
     5
420
      255
176
     1
290
     0
176
     1
 90
       50
176
     1
 90
       50
176
     1
 90
       50
176
     1
290
     0
176
     1
 90
       50
176
     1
 62
   256
176
     0
 40
1.0
176
     0
 90
        2
176
     1
  1
strokes_ogs.tif
176
     1
290
     0
176
     1
 40
1.0
176
     1
 40
1.0
176
     1
  0
VISUALSTYLE
  5
192
102
{ACAD_REACTORS
330
18F
102
}
330
18F
100
AcDbVisualStyle
  2
Gouraud
 70
     2
177
     3
291
     1
 70
    58
 90
        2
176
     1
 90
        2
176
     1
 90
        1
176
     1
 90
        2
176
     1
 40
0.6
176
     1
 40
30.0
176
     1
 62
     7
420
 16777215
176
     1
 90
        0
176
     1
 90
        0
176
     1
 62
     7
176
     1
 62
   257
176
     1
 90
        1
176
     1
 90
        1
176
     1
 40
1.0
176
     1
 90
        0
176
     1
 62
     7
176
     1
 40
1.0
176
     1
 90
        1
176
     1
 90
        6
176
     1
 90
        2
176
     1
 62
     7
176
     1
 90
        5
176
     1
 90
        0
176
     1
 90
        0
176
     1
290
     0
176
     1
 90
       13
176
     1
 40
0.0
176
     1
 90
        0
176
     1
290
     0
176
     1
290
     1
176
     1
290
     1
176
     1
290
     0
176
     1
290
     0
176
     1
290
     0
176
     1
290
     0
176
     1
290
     0
176
     1
290
     0
176
     1
 90
       50
176
     1
 40
0.0
176
     1
 40
1.0
176
     1
 90
        0
176
     1
 62
    18
420
        0
176
     1
 90
       50
176
     1
 90
        3
176
     1
 62
     5
420
      255
176
     1
290
     0
176
     1
 90
       50
176
     1
 90
       50
176
     1
 90
       50
176
     1
290
     0
176
     1
 90
       50
176
     1
 62
   256
176
     0
 40
1.0
176
     0
 90
        2
176
     1
  1
strokes_ogs.tif
176
     1
290
     0
176
     1
 40
1.0
176
     1
 40
1.0
176
     1
  0
VISUALSTYLE
  5
193
102
{ACAD_REACTORS
330
18F
102
}
330
18F
100
AcDbVisualStyle
  2
GouraudWithEdges
 70
     3
177
     3
291
     1
 70
    58
 90
        2
176
     1
 90
        2
176
     1
 90
        1
176
     1
 90
        2
176
     1
 40
0.6
176
     1
 40
30.0
176
     1
 62
     7
420
 16777215
176
     1
 90
        1
176
     1
 90
        0
176
     1
 62
     7
176
     1
 62
   257
176
     1
 90
        1
176
     1
 90
        1
176
     1
 40
1.0
176
     1
 90
        0
176
     1
 62
   257
176
     1
 40
1.0
176
     1
 90
        1
176
     1
 90
        6
176
     1
 90
        2
176
     1
 62
     7
176
     1
 90
        5
176
     1
 90
        0
176
     1
 90
        0
176
     1
290
     0
176
     1
 90
       13
176
     1
 40
0.0
176
     1
 90
        0
176
     1
290
     0
176
     1
290
     1
176
     1
290
     1
176
     1
290
     0
176
     1
290
     0
176
     1
290
     0
176
     1
290
     0
176
     1
290
     0
176
     1
290
     0
176
     1
 90
       50
176
     1
 40
0.0
176
     1
 40
1.0
176
     1
 90
        0
176
     1
 62
    18
420
        0
176
     1
 90
       50
176
     1
 90
        3
176
     1
 62
     5
420
      255
176
     1
290
     0
176
     1
 90
       50
176
     1
 90
       50
176
     1
 90
       50
176
     1
290
     0
176
     1
 90
       50
176
     1
 62
   256
176
     0
 40
1.0
176
     0
 90
        2
176
     1
  1
strokes_ogs.tif
176
     1
290
     0
176
     1
 40
1.0
176
     1
 40
1.0
176
     1
  0
VISUALSTYLE
  5
196
102
{ACAD_REACTORS
330
18F
102
}
330
18F
100
AcDbVisualStyle
  2
Hidden
 70
     6
177
     3
291
     0
 70
    58
 90
        1
176
     1
 90
        2
176
     1
 90
        2
176
     1
 90
        0
176
     1
 40
0.6
176
     1
 40
30.0
176
     1
 62
     7
420
 16777215
176
     1
 90
        2
176
     1
 90
        2
176
     1
 62
     7
176
     1
 62
   257
176
     1
 90
        2
176
     1
 90
        1
176
     1
 40
40.0
176
     1
 90
        0
176
     1
 62
   257
176
     1
 40
1.0
176
     1
 90
        1
176
     1
 90
        6
176
     1
 90
        2
176
     1
 62
     7
176
     1
 90
        3
176
     1
 90
        0
176
     1
 90
        0
176
     1
290
     0
176
     1
 90
        1
176
     1
 40
0.0
176
     1
 90
        0
176
     1
290
     0
176
     1
290
     1
176
     1
290
     1
176
     1
290
     0
176
     1
290
     0
176
     1
290
     0
176
     1
290
     0
176
     1
290
     0
176
     1
290
     0
176
     1
 90
       50
176
     1
 40
0.0
176
     1
 40
1.0
176
     1
 90
        0
176
     1
 62
    18
420
        0
176
     1
 90
       50
176
     1
 90
        3
176
     1
 62
     5
420
      255
176
     1
290
     0
176
     1
 90
       50
176
     1
 90
       50
176
     1
 90
       50
176
     1
290
     0
176
     1
 90
       50
176
     1
 62
   256
176
     0
 40
1.0
176
     0
 90
        2
176
     1
  1
strokes_ogs.tif
176
     1
290
     0
176
     1
 40
1.0
176
     1
 40
1.0
176
     1
  0
VISUALSTYLE
  5
1A0
102
{ACAD_REACTORS
330
18F
102
}
330
18F
100
AcDbVisualStyle
  2
JitterOff
 70
    20
177
     3
291
     1
 70
    58
 90
        2
176
     0
 90
        2
176
     0
 90
        0
176
     0
 90
        0
176
     0
 40
0.6
176
     0
 40
30.0
176
     0
 62
     7
420
 16777215
176
     0
 90
        1
176
     0
 90
        4
176
     0
 62
     7
176
     0
 62
   257
176
     0
 90
        1
176
     0
 90
        1
176
     0
 40
1.0
176
     0
 90
       10
176
     2
 62
     7
176
     0
 40
1.0
176
     0
 90
        1
176
     0
 90
        6
176
     0
 90
        2
176
     0
 62
     7
176
     0
 90
        5
176
     0
 90
        0
176
     0
 90
        0
176
     0
290
     0
176
     0
 90
        1
176
     0
 40
0.0
176
     0
 90
        0
176
     0
290
     0
176
     0
290
     1
176
     0
290
     1
176
     0
290
     0
176
     0
290
     0
176
     0
290
     0
176
     0
290
     0
176
     0
290
     0
176
     0
290
     0
176
     0
 90
       50
176
     0
 40
0.0
176
     0
 40
1.0
176
     0
 90
        0
176
     0
 62
    18
420
        0
176
     0
 90
       50
176
     0
 90
        3
176
     0
 62
     5
420
      255
176
     0
290
     0
176
     0
 90
       50
176
     0
 90
       50
176
     0
 90
       50
176
     0
290
     0
176
     0
 90
       50
176
     0
 62
   256
176
     0
 40
1.0
176
     0
 90
        2
176
     0
  1
strokes_ogs.tif
176
     0
290
     0
176
     0
 40
1.0
176
     0
 40
1.0
176
     0
  0
VISUALSTYLE
  5
19D
102
{ACAD_REACTORS
330
18F
102
}
330
18F
100
AcDbVisualStyle
  2
Linepattern
 70
    14
177
     3
291
     1
 70
    58
 90
        2
176
     1
 90
        2
176
     1
 90
        0
176
     1
 90
        0
176
     1
 40
0.6
176
     1
 40
30.0
176
     1
 62
     7
420
 16777215
176
     1
 90
        1
176
     1
 90
        4
176
     1
 62
     7
176
     1
 62
   257
176
     1
 90
        7
176
     1
 90
        7
176
     1
 40
1.0
176
     1
 90
        8
176
     1
 62
     7
176
     1
 40
1.0
176
     1
 90
        1
176
     1
 90
        6
176
     1
 90
        2
176
     1
 62
     7
176
     1
 90
        5
176
     1
 90
        0
176
     1
 90
        0
176
     1
290
     0
176
     1
 90
        1
176
     1
 40
0.0
176
     1
 90
        0
176
     1
290
     0
176
     1
290
     1
176
     1
290
     1
176
     1
290
     0
176
     1
290
     0
176
     1
290
     0
176
     1
290
     0
176
     1
290
     0
176
     1
290
     0
176
     1
 90
       50
176
     1
 40
0.0
176
     1
 40
1.0
176
     1
 90
        0
176
     1
 62
    18
420
        0
176
     1
 90
       50
176
     1
 90
        3
176
     1
 62
     5
420
      255
176
     1
290
     0
176
     1
 90
       50
176
     1
 90
       50
176
     1
 90
       50
176
     1
290
     0
176
     1
 90
       50
176
     1
 62
   256
176
     0
 40
1.0
176
     0
 90
        2
176
     1
  1
strokes_ogs.tif
176
     1
290
     0
176
     1
 40
1.0
176
     1
 40
1.0
176
     1
  0
VISUALSTYLE
  5
1A1
102
{ACAD_REACTORS
330
18F
102
}
330
18F
100
AcDbVisualStyle
  2
OverhangOff
 70
    21
177
     3
291
     1
 70
    58
 90
        2
176
     0
 90
        2
176
     0
 90
        0
176
     0
 90
        0
176
     0
 40
0.6
176
     0
 40
30.0
176
     0
 62
     7
420
 16777215
176
     0
 90
        1
176
     0
 90
        4
176
     0
 62
     7
176
     0
 62
   257
176
     0
 90
        1
176
     0
 90
        1
176
     0
 40
1.0
176
     0
 90
        9
176
     2
 62
     7
176
     0
 40
1.0
176
     0
 90
        1
176
     0
 90
        6
176
     0
 90
        2
176
     0
 62
     7
176
     0
 90
        5
176
     0
 90
        0
176
     0
 90
        0
176
     0
290
     0
176
     0
 90
        1
176
     0
 40
0.0
176
     0
 90
        0
176
     0
290
     0
176
     0
290
     1
176
     0
290
     1
176
     0
290
     0
176
     0
290
     0
176
     0
290
     0
176
     0
290
     0
176
     0
290
     0
176
     0
290
     0
176
     0
 90
       50
176
     0
 40
0.0
176
     0
 40
1.0
176
     0
 90
        0
176
     0
 62
    18
420
        0
176
     0
 90
       50
176
     0
 90
        3
176
     0
 62
     5
420
      255
176
     0
290
     0
176
     0
 90
       50
176
     0
 90
       50
176
     0
 90
       50
176
     0
290
     0
176
     0
 90
       50
176
     0
 62
   256
176
     0
 40
1.0
176
     0
 90
        2
176
     0
  1
strokes_ogs.tif
176
     0
290
     0
176
     0
 40
1.0
176
     0
 40
1.0
176
     0
  0
VISUALSTYLE
  5
198
102
{ACAD_REACTORS
330
18F
102
}
330
18F
100
AcDbVisualStyle
  2
Realistic
 70
     8
177
     3
291
     0
 70
    58
 90
        2
176
     1
 90
        3
176
     1
 90
        0
176
     1
 90
        2
176
     1
 40
0.6
176
     1
 40
30.0
176
     1
 62
     7
420
 16777215
176
     1
 90
        0
176
     1
 90
        0
176
     1
 62
     7
176
     1
 62
   257
176
     1
 90
        1
176
     1
 90
        1
176
     1
 40
1.0
176
     1
 90
        8
176
     1
 62
   257
176
     1
 40
1.0
176
     1
 90
        1
176
     1
 90
        6
176
     1
 90
        2
176
     1
 62
     7
176
     1
 90
        3
176
     1
 90
        0
176
     1
 90
        0
176
     1
290
     0
176
     1
 90
       13
176
     1
 40
0.0
176
     1
 90
        0
176
     1
290
     0
176
     1
290
     1
176
     1
290
     1
176
     1
290
     0
176
     1
290
     0
176
     1
290
     0
176
     1
290
     0
176
     1
290
     0
176
     1
290
     0
176
     1
 90
       50
176
     1
 40
0.0
176
     1
 40
1.0
176
     1
 90
        0
176
     1
 62
    18
420
        0
176
     1
 90
       50
176
     1
 90
        3
176
     1
 62
     5
420
      255
176
     1
290
     0
176
     1
 90
       50
176
     1
 90
       50
176
     1
 90
       50
176
     1
290
     0
176
     1
 90
       50
176
     1
 62
   256
176
     0
 40
1.0
176
     0
 90
        2
176
     1
  1
strokes_ogs.tif
176
     1
290
     0
176
     1
 40
1.0
176
     1
 40
1.0
176
     1
  0
VISUALSTYLE
  5
1A7
102
{ACAD_REACTORS
330
18F
102
}
330
18F
100
AcDbVisualStyle
  2
Shaded
 70
    27
177
     3
291
     0
 70
    58
 90
        2
176
     1
 90
        2
176
     1
 90
        1
176
     1
 90
        2
176
     1
 40
0.6
176
     1
 40
30.0
176
     1
 62
     7
420
 16777215
176
     1
 90
        0
176
     1
 90
        4
176
     1
 62
     7
176
     1
 62
   257
176
     1
 90
        1
176
     1
 90
        1
176
     1
 40
1.0
176
     1
 90
        8
176
     1
 62
   257
176
     1
 40
1.0
176
     1
 90
        1
176
     1
 90
        6
176
     1
 90
        2
176
     1
 62
     8
420
  7895160
176
     1
 90
        3
176
     1
 90
        0
176
     1
 90
        0
176
     1
290
     0
176
     1
 90
        5
176
     1
 40
0.0
176
     1
 90
        0
176
     1
290
     0
176
     1
290
     1
176
     1
290
     1
176
     1
290
     0
176
     1
290
     0
176
     1
290
     0
176
     1
290
     0
176
     1
290
     0
176
     1
290
     0
176
     1
 90
       50
176
     1
 40
0.0
176
     1
 40
1.0
176
     1
 90
        0
176
     1
 62
    18
420
        0
176
     1
 90
       50
176
     1
 90
        3
176
     1
 62
     5
420
      255
176
     1
290
     0
176
     1
 90
       50
176
     1
 90
       50
176
     1
 90
       50
176
     1
290
     0
176
     1
 90
       50
176
     1
 62
   256
176
     0
 40
1.0
176
     0
 90
        2
176
     1
  1
strokes_ogs.tif
176
     1
290
     0
176
     1
 40
1.0
176
     1
 40
1.0
176
     1
  0
VISUALSTYLE
  5
1A6
102
{ACAD_REACTORS
330
18F
102
}
330
18F
100
AcDbVisualStyle
  2
Shaded with edges
 70
    26
177
     3
291
     0
 70
    58
 90
        2
176
     1
 90
        2
176
     1
 90
        1
176
     1
 90
        2
176
     1
 40
0.6
176
     1
 40
30.0
176
     1
 62
     7
420
 16777215
176
     1
 90
        1
176
     1
 90
       10
176
     1
 62
     7
176
     1
 62
   257
176
     1
 90
        2
176
     1
 90
        1
176
     1
 40
1.0
176
     1
 90
        8
176
     1
 62
   257
176
     1
 40
1.0
176
     1
 90
        1
176
     1
 90
        6
176
     1
 90
        2
176
     1
 62
     7
176
     1
 90
        3
176
     1
 90
        0
176
     1
 90
        0
176
     1
290
     0
176
     1
 90
        5
176
     1
 40
0.0
176
     1
 90
        0
176
     1
290
     0
176
     1
290
     1
176
     1
290
     1
176
     1
290
     0
176
     1
290
     0
176
     1
290
     0
176
     1
290
     0
176
     1
290
     0
176
     1
290
     0
176
     1
 90
       50
176
     1
 40
0.0
176
     1
 40
1.0
176
     1
 90
        0
176
     1
 62
    18
420
        0
176
     1
 90
       50
176
     1
 90
        3
176
     1
 62
     5
420
      255
176
     1
290
     0
176
     1
 90
       50
176
     1
 90
       50
176
     1
 90
       50
176
     1
290
     0
176
     1
 90
       50
176
     1
 62
   256
176
     0
 40
1.0
176
     0
 90
        2
176
     1
  1
strokes_ogs.tif
176
     1
290
     0
176
     1
 40
1.0
176
     1
 40
1.0
176
     1
  0
VISUALSTYLE
  5
1A3
102
{ACAD_REACTORS
330
18F
102
}
330
18F
100
AcDbVisualStyle
  2
Shades of Gray
 70
    23
177
     3
291
     0
 70
    58
 90
        2
176
     1
 90
        2
176
     1
 90
        3
176
     1
 90
        0
176
     1
 40
0.6
176
     1
 40
30.0
176
     1
 62
     7
420
 16777215
176
     1
 90
        2
176
     1
 90
        2
176
     1
 62
     7
176
     1
 62
     7
176
     1
 90
        1
176
     1
 90
        1
176
     1
 40
40.0
176
     1
 90
        8
176
     1
 62
     7
176
     1
 40
1.0
176
     1
 90
        1
176
     1
 90
        6
176
     1
 90
        2
176
     1
 62
     7
176
     1
 90
        3
176
     1
 90
        0
176
     1
 90
        0
176
     1
290
     0
176
     1
 90
        1
176
     1
 40
0.0
176
     1
 90
        0
176
     1
290
     0
176
     1
290
     1
176
     1
290
     1
176
     1
290
     0
176
     1
290
     0
176
     1
290
     0
176
     1
290
     0
176
     1
290
     0
176
     1
290
     0
176
     1
 90
       50
176
     1
 40
0.0
176
     1
 40
1.0
176
     1
 90
        0
176
     1
 62
    18
420
        0
176
     1
 90
       50
176
     1
 90
        3
176
     1
 62
     5
420
      255
176
     1
290
     0
176
     1
 90
       50
176
     1
 90
       50
176
     1
 90
       50
176
     1
290
     0
176
     1
 90
       50
176
     1
 62
   256
176
     0
 40
1.0
176
     0
 90
        2
176
     1
  1
strokes_ogs.tif
176
     1
290
     0
176
     1
 40
1.0
176
     1
 40
1.0
176
     1
  0
VISUALSTYLE
  5
1A4
102
{ACAD_REACTORS
330
18F
102
}
330
18F
100
AcDbVisualStyle
  2
Sketchy
 70
    24
177
     3
291
     0
 70
    58
 90
        1
176
     1
 90
        2
176
     1
 90
        2
176
     1
 90
        0
176
     1
 40
0.6
176
     1
 40
30.0
176
     1
 62
     7
420
 16777215
176
     1
 90
        2
176
     1
 90
        2
176
     1
 62
     7
176
     1
 62
     7
176
     1
 90
        1
176
     1
 90
        1
176
     1
 40
40.0
176
     1
 90
       11
176
     1
 62
     7
176
     1
 40
1.0
176
     1
 90
        1
176
     1
 90
        6
176
     1
 90
        2
176
     1
 62
     7
176
     1
 90
        6
176
     1
 90
        0
176
     1
 90
        0
176
     1
290
     0
176
     1
 90
        1
176
     1
 40
0.0
176
     1
 90
        0
176
     1
290
     0
176
     1
290
     1
176
     1
290
     1
176
     1
290
     0
176
     1
290
     0
176
     1
290
     0
176
     1
290
     0
176
     1
290
     0
176
     1
290
     0
176
     1
 90
       50
176
     1
 40
0.0
176
     1
 40
1.0
176
     1
 90
        0
176
     1
 62
    18
420
        0
176
     1
 90
       50
176
     1
 90
        3
176
     1
 62
     5
420
      255
176
     1
290
     0
176
     1
 90
       50
176
     1
 90
       50
176
     1
 90
       50
176
     1
290
     0
176
     1
 90
       50
176
     1
 62
   256
176
     0
 40
1.0
176
     0
 90
        2
176
     1
  1
strokes_ogs.tif
176
     1
290
     0
176
     1
 40
1.0
176
     1
 40
1.0
176
     1
  0
VISUALSTYLE
  5
19C
102
{ACAD_REACTORS
330
18F
102
}
330
18F
100
AcDbVisualStyle
  2
Thicken
 70
    13
177
     3
291
     1
 70
    58
 90
        2
176
     1
 90
        2
176
     1
 90
        0
176
     1
 90
        0
176
     1
 40
0.6
176
     1
 40
30.0
176
     1
 62
     7
420
 16777215
176
     1
 90
        1
176
     1
 90
        4
176
     1
 62
     7
176
     1
 62
   257
176
     1
 90
        1
176
     1
 90
        1
176
     1
 40
1.0
176
     1
 90
       12
176
     1
 62
     7
176
     1
 40
1.0
176
     1
 90
        1
176
     1
 90
        6
176
     1
 90
        2
176
     1
 62
     7
176
     1
 90
        5
176
     1
 90
        0
176
     1
 90
        0
176
     1
290
     0
176
     1
 90
        1
176
     1
 40
0.0
176
     1
 90
        0
176
     1
290
     0
176
     1
290
     1
176
     1
290
     1
176
     1
290
     0
176
     1
290
     0
176
     1
290
     0
176
     1
290
     0
176
     1
290
     0
176
     1
290
     0
176
     1
 90
       50
176
     1
 40
0.0
176
     1
 40
1.0
176
     1
 90
        0
176
     1
 62
    18
420
        0
176
     1
 90
       50
176
     1
 90
        3
176
     1
 62
     5
420
      255
176
     1
290
     0
176
     1
 90
       50
176
     1
 90
       50
176
     1
 90
       50
176
     1
290
     0
176
     1
 90
       50
176
     1
 62
   256
176
     0
 40
1.0
176
     0
 90
        2
176
     1
  1
strokes_ogs.tif
176
     1
290
     0
176
     1
 40
1.0
176
     1
 40
1.0
176
     1
  0
VISUALSTYLE
  5
195
102
{ACAD_REACTORS
330
18F
102
}
330
18F
100
AcDbVisualStyle
  2
Wireframe
 70
     5
177
     3
291
     0
 70
    58
 90
        0
176
     1
 90
        2
176
     1
 90
        0
176
     1
 90
        0
176
     1
 40
0.6
176
     1
 40
30.0
176
     1
 62
     7
420
 16777215
176
     1
 90
        1
176
     1
 90
        4
176
     1
 62
     7
176
     1
 62
   257
176
     1
 90
        1
176
     1
 90
        1
176
     1
 40
1.0
176
     1
 90
        0
176
     1
 62
   257
176
     1
 40
1.0
176
     1
 90
        1
176
     1
 90
        6
176
     1
 90
        2
176
     1
 62
     7
176
     1
 90
        3
176
     1
 90
        0
176
     1
 90
        0
176
     1
290
     0
176
     1
 90
        1
176
     1
 40
0.0
176
     1
 90
        0
176
     1
290
     0
176
     1
290
     1
176
     1
290
     1
176
     1
290
     0
176
     1
290
     0
176
     1
290
     0
176
     1
290
     0
176
     1
290
     0
176
     1
290
     0
176
     1
 90
       50
176
     1
 40
0.0
176
     1
 40
1.0
176
     1
 90
        0
176
     1
 62
    18
420
        0
176
     1
 90
       50
176
     1
 90
        3
176
     1
 62
     5
420
      255
176
     1
290
     0
176
     1
 90
       50
176
     1
 90
       50
176
     1
 90
       50
176
     1
290
     0
176
     1
 90
       50
176
     1
 62
   256
176
     0
 40
1.0
176
     0
 90
        2
176
     1
  1
strokes_ogs.tif
176
     1
290
     0
176
     1
 40
1.0
176
     1
 40
1.0
176
     1
  0
VISUALSTYLE
  5
1A5
102
{ACAD_REACTORS
330
18F
102
}
330
18F
100
AcDbVisualStyle
  2
X-Ray
 70
    25
177
     3
291
     0
 70
    58
 90
        2
176
     1
 90
        2
176
     1
 90
        1
176
     1
 90
        1
176
     1
 40
0.5
176
     1
 40
30.0
176
     1
 62
     7
420
 16777215
176
     1
 90
        1
176
     1
 90
        0
176
     1
 62
     7
176
     1
 62
   257
176
     1
 90
        1
176
     1
 90
        1
176
     1
 40
1.0
176
     1
 90
        8
176
     1
 62
     7
176
     1
 40
1.0
176
     1
 90
        1
176
     1
 90
        6
176
     1
 90
        2
176
     1
 62
     7
176
     1
 90
        3
176
     1
 90
        0
176
     1
 90
        0
176
     1
290
     0
176
     1
 90
       13
176
     1
 40
0.0
176
     1
 90
        0
176
     1
290
     0
176
     1
290
     1
176
     1
290
     1
176
     1
290
     0
176
     1
290
     0
176
     1
290
     0
176
     1
290
     0
176
     1
290
     0
176
     1
290
     0
176
     1
 90
       50
176
     1
 40
0.0
176
     1
 40
1.0
176
     1
 90
        0
176
     1
 62
    18
420
        0
176
     1
 90
       50
176
     1
 90
        3
176
     1
 62
     5
420
      255
176
     1
290
     0
176
     1
 90
       50
176
     1
 90
       50
176
     1
 90
       50
176
     1
290
     0
176
     1
 90
       50
176
     1
 62
   256
176
     0
 40
1.0
176
     0
 90
        2
176
     1
  1
strokes_ogs.tif
176
     1
290
     0
176
     1
 40
1.0
176
     1
 40
1.0
176
     1
  0
DICTIONARYVAR
  5
1C0
102
{ACAD_REACTORS
330
1BF
102
}
330
1BF
100
DictionaryVariables
280
     0
  1
0
  0
CSACDOCUMENTOPTIONS
  5
1B5
102
{ACAD_REACTORS
330
1B4
102
}
330
1B4
  0
XRECORD
  5
1B9
102
{ACAD_REACTORS
330
1AE
102
}
330
1AE
100
AcDbXrecord
280
     1
300
MC_VERSION_DATA
 90
       95
310
0600000002000000570000001C000000E404000000000000000000007801936764E5D8CFFA9993818115C460606066E0646662626666706006F218793899F8DE3171E725E6E53B3BBA2878E6951050AF75FEFFFFFF520036E40F2657000000
  0
XRECORD
  5
1AF
102
{ACAD_REACTORS
330
1AE
102
}
330
1AE
100
AcDbXrecord
280
     1
300
MCS_DOCUMENT_ID
 90
       60
310
0600000002000000150000001C000000E404000000000000000000007801E3DD57AFF37767929BDB06EF0E951D7E6A5BFE0301006E4D0B9E15000000
  0
XRECORD
  5
1B7
102
{ACAD_REACTORS
330
1AE
102
}
330
1AE
100
AcDbXrecord
280
     1
300
MCS_PARAMS_DATA
 90
     3313
310
0600000002000000F64B00001C000000E404000000000000000000007801C55C5B6C5CC519DE9D595FD6B9DF494B53970A1A6F4A58DF92A6426A1A1210527090E23EF0543976A2BA75E25CAC160A6DA92AF5A55255A96AD556551F4A49A0CF15A03EC0438190865E482021147221409310B6900B3826B1FB7F7366CEFC73E6
310
1CAFBDDE3D9B07D8FF3F73CEF7DFE6FB67E6ECBA757EA3143929F767A4FCCE8636299AA49C90529036BB402C105929F279912F89C6DEAF6FD8BC69AB14A46C51EAC2B9898909BA39945F872C1FCD848A834A91A13B1AD51D6D5266E8A9FAF627E9AABE92BD45CA6F03BD81A3CFC24D59D990C96408C7E066656E0232E13A03
310
14B0AB01724443F05CC3F08780DFC8F19B03FC710A073DC8486413411B49060E3311A05C24C45064703B01D7CCE196A818E5C59C9268B967CBD6DED68ED59DC52EEB78BEF08E09F8223D745649346F1DE9DB35D0B777C089FC5FC3C8EB60BF1A286CF47FE3467F17CC59C5CD990B0CD948C1A77FB9F5CA0E4F479188EA541E
310
3C25A2E22BC99C8892456878B2821857F6B05492C2AD881B41409C21325211340605C9C6DC6006EC49AC088A0CCBB25B1159B72248E415019155047D5453031360047082A7405D92B72AB0F03379693EAB50870260AC609E2C6F6510BB3D081DFE4EF5EFECD71494A7B3590EC7F12C5B25CB32539229914732934ECE22AF1D
310
D259AC8B7B7649E437DE7BDFA69EADF76EE95186E95A7ED74C032DBFA66A9BF1CEF341B19B78E45DDED9EF56FE29189043E4814BF734E1FF34659991678231F23A51010DA578E8294D435524988818E84710A7B2643B4F7C134F5CC6936D1E4176D01398C4D0A83AE0A6BDC86B0BB5C3E1E8299D70A5A945AC12322FE697C4
310
9C8DC3BBBE34D2BA77FBEEA1BEFEED79D15C120DF70F0FEE1A093EF60C8FF47F4BCAB3B0ED666EDB17F5733E2B445B5E2C298985C507BB8BEBBA3A3A3774178B1D777FA5B36B9D327BBE1ED84C030BC74C9EDAB5B64D88BC405AEF1E1CD9D73A34B88F70838775AD5DDBD1B9B6BBABBB73A0ABA37F5D7BE0E757F57D1DB80F
310
037BFBB60D6D6F1DDED1DA3B3CB47D6FDF2EF8A0AD5933506CEF2FF6F7ADD9D6B56D5DFF9A60D6A95222FF670B51F8295953F8455019945B7EE9315C7A8AFEC352DE9D4B4A5050256AA6D1B42D5F0C265BEED4473538E9811F770DEFDCDD3732B86D706870E4A1D69DC303E45F6349C807B6EFCB8B8692103DC352AE816545
310
9E9E798813B5E9A692C86DD9B1A355A5424F8E0BF018466AF90D150136590E2905AA568F782650907D5A7180140B84AD0159F8156902B8F63BDA8BE1A72E29AF48322EA98B5F578631B6F5489B26184C63434803DB221A328E6B58DEAED6DB808FEB6DC068BD0DF8A4DE065CABB7018B3045EB390B3EAD7704C6EA6DC07518
310
10B79C17773A0DB6C361F03BDD064B22C8C7303844629E5064B47323116EB9039777E096BB70247238880C6E39831B9F221C81B3E543C57019D4736C30574EE2DD4AD73B12B9771099772B997713E97A974DF4CECD5D9582B938116EC00926492C777A7F676A8F441E4C882C98032C983211AE26DE8974E196022EC7174366
310
F9AE62C95769E105B5C4B012E2E82ED8CD3516C5E34D519CF0D1F6765A8551C6CC0505130A3E8ABEC46EF81CED54DC1DA04AB7BC4DB0CA082453194AB29B82400C2B438BA6322032B88FE093B3E13470C11297490C8EEF78E88158D51A8AD42283A38F61044E78707A57F8BBDFE2DF2167F36975041D1DA7FCF59430C35792
310
05112533A905D5D3CAAB4759DBB4CA160F3E9309466F934A1794E7E1154C402D3088858048DCDF7EA3E7FECD5B7A7B376D5480CBF43A7E5E49CCBE6BEB37D945B2402FC65F52AB73B67E7F3A58AE93F37A04F6B7011D680556EBCCA2819BC8A21C320F385BBDB4EE56E6E32CE2CB18E358AD7676B4C7C096B1674BAF7B1278
310
1E906198B0DF8681EA696AF34D20563061CAB731C0DB01185B8B0DCA46538BD880EB0E2C6FC3120B40E62289BC162112587895C11513E18290E892090EBF46A9321968C513E0BB89A0AE8F2431B88A7DFC9E07A7BD0A8E668E3AF3CDEA083A3A8ECFB770A00AB53712018F2859D8DB3D93C2E4D422CB77A40BB73A5DB807A7
310
0857A5727AC8838BE45965D0D3D5B29CBEEF99145F4E558AC0C3E9C23D922EDC0FD285FBA107E7958EEDE721E98018A3E3AAC64E7F5C166D7ABA81B65C437BB31D766C74A6ED6E1FBC2766B7AFDAD87156F9771BF44A2A724C461AB43EE729AAFB710D63E2111810BBA3ABC9AE6037E09AB9BF3AB40BE8309F8736AB64CAB2
310
BE7E3364E5AC569CA6976081AF5A311628A8EF68C5B3A4609E3E86AC3AA156E3E83562F4B5A292099A878C61EB3B549CF92354989982613F016CE7AD5A4D09AA1F5126387AAD451EE384D9C035A925859E39C1AA865EE9A9B8DA21CEE289167F7CF1D4C4BC7A125EC5AED5D8BB0B5A9D9144D134CFA71BF85A8D44BE568348
310
F6AA55A2F3CAEACF6982FD29118CC249D3CBF852A586F278BA70FBD3853B90085793EDE51E143F0AD06C6B4CB2242BDDBDD1419166C2865E85F9CE1648F3CBF54B2E655D5432557AB8C599EEE6E763403914E55050D879E2BFFA30F366F009F0CB378371CA9B99D05949929DD07465EA8797A3808B6B06B9536E64AF9C844C
310
903AF2F3709D3783A318A078E4F37AEBBCEC2DD1B228B722F785DC2DB9D64C476675A63353CC74E937B1FA39BFA7DB58A6AFC19E49583A4A9B6110A6BA038D3C80418F79D091B18A763C1D8524AA5361F194EC4CC4B23EDBA3192533E95398E41423EB6DCA1C239B4DBF91D13F6D762A6897D7013D496371DC8BECCAA7D45E
310
0C251095ABC98AA38E1B6540CD3DACF829EF15C38D27C2B92DA64A071D13897001094F16523EC1C9E5A99FF465029665AB5B13C49AF8984D174EA40B273D389D33BB29A272F6749622C2719C22AC925104534E7A8CF33714555C6B3CF3BE4BE0AF28994CA9B8353E0F28878DD26D8D2F007FBAAD11BD305CEB4EAB35BE08B8
310
B8D678FEB81BD9134AB6ADF10A644BBEF9C2334A81E4EAA6772450D87DD2AF49C178F020A0EBD3055FF292CC5B8AB3FC4114C86BA708ACDB15F49C43C04EBBE7FCBD0CA8A1CB2AF59CC3897035E1E39713E16AD873FE91085A131FFF19C04DBEDBF8D75406FD3B3A2842E56C8ABE82A171BC3BF89ECB0E0F287926BC7B0450
310
75E4DDA3C09F2EEF56BE2579157071BCBBE7881BD93E255BDE7D04B225A07C61BD5230DE1DBA8C1158736B225E412358525F03747D78F79897E472BCCBAF5BAF2BA0DDE3804E9B765F2F035A65DA3D910857134A7A2311AE52DA8D6E0E9C1341735A873DD47F12A16BE2E99BE9C275792B70532835F1AEDB838B7404B509F7
310
74C449519D9AA19EB28205FF5B08785CE3F9307262735AC933693C270155C7C6730AF8E9359ED3808B6B3CA387DDC6734EC9B6F1C897238DE72006D89713F9C2E58B91C6F3388D608DE70CA0A7DA7866D30F8008DC16BEAA2D26A2AAB848F4108A0CF46D0F54D7A73989E2C56D75B6B8431D2F6EAB64C5CD94644C04869974
310
1626C5B6A280378D1BEE62BCE2C3917700E714386FAA719B1D7E7D464DF7DD444F8317374E8CAA75BEF65E19D0F8F0523EC21D7470DCC60B8CAEF29753FC38EF4760CFDBF99B4673F680D0869F6742513F06849341B61DF57EE3400A02734628D75C0DBC8B68A868B98655ECA330208EA3C6F1B52E3DF1E8849E2433679564
310
431A886148B568E62C4406F75F64308EFD2F9D7039EA6D259B5B2BF91AD8396F72B01004EFC5CD6C88F911E8CCDF849C077E5C64E9488747967101058B73015D99FA9B900B808B63FFB117DCC85E50324556799F2F34BC086EC70CD18A4318C0D9FF2AB6807CDB718046B0A4BE0FE8B4D9FFA207EA504E3D7E65FA014C7226
310
B329B0E8D703AAFEBAA304E869379E693123CD68457958A4FF2F11AE86ECFF6119D078F6E7138AD87FF2370F86D6E1E34789702D76FED2134932CCA824CB8C811832A3160D33426421BD940847AF6F0C11D33DEECB1CFE9B7175D1F926045DE5BD8DBFBDBE9C081764D0049324E6DDB40A8607F34A225C4D16463974B5B836
310
F3B3A32E193EACE499B49986C93A780A6DA631A981D7A6CD34012EAECDFCF23937B23F51B26D337F80CCDBCC36A5C0ECD07DE7E7A7236D663D8D6033A419D0536D33E07F56B8C4CA7C0D48229F9610695A461A0883CE7B494E8DD95B004DF38E8247AB09FE45AC1A52EDAC32A0861DD8DA85D8A76276989D08579353913989
310
700119397510D9BB4CAB9DF096393711B4263ECE4B176E7EBA700B3C389DB3F0B5335AA6A7234288EA142D784A9083AFB414616018456CF64C3293C4CD2F49D3E5A5F0410CEE3E0F2E6A6FEA11580893E29AEE529C2FC11C4DF48D4AA628982DB44A422820F8563073C8F989CF2240392BED74F7768B819FDEDE6E09E0E29A
310
EE0AFA030B3CB273954C91D5916E83CC9BEE074FAB1E6B73B11CFB6CBEB73B4C23589D2D05F4CC9AAE2E4C768646F0614DBB4BD40606BDCC4B726A4DF72640A7DD749797013521AB4ED3C5971C1BF2225712D922FD192CAA82F186C253F467B664EED8B163100EA1787299890C1D4314EEF90B040C236113FD72905624B8F0
310
99FF03A92412CEF64B0000
  0
DICTIONARY
  5
1BB
330
1B3
100
AcDbDictionary
280
     1
281
     1
  3
ACAD_ROUNDTRIP_2008_TABLESTYLE_CELLSTYLEMAP
360
1BC
  0
CELLSTYLEMAP
  5
1BC
102
{ACAD_REACTORS
330
1BB
102
}
330
1BB
100
AcDbCellStyleMap
 90
        3
300
CELLSTYLE
  1
TABLEFORMAT_BEGIN
 90
        5
170
     1
 91
        0
 92
        0
 62
   257
 93
        1
300
CONTENTFORMAT
  1
CONTENTFORMAT_BEGIN
 90
        0
 91
        0
 92
        4
 93
        0
300

 40
0.0
140
1.0
 94
        5
 62
     0
340
11
144
6.0
309
CONTENTFORMAT_END
171
     1
301
MARGIN
  1
CELLMARGIN_BEGIN
 40
1.5
 40
1.5
 40
1.5
 40
1.5
 40
4.5
 40
4.5
309
CELLMARGIN_END
 94
        6
 95
        1
302
GRIDFORMAT
  1
GRIDFORMAT_BEGIN
 90
        0
 91
        1
 62
     0
 92
       -2
340
14
 93
        0
 40
1.125
309
GRIDFORMAT_END
 95
        2
302
GRIDFORMAT
  1
GRIDFORMAT_BEGIN
 90
        0
 91
        1
 62
     0
 92
       -2
340
14
 93
        0
 40
1.125
309
GRIDFORMAT_END
 95
        4
302
GRIDFORMAT
  1
GRIDFORMAT_BEGIN
 90
        0
 91
        1
 62
     0
 92
       -2
340
14
 93
        0
 40
1.125
309
GRIDFORMAT_END
 95
        8
302
GRIDFORMAT
  1
GRIDFORMAT_BEGIN
 90
        0
 91
        1
 62
     0
 92
       -2
340
14
 93
        0
 40
1.125
309
GRIDFORMAT_END
 95
       16
302
GRIDFORMAT
  1
GRIDFORMAT_BEGIN
 90
        0
 91
        1
 62
     0
 92
       -2
340
14
 93
        0
 40
1.125
309
GRIDFORMAT_END
 95
       32
302
GRIDFORMAT
  1
GRIDFORMAT_BEGIN
 90
        0
 91
        1
 62
     0
 92
       -2
340
14
 93
        0
 40
1.125
309
GRIDFORMAT_END
309
TABLEFORMAT_END
  1
CELLSTYLE_BEGIN
 90
        1
 91
        1
300
_TITLE
309
CELLSTYLE_END
300
CELLSTYLE
  1
TABLEFORMAT_BEGIN
 90
        5
170
     1
 91
        0
 92
        0
 62
   257
 93
        1
300
CONTENTFORMAT
  1
CONTENTFORMAT_BEGIN
 90
        0
 91
        0
 92
        4
 93
        0
300

 40
0.0
140
1.0
 94
        5
 62
     0
340
11
144
4.5
309
CONTENTFORMAT_END
171
     1
301
MARGIN
  1
CELLMARGIN_BEGIN
 40
1.5
 40
1.5
 40
1.5
 40
1.5
 40
4.5
 40
4.5
309
CELLMARGIN_END
 94
        6
 95
        1
302
GRIDFORMAT
  1
GRIDFORMAT_BEGIN
 90
        0
 91
        1
 62
     0
 92
       -2
340
14
 93
        0
 40
1.125
309
GRIDFORMAT_END
 95
        2
302
GRIDFORMAT
  1
GRIDFORMAT_BEGIN
 90
        0
 91
        1
 62
     0
 92
       -2
340
14
 93
        0
 40
1.125
309
GRIDFORMAT_END
 95
        4
302
GRIDFORMAT
  1
GRIDFORMAT_BEGIN
 90
        0
 91
        1
 62
     0
 92
       -2
340
14
 93
        0
 40
1.125
309
GRIDFORMAT_END
 95
        8
302
GRIDFORMAT
  1
GRIDFORMAT_BEGIN
 90
        0
 91
        1
 62
     0
 92
       -2
340
14
 93
        0
 40
1.125
309
GRIDFORMAT_END
 95
       16
302
GRIDFORMAT
  1
GRIDFORMAT_BEGIN
 90
        0
 91
        1
 62
     0
 92
       -2
340
14
 93
        0
 40
1.125
309
GRIDFORMAT_END
 95
       32
302
GRIDFORMAT
  1
GRIDFORMAT_BEGIN
 90
        0
 91
        1
 62
     0
 92
       -2
340
14
 93
        0
 40
1.125
309
GRIDFORMAT_END
309
TABLEFORMAT_END
  1
CELLSTYLE_BEGIN
 90
        2
 91
        1
300
_HEADER
309
CELLSTYLE_END
300
CELLSTYLE
  1
TABLEFORMAT_BEGIN
 90
        5
170
     1
 91
        0
 92
        0
 62
   257
 93
        1
300
CONTENTFORMAT
  1
CONTENTFORMAT_BEGIN
 90
        0
 91
        0
 92
        4
 93
        0
300

 40
0.0
140
1.0
 94
        2
 62
     0
340
11
144
4.5
309
CONTENTFORMAT_END
171
     1
301
MARGIN
  1
CELLMARGIN_BEGIN
 40
1.5
 40
1.5
 40
1.5
 40
1.5
 40
4.5
 40
4.5
309
CELLMARGIN_END
 94
        6
 95
        1
302
GRIDFORMAT
  1
GRIDFORMAT_BEGIN
 90
        0
 91
        1
 62
     0
 92
       -2
340
14
 93
        0
 40
1.125
309
GRIDFORMAT_END
 95
        2
302
GRIDFORMAT
  1
GRIDFORMAT_BEGIN
 90
        0
 91
        1
 62
     0
 92
       -2
340
14
 93
        0
 40
1.125
309
GRIDFORMAT_END
 95
        4
302
GRIDFORMAT
  1
GRIDFORMAT_BEGIN
 90
        0
 91
        1
 62
     0
 92
       -2
340
14
 93
        0
 40
1.125
309
GRIDFORMAT_END
 95
        8
302
GRIDFORMAT
  1
GRIDFORMAT_BEGIN
 90
        0
 91
        1
 62
     0
 92
       -2
340
14
 93
        0
 40
1.125
309
GRIDFORMAT_END
 95
       16
302
GRIDFORMAT
  1
GRIDFORMAT_BEGIN
 90
        0
 91
        1
 62
     0
 92
       -2
340
14
 93
        0
 40
1.125
309
GRIDFORMAT_END
 95
       32
302
GRIDFORMAT
  1
GRIDFORMAT_BEGIN
 90
        0
 91
        1
 62
     0
 92
       -2
340
14
 93
        0
 40
1.125
309
GRIDFORMAT_END
309
TABLEFORMAT_END
  1
CELLSTYLE_BEGIN
 90
        3
 91
        2
300
_DATA
309
CELLSTYLE_END
  0
ENDSEC
  0
EOF
