  0
SECTION
  2
HEADER
  9
$ACADVER
  1
AC1015
  9
$ACADMAINTVER
 70
     6
  9
$DWGCODEPAGE
  3
ANSI_1252
  9
$INSBASE
 10
0.0
 20
0.0
 30
0.0
  9
$EXTMIN
 10
0.0
 20
0.0
 30
0.0
  9
$EXTMAX
 10
11.0
 20
8.5
 30
0.0
  9
$LIMMIN
 10
0.0
 20
0.0
  9
$LIMMAX
 10
11.0
 20
8.5
  9
$ORTHOMODE
 70
     0
  9
$REGENMODE
 70
     1
  9
$FILLMODE
 70
     1
  9
$QTEXTMODE
 70
     0
  9
$MIRRTEXT
 70
     1
  9
$LTSCALE
 40
1.0
  9
$ATTMODE
 70
     1
  9
$TEXTSIZE
 40
0.125
  9
$TRACEWID
 40
0.05
  9
$TEXTSTYLE
  7
Standard
  9
$CLAYER
  8
0
  9
$CELTYPE
  6
ByLayer
  9
$CECOLOR
 62
   256
  9
$CELTSCALE
 40
1.0
  9
$DISPSILH
 70
     0
  9
$DIMSCALE
 40
1.0
  9
$DIMASZ
 40
0.13
  9
$DIMEXO
 40
0.05
  9
$DIMDLI
 40
0.38
  9
$DIMRND
 40
0.0
  9
$DIMDLE
 40
0.0
  9
$DIMEXE
 40
0.03937
  9
$DIMTP
 40
0.0
  9
$DIMTM
 40
0.0
  9
$DIMTXT
 40
0.125
  9
$DIMCEN
 40
0.09
  9
$DIMTSZ
 40
0.0
  9
$DIMTOL
 70
     0
  9
$DIMLIM
 70
     0
  9
$DIMTIH
 70
     1
  9
$DIMTOH
 70
     1
  9
$DIMSE1
 70
     0
  9
$DIMSE2
 70
     0
  9
$DIMTAD
 70
     0
  9
$DIMZIN
 70
     0
  9
$DIMBLK
  1

  9
$DIMASO
 70
     1
  9
$DIMSHO
 70
     1
  9
$DIMPOST
  1

  9
$DIMAPOST
  1

  9
$DIMALT
 70
     0
  9
$DIMALTD
 70
     2
  9
$DIMALTF
 40
25.4
  9
$DIMLFAC
 40
4.0
  9
$DIMTOFL
 70
     0
  9
$DIMTVP
 40
0.0
  9
$DIMTIX
 70
     0
  9
$DIMSOXD
 70
     0
  9
$DIMSAH
 70
     0
  9
$DIMBLK1
  1

  9
$DIMBLK2
  1

  9
$DIMSTYLE
  2
Standard
  9
$DIMCLRD
 70
     0
  9
$DIMCLRE
 70
     0
  9
$DIMCLRT
 70
     0
  9
$DIMTFAC
 40
1.0
  9
$DIMGAP
 40
0.06
  9
$DIMJUST
 70
     0
  9
$DIMSD1
 70
     0
  9
$DIMSD2
 70
     0
  9
$DIMTOLJ
 70
     1
  9
$DIMTZIN
 70
     0
  9
$DIMALTZ
 70
     0
  9
$DIMALTTZ
 70
     0
  9
$DIMUPT
 70
     0
  9
$DIMDEC
 70
     3
  9
$DIMTDEC
 70
     3
  9
$DIMALTU
 70
     2
  9
$DIMALTTD
 70
     2
  9
$DIMTXSTY
  7
Standard
  9
$DIMAUNIT
 70
     0
  9
$DIMADEC
 70
     1
  9
$DIMALTRND
 40
0.0
  9
$DIMAZIN
 70
     0
  9
$DIMDSEP
 70
    46
  9
$DIMATFIT
 70
     3
  9
$DIMFRAC
 70
     0
  9
$DIMLDRBLK
  1

  9
$DIMLUNIT
 70
     2
  9
$DIMLWD
 70
    -2
  9
$DIMLWE
 70
    -2
  9
$DIMTMOVE
 70
     0
  9
$LUNITS
 70
     2
  9
$LUPREC
 70
     3
  9
$SKETCHINC
 40
0.1
  9
$FILLETRAD
 40
0.0
  9
$AUNITS
 70
     0
  9
$AUPREC
 70
     1
  9
$MENU
  1
.
  9
$ELEVATION
 40
0.0
  9
$PELEVATION
 40
0.0
  9
$THICKNESS
 40
0.0
  9
$LIMCHECK
 70
     0
  9
$CHAMFERA
 40
0.0
  9
$CHAMFERB
 40
0.0
  9
$CHAMFERC
 40
0.0
  9
$CHAMFERD
 40
0.0
  9
$SKPOLY
 70
     0
  9
$TDCREATE
 40
2460726.351985891
  9
$TDUCREATE
 40
2460726.560319224
  9
$TDUPDATE
 40
2460726.370334607
  9
$TDUUPDATE
 40
2460726.57866794
  9
$TDINDWG
 40
0.0000000116
  9
$TDUSRTIMER
 40
0.0000000116
  9
$USRTIMER
 70
     1
  9
$ANGBASE
 50
0.0
  9
$ANGDIR
 70
     0
  9
$PDMODE
 70
     0
  9
$PDSIZE
 40
-1.0
  9
$PLINEWID
 40
0.0
  9
$SPLFRAME
 70
     0
  9
$SPLINETYPE
 70
     6
  9
$SPLINESEGS
 70
     8
  9
$HANDSEED
  5
134C
  9
$SURFTAB1
 70
     6
  9
$SURFTAB2
 70
     6
  9
$SURFTYPE
 70
     6
  9
$SURFU
 70
     6
  9
$SURFV
 70
     6
  9
$UCSBASE
  2

  9
$UCSNAME
  2

  9
$UCSORG
 10
0.0
 20
0.0
 30
0.0
  9
$UCSXDIR
 10
1.0
 20
0.0
 30
0.0
  9
$UCSYDIR
 10
0.0
 20
1.0
 30
0.0
  9
$UCSORTHOREF
  2

  9
$UCSORTHOVIEW
 70
     0
  9
$UCSORGTOP
 10
0.0
 20
0.0
 30
0.0
  9
$UCSORGBOTTOM
 10
0.0
 20
0.0
 30
0.0
  9
$UCSORGLEFT
 10
0.0
 20
0.0
 30
0.0
  9
$UCSORGRIGHT
 10
0.0
 20
0.0
 30
0.0
  9
$UCSORGFRONT
 10
0.0
 20
0.0
 30
0.0
  9
$UCSORGBACK
 10
0.0
 20
0.0
 30
0.0
  9
$PUCSBASE
  2

  9
$PUCSNAME
  2

  9
$PUCSORG
 10
0.0
 20
0.0
 30
0.0
  9
$PUCSXDIR
 10
1.0
 20
0.0
 30
0.0
  9
$PUCSYDIR
 10
0.0
 20
1.0
 30
0.0
  9
$PUCSORTHOREF
  2

  9
$PUCSORTHOVIEW
 70
     0
  9
$PUCSORGTOP
 10
0.0
 20
0.0
 30
0.0
  9
$PUCSORGBOTTOM
 10
0.0
 20
0.0
 30
0.0
  9
$PUCSORGLEFT
 10
0.0
 20
0.0
 30
0.0
  9
$PUCSORGRIGHT
 10
0.0
 20
0.0
 30
0.0
  9
$PUCSORGFRONT
 10
0.0
 20
0.0
 30
0.0
  9
$PUCSORGBACK
 10
0.0
 20
0.0
 30
0.0
  9
$USERI1
 70
     0
  9
$USERI2
 70
     0
  9
$USERI3
 70
     0
  9
$USERI4
 70
     0
  9
$USERI5
 70
     0
  9
$USERR1
 40
0.0
  9
$USERR2
 40
0.0
  9
$USERR3
 40
0.0
  9
$USERR4
 40
0.0
  9
$USERR5
 40
0.0
  9
$WORLDVIEW
 70
     1
  9
$SHADEDGE
 70
     3
  9
$SHADEDIF
 70
    70
  9
$TILEMODE
 70
     1
  9
$MAXACTVP
 70
    64
  9
$PINSBASE
 10
0.0
 20
0.0
 30
0.0
  9
$PLIMCHECK
 70
     0
  9
$PEXTMIN
 10
1.000000E+20
 20
1.000000E+20
 30
1.000000E+20
  9
$PEXTMAX
 10
-1.000000E+20
 20
-1.000000E+20
 30
-1.000000E+20
  9
$PLIMMIN
 10
0.0
 20
0.0
  9
$PLIMMAX
 10
12.0
 20
9.0
  9
$UNITMODE
 70
     0
  9
$VISRETAIN
 70
     1
  9
$PLINEGEN
 70
     0
  9
$PSLTSCALE
 70
     0
  9
$TREEDEPTH
 70
  3020
  9
$CMLSTYLE
  2
Standard
  9
$CMLJUST
 70
     0
  9
$CMLSCALE
 40
1.0
  9
$PROXYGRAPHICS
 70
     1
  9
$MEASUREMENT
 70
     0
  9
$CELWEIGHT
370
    -1
  9
$ENDCAPS
280
     0
  9
$JOINSTYLE
280
     0
  9
$LWDISPLAY
290
     1
  9
$INSUNITS
 70
     1
  9
$HYPERLINKBASE
  1

  9
$STYLESHEET
  1

  9
$XEDIT
290
     1
  9
$CEPSNTYPE
380
     0
  9
$PSTYLEMODE
290
     1
  9
$FINGERPRINTGUID
  2
{a6a820c4-0de2-482e-b225-a38bb01543ee}
  9
$VERSIONGUID
  2
{FAEB1C32-E019-11D5-929B-00C0DF256EC4}
  9
$EXTNAMES
290
     1
  9
$PSVPSCALE
 40
0.0
  9
$OLESTARTUP
290
     0
  0
ENDSEC
  0
SECTION
  2
CLASSES
  0
CLASS
  1
ACDBDICTIONARYWDFLT
  2
AcDbDictionaryWithDefault
  3
ObjectDBX Classes
 90
        0
280
     0
281
     0
  0
CLASS
  1
VISUALSTYLE
  2
AcDbVisualStyle
  3
ObjectDBX Classes
 90
     4095
280
     0
281
     0
  0
CLASS
  1
MATERIAL
  2
AcDbMaterial
  3
ObjectDBX Classes
 90
     1153
280
     0
281
     0
  0
CLASS
  1
SCALE
  2
AcDbScale
  3
ObjectDBX Classes
 90
     1153
280
     0
281
     0
  0
CLASS
  1
TABLESTYLE
  2
AcDbTableStyle
  3
ObjectDBX Classes
 90
     4095
280
     0
281
     0
  0
CLASS
  1
MLEADERSTYLE
  2
AcDbMLeaderStyle
  3
ACDB_MLEADERSTYLE_CLASS
 90
     4095
280
     0
281
     0
  0
CLASS
  1
SUN
  2
AcDbSun
  3
SCENEOE
 90
     1153
280
     0
281
     0
  0
CLASS
  1
ACDBPLACEHOLDER
  2
AcDbPlaceHolder
  3
ObjectDBX Classes
 90
        0
280
     0
281
     0
  0
CLASS
  1
LAYOUT
  2
AcDbLayout
  3
ObjectDBX Classes
 90
        0
280
     0
281
     0
  0
CLASS
  1
CSACDOCUMENTOPTIONS
  2
CDocDataContainer
  3
"DERU003_CSAPP"
 90
     4095
280
     0
281
     0
  0
CLASS
  1
DICTIONARYVAR
  2
AcDbDictionaryVar
  3
ObjectDBX Classes
 90
        0
280
     0
281
     0
  0
ENDSEC
  0
SECTION
  2
TABLES
  0
TABLE
  2
VPORT
  5
8
102
{ACAD_XDICTIONARY
360
1314
102
}
330
0
100
AcDbSymbolTable
 70
     1
  0
VPORT
  5
29
330
8
100
AcDbSymbolTableRecord
100
AcDbViewportTableRecord
  2
*Active
 70
     0
 10
0.0
 20
0.0
 11
1.0
 21
1.0
 12
4.119289
 22
4.25
 13
0.0
 23
0.0
 14
0.5
 24
0.5
 15
0.5
 25
0.5
 16
0.0
 26
0.0
 36
1.0
 17
0.0
 27
0.0
 37
0.0
 40
12.75
 41
2.019036
 42
50.0
 43
0.0
 44
0.0
 50
0.0
 51
0.0
 71
    16
 72
  2000
 73
     1
 74
     3
 75
     0
 76
     0
 77
     0
 78
     0
281
     0
 65
     1
110
0.0
120
0.0
130
0.0
111
1.0
121
0.0
131
0.0
112
0.0
122
1.0
132
0.0
 79
     0
146
0.0
  0
ENDTAB
  0
TABLE
  2
LTYPE
  5
5
330
0
100
AcDbSymbolTable
 70
     6
  0
LTYPE
  5
14
330
5
100
AcDbSymbolTableRecord
100
AcDbLinetypeTableRecord
  2
ByBlock
 70
     0
  3

 72
    65
 73
     0
 40
0.0
  0
LTYPE
  5
15
330
5
100
AcDbSymbolTableRecord
100
AcDbLinetypeTableRecord
  2
ByLayer
 70
     0
  3

 72
    65
 73
     0
 40
0.0
  0
LTYPE
  5
16
330
5
100
AcDbSymbolTableRecord
100
AcDbLinetypeTableRecord
  2
Continuous
 70
     0
  3
Solid line
 72
    65
 73
     0
 40
0.0
  0
LTYPE
  5
5E
330
5
100
AcDbSymbolTableRecord
100
AcDbLinetypeTableRecord
  2
HIDDEN
 70
     0
  3
Hidden __ __ __ __ __ __ __ __ __ __ __ __ __ __
 72
    65
 73
     2
 40
0.075
 49
0.05
 74
     0
 49
-0.025
 74
     0
  0
LTYPE
  5
5F
330
5
100
AcDbSymbolTableRecord
100
AcDbLinetypeTableRecord
  2
PHANTOM
 70
     0
  3
Phantom ______  __  __  ______  __  __  ______
 72
    65
 73
     6
 40
0.5
 49
0.25
 74
     0
 49
-0.05
 74
     0
 49
0.05
 74
     0
 49
-0.05
 74
     0
 49
0.05
 74
     0
 49
-0.05
 74
     0
  0
LTYPE
  5
60
330
5
100
AcDbSymbolTableRecord
100
AcDbLinetypeTableRecord
  2
CENTER
 70
     0
  3
Center ____ _ ____ _ ____ _ ____ _ ____ _ ____
 72
    65
 73
     4
 40
0.4
 49
0.25
 74
     0
 49
-0.05
 74
     0
 49
0.05
 74
     0
 49
-0.05
 74
     0
  0
LTYPE
  5
61
330
5
100
AcDbSymbolTableRecord
100
AcDbLinetypeTableRecord
  2
CENTERX2
 70
     0
  3
Center (2x) ________  __  ________  __  _____
 72
    65
 73
     4
 40
0.8
 49
0.5
 74
     0
 49
-0.1
 74
     0
 49
0.1
 74
     0
 49
-0.1
 74
     0
  0
LTYPE
  5
62
330
5
100
AcDbSymbolTableRecord
100
AcDbLinetypeTableRecord
  2
DOT2
 70
     0
  3
Dot (.5x) ........................................
 72
    65
 73
     2
 40
0.025
 49
0.0
 74
     0
 49
-0.025
 74
     0
  0
ENDTAB
  0
TABLE
  2
LAYER
  5
2
330
0
100
AcDbSymbolTable
 70
     2
  0
LAYER
  5
10
330
2
100
AcDbSymbolTableRecord
100
AcDbLayerTableRecord
  2
0
 70
     0
 62
     7
  6
Continuous
370
    -3
390
F
  0
LAYER
  5
63
330
2
100
AcDbSymbolTableRecord
100
AcDbLayerTableRecord
  2
FORMAT
 70
     0
 62
     7
  6
Continuous
370
    -3
390
F
  0
ENDTAB
  0
TABLE
  2
STYLE
  5
3
330
0
100
AcDbSymbolTable
 70
     4
  0
STYLE
  5
11
330
3
100
AcDbSymbolTableRecord
100
AcDbTextStyleTableRecord
  2
Standard
 70
     0
 40
0.0
 41
1.0
 50
0.0
 71
     0
 42
0.125
  3
txt
  4

  0
STYLE
  5
89
330
3
100
AcDbSymbolTableRecord
100
AcDbTextStyleTableRecord
  2
SLDTEXTSTYLE0
 70
     0
 40
0.0
 41
0.605
 50
0.0
 71
     0
 42
0.125
  3
TXT
  4

  0
STYLE
  5
97
330
3
100
AcDbSymbolTableRecord
100
AcDbTextStyleTableRecord
  2
SLDTEXTSTYLE1
 70
     0
 40
0.0
 41
0.75
 50
0.0
 71
     0
 42
0.125
  3
TXT
  4

  0
STYLE
  5
A5
330
3
100
AcDbSymbolTableRecord
100
AcDbTextStyleTableRecord
  2
SLDTEXTSTYLE2
 70
     0
 40
0.0
 41
0.696429
 50
0.0
 71
     0
 42
0.125
  3
TXT
  4

  0
ENDTAB
  0
TABLE
  2
VIEW
  5
6
330
0
100
AcDbSymbolTable
 70
     0
  0
ENDTAB
  0
TABLE
  2
UCS
  5
7
330
0
100
AcDbSymbolTable
 70
     0
  0
ENDTAB
  0
TABLE
  2
APPID
  5
9
330
0
100
AcDbSymbolTable
 70
     6
  0
APPID
  5
12
330
9
100
AcDbSymbolTableRecord
100
AcDbRegAppTableRecord
  2
ACAD
 70
     0
  0
APPID
  5
12FD
330
9
100
AcDbSymbolTableRecord
100
AcDbRegAppTableRecord
  2
MCS_DIM1
 70
     0
  0
APPID
  5
12FE
330
9
100
AcDbSymbolTableRecord
100
AcDbRegAppTableRecord
  2
McsXdata5
 70
     0
  0
APPID
  5
1301
330
9
100
AcDbSymbolTableRecord
100
AcDbRegAppTableRecord
  2
MCS_DOCUMENT_ID
 70
     0
  0
APPID
  5
1309
330
9
100
AcDbSymbolTableRecord
100
AcDbRegAppTableRecord
  2
MCS_PARAMS_DATA
 70
     0
  0
APPID
  5
130B
330
9
100
AcDbSymbolTableRecord
100
AcDbRegAppTableRecord
  2
MC_VERSION_DATA
 70
     0
  0
ENDTAB
  0
TABLE
  2
DIMSTYLE
  5
A
330
0
100
AcDbSymbolTable
 70
     1
100
AcDbDimStyleTable
  0
DIMSTYLE
105
27
330
A
100
AcDbSymbolTableRecord
100
AcDbDimStyleTableRecord
  2
Standard
 70
     0
178
     0
340
11
  0
ENDTAB
  0
TABLE
  2
BLOCK_RECORD
  5
1
330
0
100
AcDbSymbolTable
 70
     1
  0
BLOCK_RECORD
  5
1F
330
1
100
AcDbSymbolTableRecord
100
AcDbBlockTableRecord
  2
*Model_Space
340
22
  0
BLOCK_RECORD
  5
1B
330
1
100
AcDbSymbolTableRecord
100
AcDbBlockTableRecord
  2
*Paper_Space
340
1E
  0
BLOCK_RECORD
  5
23
330
1
100
AcDbSymbolTableRecord
100
AcDbBlockTableRecord
  2
*Paper_Space0
340
26
  0
ENDTAB
  0
ENDSEC
  0
SECTION
  2
BLOCKS
  0
BLOCK
  5
20
330
1F
100
AcDbEntity
  8
0
100
AcDbBlockBegin
  2
*Model_Space
 70
     0
 10
0.0
 20
0.0
 30
0.0
  3
*Model_Space
  1
*Model_Space
  0
ENDBLK
  5
21
330
1F
100
AcDbEntity
  8
0
100
AcDbBlockEnd
  0
BLOCK
  5
1C
330
1B
100
AcDbEntity
 67
     1
  8
0
100
AcDbBlockBegin
  2
*Paper_Space
 70
     0
 10
0.0
 20
0.0
 30
0.0
  3
*Paper_Space
  1
*Paper_Space
  0
ENDBLK
  5
1D
330
1B
100
AcDbEntity
 67
     1
  8
0
100
AcDbBlockEnd
  0
BLOCK
  5
24
330
23
100
AcDbEntity
  8
0
100
AcDbBlockBegin
  2
*Paper_Space0
 70
     0
 10
0.0
 20
0.0
 30
0.0
  3
*Paper_Space0
  1
*Paper_Space0
  0
ENDBLK
  5
25
330
23
100
AcDbEntity
  8
0
100
AcDbBlockEnd
  0
ENDSEC
  0
SECTION
  2
ENTITIES
  0
LINE
  5
B4
330
1F
100
AcDbEntity
  8
0
  6
Continuous
 62
     7
370
    25
100
AcDbLine
 10
8.089688
 20
5.882227
 30
0.0
 11
8.089688
 21
5.984295
 31
0.0
  0
LINE
  5
B5
330
1F
100
AcDbEntity
  8
0
  6
Continuous
 62
     7
370
    25
100
AcDbLine
 10
4.657708
 20
5.984295
 30
0.0
 11
4.657708
 21
5.882227
 31
0.0
  0
SPLINE
  5
B6
330
1F
100
AcDbEntity
  8
0
  6
Continuous
 62
     7
370
    25
100
AcDbSpline
210
0.0
220
0.0
230
1.0
 70
     8
 71
     3
 72
    24
 73
    20
 74
     0
 42
0.000000001
 43
0.00000001
 40
0.0
 40
0.0
 40
0.0
 40
0.0
 40
0.051127976756947
 40
0.1055910356344162
 40
0.1591064546401794
 40
0.2132520698609515
 40
0.2695676559521628
 40
0.3292432674919969
 40
0.3922853018273926
 40
0.4570456630465803
 40
0.5222905755001881
 40
0.5884857624887404
 40
0.656482607425872
 40
0.7195526760924562
 40
0.7798263023930413
 40
0.8369568660901685
 40
0.8919892688771138
 40
0.9459194302352087
 40
1.0
 40
1.0
 40
1.0
 40
1.0
 10
6.537426964614609
 20
5.921025024413631
 30
0.0
 10
6.537009221711353
 20
5.928861881080443
 30
0.0
 10
6.536146486500972
 20
5.945046793217706
 30
0.0
 10
6.527835545678343
 20
5.9681741795993
 30
0.0
 10
6.515155501875725
 20
5.989408065829234
 30
0.0
 10
6.498286981208639
 20
6.007851835563014
 30
0.0
 10
6.477578068164592
 20
6.023497821307548
 30
0.0
 10
6.453004900437174
 20
6.036141277552114
 30
0.0
 10
6.424928852333973
 20
6.045288382653929
 30
0.0
 10
6.394308180026549
 20
6.050379830826576
 30
0.0
 10
6.362444416694505
 20
6.05106324580999
 30
0.0
 10
6.330466693881347
 20
6.047136199628602
 30
0.0
 10
6.30038629522491
 20
6.038605652155113
 30
0.0
 10
6.273606329708257
 20
6.025895616409424
 30
0.0
 10
6.251196496694954
 20
6.009832065426332
 30
0.0
 10
6.233142979075274
 20
5.990712298820164
 30
0.0
 10
6.219966838472863
 20
5.969066294263332
 30
0.0
 10
6.211290752962296
 20
5.945431139704143
 30
0.0
 10
6.210413774076228
 20
5.928866903780242
 30
0.0
 10
6.209974674022582
 20
5.920573252703443
 30
0.0
  0
LINE
  5
B7
330
1F
100
AcDbEntity
  8
0
  6
Continuous
 62
     7
370
    25
100
AcDbLine
 10
6.209698
 20
5.9204
 30
0.0
 11
6.209698
 21
5.907744
 31
0.0
  0
LINE
  5
B8
330
1F
100
AcDbEntity
  8
0
  6
Continuous
 62
     7
370
    25
100
AcDbLine
 10
6.537698
 20
5.907744
 30
0.0
 11
6.537698
 21
5.9204
 31
0.0
  0
LINE
  5
B9
330
1F
100
AcDbEntity
  8
0
  6
Continuous
 62
     7
370
    25
100
AcDbLine
 10
6.123698
 20
4.606814
 30
0.0
 11
6.123698
 21
4.600434
 31
0.0
  0
LINE
  5
BA
330
1F
100
AcDbEntity
  8
0
  6
Continuous
 62
     7
370
    25
100
AcDbLine
 10
6.123698
 20
4.657848
 30
0.0
 11
6.123698
 21
4.651468
 31
0.0
  0
LINE
  5
BB
330
1F
100
AcDbEntity
  8
0
  6
Continuous
 62
     7
370
    25
100
AcDbLine
 10
6.123698
 20
4.708881
 30
0.0
 11
6.123698
 21
4.702502
 31
0.0
  0
LINE
  5
BC
330
1F
100
AcDbEntity
  8
0
  6
Continuous
 62
     7
370
    25
100
AcDbLine
 10
6.123698
 20
4.759915
 30
0.0
 11
6.123698
 21
4.753536
 31
0.0
  0
LINE
  5
BD
330
1F
100
AcDbEntity
  8
0
  6
Continuous
 62
     7
370
    25
100
AcDbLine
 10
6.123698
 20
4.810949
 30
0.0
 11
6.123698
 21
4.80457
 31
0.0
  0
LINE
  5
BE
330
1F
100
AcDbEntity
  8
0
  6
Continuous
 62
     7
370
    25
100
AcDbLine
 10
6.123698
 20
4.861983
 30
0.0
 11
6.123698
 21
4.855603
 31
0.0
  0
LINE
  5
BF
330
1F
100
AcDbEntity
  8
0
  6
Continuous
 62
     7
370
    25
100
AcDbLine
 10
6.123698
 20
4.913017
 30
0.0
 11
6.123698
 21
4.906637
 31
0.0
  0
LINE
  5
C0
330
1F
100
AcDbEntity
  8
0
  6
Continuous
 62
     7
370
    25
100
AcDbLine
 10
6.123698
 20
4.96405
 30
0.0
 11
6.123698
 21
4.957671
 31
0.0
  0
LINE
  5
C1
330
1F
100
AcDbEntity
  8
0
  6
Continuous
 62
     7
370
    25
100
AcDbLine
 10
6.623698
 20
4.983188
 30
0.0
 11
6.623698
 21
4.989567
 31
0.0
  0
LINE
  5
C2
330
1F
100
AcDbEntity
  8
0
  6
Continuous
 62
     7
370
    25
100
AcDbLine
 10
6.623698
 20
4.932154
 30
0.0
 11
6.623698
 21
4.938533
 31
0.0
  0
LINE
  5
C3
330
1F
100
AcDbEntity
  8
0
  6
Continuous
 62
     7
370
    25
100
AcDbLine
 10
6.623698
 20
4.88112
 30
0.0
 11
6.623698
 21
4.8875
 31
0.0
  0
LINE
  5
C4
330
1F
100
AcDbEntity
  8
0
  6
Continuous
 62
     7
370
    25
100
AcDbLine
 10
6.623698
 20
4.830087
 30
0.0
 11
6.623698
 21
4.836466
 31
0.0
  0
LINE
  5
C5
330
1F
100
AcDbEntity
  8
0
  6
Continuous
 62
     7
370
    25
100
AcDbLine
 10
6.623698
 20
4.779053
 30
0.0
 11
6.623698
 21
4.785432
 31
0.0
  0
LINE
  5
C6
330
1F
100
AcDbEntity
  8
0
  6
Continuous
 62
     7
370
    25
100
AcDbLine
 10
6.623698
 20
4.728019
 30
0.0
 11
6.623698
 21
4.734398
 31
0.0
  0
LINE
  5
C7
330
1F
100
AcDbEntity
  8
0
  6
Continuous
 62
     7
370
    25
100
AcDbLine
 10
6.623698
 20
4.676985
 30
0.0
 11
6.623698
 21
4.683364
 31
0.0
  0
LINE
  5
C8
330
1F
100
AcDbEntity
  8
0
  6
Continuous
 62
     7
370
    25
100
AcDbLine
 10
6.623698
 20
4.625951
 30
0.0
 11
6.623698
 21
4.632331
 31
0.0
  0
LINE
  5
C9
330
1F
100
AcDbEntity
  8
0
  6
Continuous
 62
     7
370
    25
100
AcDbLine
 10
6.623698
 20
4.580865
 30
0.0
 11
6.623698
 21
4.581297
 31
0.0
  0
LINE
  5
CA
330
1F
100
AcDbEntity
  8
0
  6
Continuous
 62
     7
370
    25
100
AcDbLine
 10
5.963849
 20
4.619675
 30
0.0
 11
5.95899
 21
4.609329
 31
0.0
  0
SPLINE
  5
CB
330
1F
100
AcDbEntity
  8
0
  6
Continuous
 62
     7
370
    25
100
AcDbSpline
210
0.0
220
0.0
230
1.0
 70
     8
 71
     3
 72
     9
 73
     5
 74
     0
 42
0.000000001
 43
0.00000001
 40
0.0
 40
0.0
 40
0.0
 40
0.0
 40
0.6781921934616223
 40
1.0
 40
1.0
 40
1.0
 40
1.0
 10
6.691437514746686
 20
4.719646286367182
 30
0.0
 10
6.680385042218879
 20
4.727004060823798
 30
0.0
 10
6.664088080038598
 20
4.737853160131563
 30
0.0
 10
6.645188376887579
 20
4.746521580578715
 30
0.0
 10
6.639106304872324
 20
4.749311145948965
 30
0.0
  0
LINE
  5
CC
330
1F
100
AcDbEntity
  8
0
  6
Continuous
 62
     7
370
    25
100
AcDbLine
 10
6.05542
 20
4.040855
 30
0.0
 11
6.077743
 21
4.026217
 31
0.0
  0
LINE
  5
CD
330
1F
100
AcDbEntity
  8
0
  6
Continuous
 62
     7
370
    25
100
AcDbLine
 10
6.783979
 20
4.139968
 30
0.0
 11
6.788413
 21
4.150428
 31
0.0
  0
SPLINE
  5
CE
330
1F
100
AcDbEntity
  8
0
  6
Continuous
 62
     7
370
    25
100
AcDbSpline
210
0.0
220
0.0
230
1.0
 70
     8
 71
     3
 72
    10
 73
     6
 74
     0
 42
0.000000001
 43
0.00000001
 40
0.0
 40
0.0
 40
0.0
 40
0.0
 40
0.1235656326513801
 40
0.6256184586795195
 40
1.0
 40
1.0
 40
1.0
 40
1.0
 10
6.423338104692928
 20
3.955718587565841
 30
0.0
 10
6.427529308961923
 20
3.955913825209083
 30
0.0
 10
6.44874956817572
 20
3.956902322340689
 30
0.0
 10
6.482192557769775
 20
3.961467819056003
 30
0.0
 10
6.510300492089821
 20
3.967587970092491
 30
0.0
 10
6.522307200368398
 20
3.970202280602799
 30
0.0
  0
SPLINE
  5
CF
330
1F
100
AcDbEntity
  8
0
  6
Continuous
 62
     7
370
    25
100
AcDbSpline
210
0.0
220
0.0
230
1.0
 70
     8
 71
     3
 72
     9
 73
     5
 74
     0
 42
0.000000001
 43
0.00000001
 40
0.0
 40
0.0
 40
0.0
 40
0.0
 40
0.7020189559049167
 40
1.0
 40
1.0
 40
1.0
 40
1.0
 10
6.077742510511135
 20
4.026216651678943
 30
0.0
 10
6.084606118723642
 20
4.022187636316236
 30
0.0
 10
6.094383074395244
 20
4.016448453166241
 30
0.0
 10
6.105253557475563
 20
4.011676436987946
 30
0.0
 10
6.108492755373654
 20
4.010254466624699
 30
0.0
  0
LINE
  5
D0
330
1F
100
AcDbEntity
  8
0
  6
Continuous
 62
     7
370
    25
100
AcDbLine
 10
5.442022
 20
3.290075
 30
0.0
 11
5.43926
 21
3.28848
 31
0.0
  0
LINE
  5
D1
330
1F
100
AcDbEntity
  8
0
  6
Continuous
 62
     7
370
    25
100
AcDbLine
 10
5.464119
 20
3.302831
 30
0.0
 11
5.461357
 21
3.301236
 31
0.0
  0
LINE
  5
D2
330
1F
100
AcDbEntity
  8
0
  6
Continuous
 62
     7
370
    25
100
AcDbLine
 10
5.486216
 20
3.315587
 30
0.0
 11
5.483454
 21
3.313993
 31
0.0
  0
LINE
  5
D3
330
1F
100
AcDbEntity
  8
0
  6
Continuous
 62
     7
370
    25
100
AcDbLine
 10
5.508313
 20
3.328344
 30
0.0
 11
5.505551
 21
3.326749
 31
0.0
  0
LINE
  5
D4
330
1F
100
AcDbEntity
  8
0
  6
Continuous
 62
     7
370
    25
100
AcDbLine
 10
5.53041
 20
3.3411
 30
0.0
 11
5.527648
 21
3.339505
 31
0.0
  0
LINE
  5
D5
330
1F
100
AcDbEntity
  8
0
  6
Continuous
 62
     7
370
    25
100
AcDbLine
 10
5.552507
 20
3.353856
 30
0.0
 11
5.549745
 21
3.352262
 31
0.0
  0
LINE
  5
D6
330
1F
100
AcDbEntity
  8
0
  6
Continuous
 62
     7
370
    25
100
AcDbLine
 10
5.574333
 20
3.366456
 30
0.0
 11
5.571842
 21
3.365018
 31
0.0
  0
LINE
  5
D7
330
1F
100
AcDbEntity
  8
0
  6
Continuous
 62
     7
370
    25
100
AcDbLine
 10
5.654536
 20
3.196256
 30
0.0
 11
5.657298
 21
3.19785
 31
0.0
  0
LINE
  5
D8
330
1F
100
AcDbEntity
  8
0
  6
Continuous
 62
     7
370
    25
100
AcDbLine
 10
5.632439
 20
3.183499
 30
0.0
 11
5.635201
 21
3.185094
 31
0.0
  0
LINE
  5
D9
330
1F
100
AcDbEntity
  8
0
  6
Continuous
 62
     7
370
    25
100
AcDbLine
 10
5.610342
 20
3.170743
 30
0.0
 11
5.613104
 21
3.172338
 31
0.0
  0
LINE
  5
DA
330
1F
100
AcDbEntity
  8
0
  6
Continuous
 62
     7
370
    25
100
AcDbLine
 10
5.588245
 20
3.157987
 30
0.0
 11
5.591007
 21
3.159581
 31
0.0
  0
LINE
  5
DB
330
1F
100
AcDbEntity
  8
0
  6
Continuous
 62
     7
370
    25
100
AcDbLine
 10
5.566148
 20
3.14523
 30
0.0
 11
5.56891
 21
3.146825
 31
0.0
  0
LINE
  5
DC
330
1F
100
AcDbEntity
  8
0
  6
Continuous
 62
     7
370
    25
100
AcDbLine
 10
5.544051
 20
3.132474
 30
0.0
 11
5.546813
 21
3.134069
 31
0.0
  0
LINE
  5
DD
330
1F
100
AcDbEntity
  8
0
  6
Continuous
 62
     7
370
    25
100
AcDbLine
 10
7.217157
 20
3.124501
 30
0.0
 11
7.219919
 21
3.122906
 31
0.0
  0
LINE
  5
DE
330
1F
100
AcDbEntity
  8
0
  6
Continuous
 62
     7
370
    25
100
AcDbLine
 10
7.19506
 20
3.137257
 30
0.0
 11
7.197822
 21
3.135663
 31
0.0
  0
LINE
  5
DF
330
1F
100
AcDbEntity
  8
0
  6
Continuous
 62
     7
370
    25
100
AcDbLine
 10
7.172963
 20
3.150014
 30
0.0
 11
7.175725
 21
3.148419
 31
0.0
  0
LINE
  5
E0
330
1F
100
AcDbEntity
  8
0
  6
Continuous
 62
     7
370
    25
100
AcDbLine
 10
7.150866
 20
3.16277
 30
0.0
 11
7.153628
 21
3.161176
 31
0.0
  0
LINE
  5
E1
330
1F
100
AcDbEntity
  8
0
  6
Continuous
 62
     7
370
    25
100
AcDbLine
 10
7.128769
 20
3.175526
 30
0.0
 11
7.131531
 21
3.173932
 31
0.0
  0
LINE
  5
E2
330
1F
100
AcDbEntity
  8
0
  6
Continuous
 62
     7
370
    25
100
AcDbLine
 10
7.106672
 20
3.188283
 30
0.0
 11
7.109434
 21
3.186688
 31
0.0
  0
LINE
  5
E3
330
1F
100
AcDbEntity
  8
0
  6
Continuous
 62
     7
370
    25
100
AcDbLine
 10
7.084574
 20
3.201039
 30
0.0
 11
7.087337
 21
3.199445
 31
0.0
  0
LINE
  5
E4
330
1F
100
AcDbEntity
  8
0
  6
Continuous
 62
     7
370
    25
100
AcDbLine
 10
7.192128
 20
3.355451
 30
0.0
 11
7.189365
 21
3.357045
 31
0.0
  0
LINE
  5
E5
330
1F
100
AcDbEntity
  8
0
  6
Continuous
 62
     7
370
    25
100
AcDbLine
 10
7.214225
 20
3.342694
 30
0.0
 11
7.211462
 21
3.344289
 31
0.0
  0
LINE
  5
E6
330
1F
100
AcDbEntity
  8
0
  6
Continuous
 62
     7
370
    25
100
AcDbLine
 10
7.236322
 20
3.329938
 30
0.0
 11
7.23356
 21
3.331532
 31
0.0
  0
LINE
  5
E7
330
1F
100
AcDbEntity
  8
0
  6
Continuous
 62
     7
370
    25
100
AcDbLine
 10
7.258419
 20
3.317181
 30
0.0
 11
7.255657
 21
3.318776
 31
0.0
  0
LINE
  5
E8
330
1F
100
AcDbEntity
  8
0
  6
Continuous
 62
     7
370
    25
100
AcDbLine
 10
7.280516
 20
3.304425
 30
0.0
 11
7.277754
 21
3.30602
 31
0.0
  0
LINE
  5
E9
330
1F
100
AcDbEntity
  8
0
  6
Continuous
 62
     7
370
    25
100
AcDbLine
 10
7.302613
 20
3.291669
 30
0.0
 11
7.299851
 21
3.293263
 31
0.0
  0
LINE
  5
EA
330
1F
100
AcDbEntity
  8
0
  6
Continuous
 62
     7
370
    25
100
AcDbLine
 10
5.307448
 20
4.306558
 30
0.0
 11
5.307448
 21
3.643119
 31
0.0
  0
LINE
  5
EB
330
1F
100
AcDbEntity
  8
0
  6
Continuous
 62
     7
370
    25
100
AcDbLine
 10
7.439948
 20
3.643119
 30
0.0
 11
7.439948
 21
4.178974
 31
0.0
  0
LINE
  5
EC
330
1F
100
AcDbEntity
  8
0
  6
Continuous
 62
     7
370
    25
100
AcDbLine
 10
5.644351
 20
3.193662
 30
0.0
 11
5.685925
 21
3.169654
 31
0.0
  0
LINE
  5
ED
330
1F
100
AcDbEntity
  8
0
  6
Continuous
 62
     7
370
    25
100
AcDbLine
 10
7.061471
 20
3.169654
 30
0.0
 11
7.102455
 21
3.193321
 31
0.0
  0
LINE
  5
EE
330
1F
100
AcDbEntity
  8
0
  6
Continuous
 62
     7
370
    25
100
AcDbLine
 10
5.685925
 20
4.780023
 30
0.0
 11
5.619623
 21
4.741735
 31
0.0
  0
ARC
  5
EF
330
1F
100
AcDbEntity
  8
0
  6
Continuous
 62
     7
370
    25
100
AcDbCircle
 10
8.033711
 20
5.984295
 30
0.0
 40
0.0545769146042844
100
AcDbArc
 50
290.783421
 51
69.216579
  0
LINE
  5
F0
330
1F
100
AcDbEntity
  8
0
  6
Continuous
 62
     7
370
    25
100
AcDbLine
 10
6.462086
 20
5.01481
 30
0.0
 11
8.053077
 21
5.933269
 31
0.0
  0
ARC
  5
F1
330
1F
100
AcDbEntity
  8
0
  6
Continuous
 62
     7
370
    25
100
AcDbCircle
 10
6.373698
 20
5.185399
 30
0.0
 40
0.1921277384889643
100
AcDbArc
 50
242.609672
 51
297.390328
  0
LINE
  5
F2
330
1F
100
AcDbEntity
  8
0
  6
Continuous
 62
     7
370
    25
100
AcDbLine
 10
4.69432
 20
5.933269
 30
0.0
 11
6.28531
 21
5.01481
 31
0.0
  0
ARC
  5
F3
330
1F
100
AcDbEntity
  8
0
  6
Continuous
 62
     7
370
    25
100
AcDbCircle
 10
4.713685
 20
5.984295
 30
0.0
 40
0.0545769146042841
100
AcDbArc
 50
110.783421
 51
249.216579
  0
LINE
  5
F4
330
1F
100
AcDbEntity
  8
0
  6
Continuous
 62
     7
370
    25
100
AcDbLine
 10
6.28531
 20
6.953779
 30
0.0
 11
4.69432
 21
6.03532
 31
0.0
  0
ARC
  5
F5
330
1F
100
AcDbEntity
  8
0
  6
Continuous
 62
     7
370
    25
100
AcDbCircle
 10
6.373698
 20
6.78319
 30
0.0
 40
0.1921277384889675
100
AcDbArc
 50
62.609672
 51
117.390328
  0
LINE
  5
F6
330
1F
100
AcDbEntity
  8
0
  6
Continuous
 62
     7
370
    25
100
AcDbLine
 10
8.053077
 20
6.03532
 30
0.0
 11
6.462086
 21
6.953779
 31
0.0
  0
LWPOLYLINE
  5
F7
330
1F
100
AcDbEntity
  8
0
  6
Continuous
 62
     7
370
    25
100
AcDbPolyline
 90
       56
 70
   128
 43
0.0
 10
5.998048
 20
5.767436
 10
6.043317
 20
5.74413
 10
6.092894
 20
5.723954
 10
6.146131
 20
5.707173
 10
6.202335
 20
5.694004
 10
6.260773
 20
5.684619
 10
6.320683
 20
5.679141
 10
6.381284
 20
5.677642
 10
6.441786
 20
5.68014
 10
6.501401
 20
5.686603
 10
6.559351
 20
5.696947
 10
6.614881
 20
5.711037
 10
6.667266
 20
5.728689
 10
6.715824
 20
5.749674
 10
6.759923
 20
5.773717
 10
6.798986
 20
5.800506
 10
6.832505
 20
5.82969
 10
6.860042
 20
5.86089
 10
6.88124
 20
5.893699
 10
6.89582
 20
5.927688
 10
6.903595
 20
5.962416
 10
6.904461
 20
5.997429
 10
6.898408
 20
6.03227
 10
6.885514
 20
6.066487
 10
6.865948
 20
6.099631
 10
6.839965
 20
6.131273
 10
6.807904
 20
6.160998
 10
6.770181
 20
6.188419
 10
6.727291
 20
6.213179
 10
6.67979
 20
6.234956
 10
6.628299
 20
6.253465
 10
6.573489
 20
6.268464
 10
6.516075
 20
6.27976
 10
6.456804
 20
6.287203
 10
6.39645
 20
6.290697
 10
6.335799
 20
6.290197
 10
6.275643
 20
6.285709
 10
6.216764
 20
6.277292
 10
6.159932
 20
6.265055
 10
6.105886
 20
6.249158
 10
6.055332
 20
6.229808
 10
6.008928
 20
6.207257
 10
5.967279
 20
6.1818
 10
5.930929
 20
6.153768
 10
5.900351
 20
6.123526
 10
5.875944
 20
6.09147
 10
5.858025
 20
6.058016
 10
5.84683
 20
6.023601
 10
5.842502
 20
5.988674
 10
5.8451
 20
5.953689
 10
5.854589
 20
5.919104
 10
5.870845
 20
5.885369
 10
5.893657
 20
5.852923
 10
5.922726
 20
5.82219
 10
5.957675
 20
5.79357
 10
5.998048
 20
5.767436
  0
LWPOLYLINE
  5
F8
330
1F
100
AcDbEntity
  8
0
  6
Continuous
 62
     7
370
    25
100
AcDbPolyline
 90
       20
 70
   128
 43
0.0
 10
6.51493
 20
6.609748
 10
6.531674
 20
6.602847
 10
6.551393
 20
6.599458
 10
6.57195
 20
6.599948
 10
6.591117
 20
6.604266
 10
6.606817
 20
6.611942
 10
6.617349
 20
6.622145
 10
6.621571
 20
6.63377
 10
6.619026
 20
6.645556
 10
6.60999
 20
6.656226
 10
6.595442
 20
6.664625
 10
6.576958
 20
6.669841
 10
6.556541
 20
6.671311
 10
6.536405
 20
6.668873
 10
6.518731
 20
6.662793
 10
6.505433
 20
6.65373
 10
6.497954
 20
6.642665
 10
6.497104
 20
6.630798
 10
6.502975
 20
6.619415
 10
6.51493
 20
6.609748
  0
LWPOLYLINE
  5
F9
330
1F
100
AcDbEntity
  8
0
  6
Continuous
 62
     7
370
    25
100
AcDbPolyline
 90
       25
 70
   128
 43
0.0
 10
6.301883
 20
6.668956
 10
6.322917
 20
6.659638
 10
6.347412
 20
6.653781
 10
6.373698
 20
6.651783
 10
6.399984
 20
6.653781
 10
6.424479
 20
6.659638
 10
6.445514
 20
6.668956
 10
6.461654
 20
6.681099
 10
6.4718
 20
6.695239
 10
6.475261
 20
6.710414
 10
6.4718
 20
6.725589
 10
6.461654
 20
6.73973
 10
6.445514
 20
6.751872
 10
6.424479
 20
6.76119
 10
6.399984
 20
6.767047
 10
6.373698
 20
6.769045
 10
6.347412
 20
6.767047
 10
6.322917
 20
6.76119
 10
6.301883
 20
6.751872
 10
6.285742
 20
6.73973
 10
6.275596
 20
6.725589
 10
6.272136
 20
6.710414
 10
6.275596
 20
6.695239
 10
6.285742
 20
6.681099
 10
6.301883
 20
6.668956
  0
LWPOLYLINE
  5
FA
330
1F
100
AcDbEntity
  8
0
  6
Continuous
 62
     7
370
    25
100
AcDbPolyline
 90
       20
 70
   128
 43
0.0
 10
5.290263
 20
5.902763
 10
5.302218
 20
5.893097
 10
5.308089
 20
5.881713
 10
5.307239
 20
5.869846
 10
5.29976
 20
5.858781
 10
5.286463
 20
5.849718
 10
5.268788
 20
5.843638
 10
5.248652
 20
5.841201
 10
5.228236
 20
5.84267
 10
5.209752
 20
5.847886
 10
5.195203
 20
5.856285
 10
5.186167
 20
5.866955
 10
5.183622
 20
5.878741
 10
5.187845
 20
5.890366
 10
5.198376
 20
5.900569
 10
5.214076
 20
5.908245
 10
5.233243
 20
5.912563
 10
5.2538
 20
5.913054
 10
5.273519
 20
5.909665
 10
5.290263
 20
5.902763
  0
LWPOLYLINE
  5
FB
330
1F
100
AcDbEntity
  8
0
  6
Continuous
 62
     7
370
    25
100
AcDbPolyline
 90
       25
 70
   128
 43
0.0
 10
5.187701
 20
6.025753
 10
5.203841
 20
6.01361
 10
5.213987
 20
5.999469
 10
5.217448
 20
5.984295
 10
5.213987
 20
5.96912
 10
5.203841
 20
5.954979
 10
5.187701
 20
5.942836
 10
5.166667
 20
5.933519
 10
5.142172
 20
5.927662
 10
5.115886
 20
5.925664
 10
5.089599
 20
5.927662
 10
5.065104
 20
5.933519
 10
5.04407
 20
5.942836
 10
5.02793
 20
5.954979
 10
5.017784
 20
5.96912
 10
5.014323
 20
5.984295
 10
5.017784
 20
5.999469
 10
5.02793
 20
6.01361
 10
5.04407
 20
6.025753
 10
5.065104
 20
6.03507
 10
5.089599
 20
6.040928
 10
5.115886
 20
6.042925
 10
5.142172
 20
6.040928
 10
5.166667
 20
6.03507
 10
5.187701
 20
6.025753
  0
LWPOLYLINE
  5
FC
330
1F
100
AcDbEntity
  8
0
  6
Continuous
 62
     7
370
    25
100
AcDbPolyline
 90
       20
 70
   128
 43
0.0
 10
7.457133
 20
6.065826
 10
7.445178
 20
6.075492
 10
7.439307
 20
6.086876
 10
7.440157
 20
6.098743
 10
7.447636
 20
6.109808
 10
7.460934
 20
6.118871
 10
7.478608
 20
6.124951
 10
7.498744
 20
6.127388
 10
7.519161
 20
6.125919
 10
7.537645
 20
6.120703
 10
7.552193
 20
6.112304
 10
7.561229
 20
6.101634
 10
7.563774
 20
6.089848
 10
7.559552
 20
6.078223
 10
7.54902
 20
6.06802
 10
7.53332
 20
6.060344
 10
7.514153
 20
6.056026
 10
7.493596
 20
6.055535
 10
7.473877
 20
6.058924
 10
7.457133
 20
6.065826
  0
LWPOLYLINE
  5
FD
330
1F
100
AcDbEntity
  8
0
  6
Continuous
 62
     7
370
    25
100
AcDbPolyline
 90
       25
 70
   128
 43
0.0
 10
7.559695
 20
5.942836
 10
7.543555
 20
5.954979
 10
7.533409
 20
5.96912
 10
7.529948
 20
5.984295
 10
7.533409
 20
5.999469
 10
7.543555
 20
6.01361
 10
7.559695
 20
6.025753
 10
7.580729
 20
6.03507
 10
7.605224
 20
6.040928
 10
7.631511
 20
6.042925
 10
7.657797
 20
6.040928
 10
7.682292
 20
6.03507
 10
7.703326
 20
6.025753
 10
7.719466
 20
6.01361
 10
7.729612
 20
5.999469
 10
7.733073
 20
5.984295
 10
7.729612
 20
5.96912
 10
7.719466
 20
5.954979
 10
7.703326
 20
5.942836
 10
7.682292
 20
5.933519
 10
7.657797
 20
5.927662
 10
7.631511
 20
5.925664
 10
7.605224
 20
5.927662
 10
7.580729
 20
5.933519
 10
7.559695
 20
5.942836
  0
LWPOLYLINE
  5
FE
330
1F
100
AcDbEntity
  8
0
  6
Continuous
 62
     7
370
    25
100
AcDbPolyline
 90
       20
 70
   128
 43
0.0
 10
6.232466
 20
5.358841
 10
6.215722
 20
5.365742
 10
6.196003
 20
5.369131
 10
6.175446
 20
5.368641
 10
6.156279
 20
5.364323
 10
6.140579
 20
5.356647
 10
6.130048
 20
5.346444
 10
6.125825
 20
5.334819
 10
6.12837
 20
5.323033
 10
6.137406
 20
5.312363
 10
6.151955
 20
5.303964
 10
6.170438
 20
5.298748
 10
6.190855
 20
5.297278
 10
6.210991
 20
5.299716
 10
6.228666
 20
5.305796
 10
6.241963
 20
5.314859
 10
6.249442
 20
5.325924
 10
6.250292
 20
5.337791
 10
6.244421
 20
5.349175
 10
6.232466
 20
5.358841
  0
LWPOLYLINE
  5
FF
330
1F
100
AcDbEntity
  8
0
  6
Continuous
 62
     7
370
    25
100
AcDbPolyline
 90
       25
 70
   128
 43
0.0
 10
6.445514
 20
5.299633
 10
6.424479
 20
5.308951
 10
6.399984
 20
5.314808
 10
6.373698
 20
5.316806
 10
6.347412
 20
5.314808
 10
6.322917
 20
5.308951
 10
6.301883
 20
5.299633
 10
6.285742
 20
5.28749
 10
6.275596
 20
5.27335
 10
6.272136
 20
5.258175
 10
6.275596
 20
5.243
 10
6.285742
 20
5.228859
 10
6.301883
 20
5.216717
 10
6.322917
 20
5.207399
 10
6.347412
 20
5.201542
 10
6.373698
 20
5.199544
 10
6.399984
 20
5.201542
 10
6.424479
 20
5.207399
 10
6.445514
 20
5.216717
 10
6.461654
 20
5.228859
 10
6.4718
 20
5.243
 10
6.475261
 20
5.258175
 10
6.4718
 20
5.27335
 10
6.461654
 20
5.28749
 10
6.445514
 20
5.299633
  0
LINE
  5
100
330
1F
100
AcDbEntity
  8
0
  6
Continuous
 62
     7
370
    25
100
AcDbLine
 10
6.462086
 20
5.01481
 30
0.0
 11
6.462086
 21
4.912742
 31
0.0
  0
ARC
  5
101
330
1F
100
AcDbEntity
  8
0
  6
Continuous
 62
     7
370
    25
100
AcDbCircle
 10
6.373698
 20
5.083331
 30
0.0
 40
0.1921277384889675
100
AcDbArc
 50
242.609672
 51
297.390328
  0
LINE
  5
102
330
1F
100
AcDbEntity
  8
0
  6
Continuous
 62
     7
370
    25
100
AcDbLine
 10
6.28531
 20
4.912742
 30
0.0
 11
6.28531
 21
5.01481
 31
0.0
  0
LINE
  5
103
330
1F
100
AcDbEntity
  8
0
  6
Continuous
 62
     7
370
    25
100
AcDbLine
 10
8.053077
 20
5.831201
 30
0.0
 11
8.053077
 21
5.933269
 31
0.0
  0
LINE
  5
104
330
1F
100
AcDbEntity
  8
0
  6
Continuous
 62
     7
370
    25
100
AcDbLine
 10
6.462086
 20
4.912742
 30
0.0
 11
8.053077
 21
5.831201
 31
0.0
  0
LINE
  5
105
330
1F
100
AcDbEntity
  8
0
  6
Continuous
 62
     7
370
    25
100
AcDbLine
 10
4.69432
 20
5.933269
 30
0.0
 11
4.69432
 21
5.831201
 31
0.0
  0
LINE
  5
106
330
1F
100
AcDbEntity
  8
0
  6
Continuous
 62
     7
370
    25
100
AcDbLine
 10
4.69432
 20
5.831201
 30
0.0
 11
6.28531
 21
4.912742
 31
0.0
  0
ARC
  5
107
330
1F
100
AcDbEntity
  8
0
  6
Continuous
 62
     7
370
    25
100
AcDbCircle
 10
6.373698
 20
5.047739
 30
0.0
 40
0.167059320410762
100
AcDbArc
 50
72.585097
 51
107.414903
  0
LWPOLYLINE
  5
108
330
1F
100
AcDbEntity
  8
0
  6
Continuous
 62
     7
370
    25
100
AcDbPolyline
 90
       50
 70
   128
 43
0.0
 10
6.074232
 20
6.137243
 10
6.038396
 20
6.113716
 10
6.008065
 20
6.087737
 10
5.983738
 20
6.059733
 10
5.965815
 20
6.030162
 10
5.954588
 20
5.999511
 10
5.950244
 20
5.968283
 10
5.952852
 20
5.936991
 10
5.962371
 20
5.906148
 10
5.978644
 20
5.876261
 10
6.001403
 20
5.847821
 10
6.030276
 20
5.821294
 10
6.064788
 20
5.797116
 10
6.104372
 20
5.775685
 10
6.148378
 20
5.757352
 10
6.196084
 20
5.742418
 10
6.246706
 20
5.731128
 10
6.299414
 20
5.723668
 10
6.353341
 20
5.720161
 10
6.407603
 20
5.720663
 10
6.461308
 20
5.725167
 10
6.513574
 20
5.733598
 10
6.563544
 20
5.745818
 10
6.610396
 20
5.761627
 10
6.653362
 20
5.780765
 10
6.691736
 20
5.802918
 10
6.724887
 20
5.827722
 10
6.752272
 20
5.854769
 10
6.773441
 20
5.883616
 10
6.788046
 20
5.913789
 10
6.795848
 20
5.944792
 10
6.796717
 20
5.976116
 10
6.790641
 20
6.007248
 10
6.777719
 20
6.037675
 10
6.758163
 20
6.066899
 10
6.732293
 20
6.094439
 10
6.700536
 20
6.119844
 10
6.663412
 20
6.142695
 10
6.621531
 20
6.162618
 10
6.57558
 20
6.179286
 10
6.526315
 20
6.192425
 10
6.474543
 20
6.201819
 10
6.421116
 20
6.207314
 10
6.36691
 20
6.20882
 10
6.312816
 20
6.206312
 10
6.259721
 20
6.199831
 10
6.208498
 20
6.189484
 10
6.159987
 20
6.17544
 10
6.114986
 20
6.15793
 10
6.074232
 20
6.137243
  0
LWPOLYLINE
  5
109
330
1F
100
AcDbEntity
  8
0
  6
Continuous
 62
     7
370
    25
100
AcDbPolyline
 90
       43
 70
   128
 43
0.0
 10
6.158829
 20
6.04175
 10
6.129205
 20
6.021877
 10
6.105041
 20
5.999677
 10
6.08688
 20
5.975647
 10
6.075125
 20
5.950322
 10
6.07004
 20
5.924268
 10
6.071738
 20
5.898068
 10
6.080182
 20
5.872307
 10
6.095182
 20
5.847559
 10
6.116404
 20
5.824379
 10
6.143373
 20
5.803284
 10
6.175487
 20
5.784745
 10
6.212029
 20
5.769176
 10
6.252183
 20
5.756925
 10
6.295051
 20
5.748265
 10
6.339675
 20
5.743391
 10
6.38506
 20
5.742411
 10
6.430191
 20
5.745346
 10
6.47406
 20
5.752132
 10
6.515687
 20
5.762617
 10
6.554143
 20
5.776566
 10
6.588567
 20
5.793668
 10
6.618192
 20
5.81354
 10
6.642355
 20
5.83574
 10
6.660516
 20
5.859771
 10
6.672271
 20
5.885096
 10
6.677356
 20
5.91115
 10
6.675658
 20
5.93735
 10
6.667215
 20
5.963111
 10
6.652214
 20
5.987858
 10
6.630993
 20
6.011038
 10
6.604023
 20
6.032134
 10
6.571909
 20
6.050673
 10
6.535367
 20
6.066242
 10
6.495214
 20
6.078493
 10
6.452346
 20
6.087152
 10
6.407721
 20
6.092027
 10
6.362336
 20
6.093007
 10
6.317205
 20
6.090071
 10
6.273336
 20
6.083285
 10
6.231709
 20
6.072801
 10
6.193254
 20
6.058852
 10
6.158829
 20
6.04175
  0
LWPOLYLINE
  5
10A
330
1F
100
AcDbEntity
  8
0
  6
Continuous
 62
     7
370
    25
100
AcDbPolyline
 90
       39
 70
   128
 43
0.0
 10
6.196921
 20
6.009795
 10
6.170236
 20
5.991606
 10
6.1491
 20
5.97113
 10
6.134091
 20
5.948924
 10
6.125618
 20
5.925595
 10
6.123912
 20
5.90178
 10
6.129019
 20
5.878127
 10
6.1408
 20
5.855282
 10
6.158935
 20
5.833868
 10
6.182927
 20
5.814469
 10
6.212123
 20
5.797614
 10
6.245727
 20
5.783763
 10
6.282821
 20
5.773295
 10
6.322394
 20
5.766494
 10
6.363367
 20
5.763545
 10
6.404621
 20
5.76453
 10
6.445032
 20
5.769422
 10
6.483497
 20
5.778086
 10
6.518967
 20
5.790288
 10
6.550475
 20
5.805693
 10
6.57716
 20
5.823882
 10
6.598296
 20
5.844358
 10
6.613305
 20
5.866564
 10
6.621778
 20
5.889892
 10
6.623485
 20
5.913708
 10
6.618377
 20
5.937361
 10
6.606596
 20
5.960206
 10
6.588462
 20
5.98162
 10
6.564469
 20
6.001019
 10
6.535273
 20
6.017874
 10
6.501669
 20
6.031724
 10
6.464575
 20
6.042193
 10
6.425002
 20
6.048994
 10
6.384029
 20
6.051942
 10
6.342775
 20
6.050957
 10
6.302364
 20
6.046066
 10
6.263899
 20
6.037401
 10
6.228429
 20
6.0252
 10
6.196921
 20
6.009795
  0
ARC
  5
10B
330
1F
100
AcDbEntity
  8
0
  6
Continuous
 62
     7
370
    25
100
AcDbCircle
 10
7.631511
 20
5.773859
 30
0.0
 40
0.1670593204107795
100
AcDbArc
 50
72.585097
 51
107.414903
  0
ARC
  5
10C
330
1F
100
AcDbEntity
  8
0
  6
Continuous
 62
     7
370
    25
100
AcDbCircle
 10
5.115886
 20
5.773859
 30
0.0
 40
0.1670593204107721
100
AcDbArc
 50
72.585097
 51
107.414903
  0
ARC
  5
10D
330
1F
100
AcDbEntity
  8
0
  6
Continuous
 62
     7
370
    25
100
AcDbCircle
 10
8.027131
 20
5.888465
 30
0.0
 40
0.0628674098117236
100
AcDbArc
 50
294.374658
 51
354.305201
  0
ARC
  5
10E
330
1F
100
AcDbEntity
  8
0
  6
Continuous
 62
     7
370
    25
100
AcDbCircle
 10
4.720265
 20
5.888465
 30
0.0
 40
0.062867409811722
100
AcDbArc
 50
185.694799
 51
245.625342
  0
ARC
  5
10F
330
1F
100
AcDbEntity
  8
0
  6
Continuous
 62
     7
370
    25
100
AcDbCircle
 10
6.373698
 20
6.499979
 30
0.0
 40
0.1670593204107702
100
AcDbArc
 50
72.585097
 51
107.414903
  0
LWPOLYLINE
  5
110
330
1F
100
AcDbEntity
  8
0
  6
Continuous
 62
     7
370
    25
100
AcDbPolyline
 90
       22
 70
   128
 43
0.0
 10
6.31713
 20
5.956333
 10
6.336317
 20
5.948159
 10
6.358825
 20
5.943612
 10
6.382655
 20
5.943097
 10
6.405689
 20
5.94666
 10
6.425881
 20
5.953984
 10
6.441436
 20
5.964419
 10
6.450972
 20
5.977037
 10
6.453642
 20
5.990716
 10
6.449209
 20
6.004243
 10
6.438066
 20
6.016414
 10
6.421204
 20
6.026148
 10
6.40012
 20
6.032581
 10
6.376689
 20
6.03514
 10
6.352993
 20
6.033599
 10
6.331136
 20
6.028094
 10
6.31306
 20
6.019114
 10
6.300373
 20
6.007458
 10
6.294201
 20
5.99416
 10
6.295093
 20
5.980404
 10
6.302969
 20
5.96741
 10
6.31713
 20
5.956333
  0
LWPOLYLINE
  5
111
330
1F
100
AcDbEntity
  8
0
  6
Continuous
 62
     7
370
    25
100
AcDbPolyline
 90
       13
 70
   128
 43
0.0
 10
6.257733
 20
5.840798
 10
6.284377
 20
5.828343
 10
6.314926
 20
5.819357
 10
6.348043
 20
5.814234
 10
6.382281
 20
5.813198
 10
6.416144
 20
5.816295
 10
6.448153
 20
5.823388
 10
6.476907
 20
5.834167
 10
6.50115
 20
5.848163
 10
6.519823
 20
5.864762
 10
6.53211
 20
5.88324
 10
6.537473
 20
5.902789
 10
6.537698
 20
5.907744
  0
ARC
  5
112
330
1F
100
AcDbEntity
  8
0
  6
Continuous
 62
     7
370
    25
100
AcDbCircle
 10
6.290927
 20
5.915321
 30
0.0
 40
0.0815811478083349
100
AcDbArc
 50
185.329339
 51
245.990802
  0
LINE
  5
113
330
1F
100
AcDbEntity
  8
0
  6
Continuous
 62
     7
370
    25
100
AcDbLine
 10
6.335425
 20
5.966895
 30
0.0
 11
6.387707
 21
5.958808
 31
0.0
  0
LINE
  5
114
330
1F
100
AcDbEntity
  8
0
  6
Continuous
 62
     7
370
    25
100
AcDbLine
 10
6.387707
 20
5.958808
 30
0.0
 11
6.42598
 21
5.980902
 31
0.0
  0
LINE
  5
115
330
1F
100
AcDbEntity
  8
0
  6
Continuous
 62
     7
370
    25
100
AcDbLine
 10
6.42598
 20
5.980902
 30
0.0
 11
6.411971
 21
6.011084
 31
0.0
  0
LINE
  5
116
330
1F
100
AcDbEntity
  8
0
  6
Continuous
 62
     7
370
    25
100
AcDbLine
 10
6.411971
 20
6.011084
 30
0.0
 11
6.359689
 21
6.019172
 31
0.0
  0
LINE
  5
117
330
1F
100
AcDbEntity
  8
0
  6
Continuous
 62
     7
370
    25
100
AcDbLine
 10
6.359689
 20
6.019172
 30
0.0
 11
6.321416
 21
5.997077
 31
0.0
  0
LINE
  5
118
330
1F
100
AcDbEntity
  8
0
  6
Continuous
 62
     7
370
    25
100
AcDbLine
 10
6.321416
 20
5.997077
 30
0.0
 11
6.335425
 21
5.966895
 31
0.0
  0
LINE
  5
119
330
1F
100
AcDbEntity
  8
0
  6
Continuous
 62
     7
370
    25
100
AcDbLine
 10
6.411971
 20
5.972815
 30
0.0
 11
6.411971
 21
6.011084
 31
0.0
  0
LINE
  5
11A
330
1F
100
AcDbEntity
  8
0
  6
Continuous
 62
     7
370
    25
100
AcDbLine
 10
6.359689
 20
5.963142
 30
0.0
 11
6.359689
 21
6.019172
 31
0.0
  0
SPLINE
  5
11B
330
1F
100
AcDbEntity
  8
0
  6
Continuous
 62
     7
370
    25
100
AcDbSpline
210
0.0
220
0.0
230
1.0
 70
     8
 71
     3
 72
    19
 73
    15
 74
     0
 42
0.000000001
 43
0.00000001
 40
0.0
 40
0.0
 40
0.0
 40
0.0
 40
0.0163246297912735
 40
0.1100768311300745
 40
0.2038290324688809
 40
0.2975812338076873
 40
0.3913334351464882
 40
0.4850856364852946
 40
0.5788378378240955
 40
0.6725900391628964
 40
0.7663422405017027
 40
0.8600944418405092
 40
0.9538466431793102
 40
1.0
 40
1.0
 40
1.0
 40
1.0
 10
6.613470461202133
 20
5.000134396229758
 30
0.0
 10
6.612840072008108
 20
4.997851468294767
 30
0.0
 10
6.608589363370664
 20
4.982457705863691
 30
0.0
 10
6.58469361297599
 20
4.956414744433792
 30
0.0
 10
6.542979102859946
 20
4.925180876919867
 30
0.0
 10
6.488218145278165
 20
4.901540404229718
 30
0.0
 10
6.426056352238608
 20
4.886716147925482
 30
0.0
 10
6.360222602703779
 20
4.881638891878026
 30
0.0
 10
6.29531899268723
 20
4.886491271776668
 30
0.0
 10
6.235813401346538
 20
4.900806087031482
 30
0.0
 10
6.185466180042821
 20
4.923447785938214
 30
0.0
 10
6.148843028716423
 20
4.952780508560452
 30
0.0
 10
6.128367282238338
 20
4.980766264996494
 30
0.0
 10
6.127054682894366
 20
4.998500604660733
 30
0.0
 10
6.126621670320156
 20
5.004350974848097
 30
0.0
  0
SPLINE
  5
11C
330
1F
100
AcDbEntity
  8
0
  6
Continuous
 62
     7
370
    25
100
AcDbSpline
210
0.0
220
0.0
230
1.0
 70
     8
 71
     3
 72
    21
 73
    17
 74
     0
 42
0.000000001
 43
0.00000001
 40
0.0
 40
0.0
 40
0.0
 40
0.0
 40
0.044202622870943
 40
0.1214302476683322
 40
0.1986578724657237
 40
0.2758854972631196
 40
0.3531131220605155
 40
0.4303407468579069
 40
0.5075683716553029
 40
0.5847959964526943
 40
0.6620236212500857
 40
0.7392512460474817
 40
0.8164788708448776
 40
0.8937064956422691
 40
0.9709341204396651
 40
1.0
 40
1.0
 40
1.0
 40
1.0
 10
6.620447481560114
 20
5.00416214434939
 30
0.0
 10
6.621925628708221
 20
4.996590487951571
 30
0.0
 10
6.625986287615471
 20
4.975790181274497
 30
0.0
 10
6.613629488830935
 20
4.941742262727529
 30
0.0
 10
6.585775316262379
 20
4.905266920164568
 30
0.0
 10
6.542689330057999
 20
4.874177629390826
 30
0.0
 10
6.488295533199564
 20
4.850498414157946
 30
0.0
 10
6.426036573354961
 20
4.835684551284452
 30
0.0
 10
6.36022433031697
 20
4.830604464056765
 30
0.0
 10
6.29533186111811
 20
4.835457775245588
 30
0.0
 10
6.235760200009825
 20
4.84977169651991
 30
0.0
 10
6.185666116958799
 20
4.872416040058427
 30
0.0
 10
6.148096482389223
 20
4.901739078134018
 30
0.0
 10
6.126982379306693
 20
4.935461957152019
 30
0.0
 10
6.120379392073882
 20
4.964125526011654
 30
0.0
 10
6.126797359950459
 20
4.98008403488356
 30
0.0
 10
6.12855234848386
 20
4.984447877242848
 30
0.0
  0
SPLINE
  5
11D
330
1F
100
AcDbEntity
  8
0
  6
Continuous
 62
     7
370
    25
100
AcDbSpline
210
0.0
220
0.0
230
1.0
 70
     8
 71
     3
 72
    21
 73
    17
 74
     0
 42
0.000000001
 43
0.00000001
 40
0.0
 40
0.0
 40
0.0
 40
0.0
 40
0.0602639802210931
 40
0.1361938608429354
 40
0.2121237414647777
 40
0.2880536220866244
 40
0.3639835027084712
 40
0.4399133833303134
 40
0.5158432639521602
 40
0.5917731445740024
 40
0.6677030251958447
 40
0.7436329058176915
 40
0.8195627864395382
 40
0.8954926670613804
 40
0.9714225476832271
 40
0.9999999999999999
 40
0.9999999999999999
 40
0.9999999999999999
 40
0.9999999999999999
 10
6.619327901979102
 20
4.961911888919505
 30
0.0
 10
6.621521101852485
 20
4.951412725253023
 30
0.0
 10
6.626477634050661
 20
4.927685091762604
 30
0.0
 10
6.613797327064072
 20
4.89070862948388
 30
0.0
 10
6.585730344143351
 20
4.854233074540431
 30
0.0
 10
6.542701380300974
 20
4.823143840673868
 30
0.0
 10
6.488292304346689
 20
4.799464610192756
 30
0.0
 10
6.426037438523484
 20
4.784650751405013
 30
0.0
 10
6.360224098495751
 20
4.779570663082553
 30
0.0
 10
6.295331923234462
 20
4.784423974564719
 30
0.0
 10
6.235760183365636
 20
4.79873789576044
 30
0.0
 10
6.1856661214192
 20
4.821382239320019
 30
0.0
 10
6.148096481191809
 20
4.850705277389964
 30
0.0
 10
6.126982379635949
 20
4.884428156409489
 30
0.0
 10
6.120379392047581
 20
4.913091725268768
 30
0.0
 10
6.126797359944812
 20
4.929050234140695
 30
0.0
 10
6.12855234848386
 20
4.933414076499988
 30
0.0
  0
SPLINE
  5
11E
330
1F
100
AcDbEntity
  8
0
  6
Continuous
 62
     7
370
    25
100
AcDbSpline
210
0.0
220
0.0
230
1.0
 70
     8
 71
     3
 72
    21
 73
    17
 74
     0
 42
0.000000001
 43
0.00000001
 40
0.0
 40
0.0
 40
0.0
 40
0.0
 40
0.060263980221093
 40
0.1361938608429354
 40
0.2121237414647777
 40
0.2880536220866244
 40
0.3639835027084711
 40
0.4399133833303133
 40
0.51584326395216
 40
0.5917731445740022
 40
0.6677030251958446
 40
0.7436329058176914
 40
0.8195627864395381
 40
0.8954926670613804
 40
0.9714225476832271
 40
0.9999999999999999
 40
0.9999999999999999
 40
0.9999999999999999
 40
0.9999999999999999
 10
6.619327901979102
 20
4.910878088176646
 30
0.0
 10
6.621521101852485
 20
4.900378924510164
 30
0.0
 10
6.626477634050661
 20
4.876651291019745
 30
0.0
 10
6.613797327064072
 20
4.83967482874102
 30
0.0
 10
6.585730344143351
 20
4.803199273797572
 30
0.0
 10
6.542701380300974
 20
4.772110039931009
 30
0.0
 10
6.488292304346689
 20
4.748430809449896
 30
0.0
 10
6.426037438523484
 20
4.733616950662153
 30
0.0
 10
6.360224098495751
 20
4.728536862339694
 30
0.0
 10
6.295331923234462
 20
4.73339017382186
 30
0.0
 10
6.235760183365636
 20
4.74770409501758
 30
0.0
 10
6.1856661214192
 20
4.770348438577159
 30
0.0
 10
6.148096481191809
 20
4.799671476647105
 30
0.0
 10
6.126982379635949
 20
4.833394355666629
 30
0.0
 10
6.120379392047581
 20
4.862057924525908
 30
0.0
 10
6.126797359944812
 20
4.878016433397836
 30
0.0
 10
6.12855234848386
 20
4.88238027575713
 30
0.0
  0
SPLINE
  5
11F
330
1F
100
AcDbEntity
  8
0
  6
Continuous
 62
     7
370
    25
100
AcDbSpline
210
0.0
220
0.0
230
1.0
 70
     8
 71
     3
 72
    21
 73
    17
 74
     0
 42
0.000000001
 43
0.00000001
 40
0.0
 40
0.0
 40
0.0
 40
0.0
 40
0.060263980221093
 40
0.1361938608429353
 40
0.2121237414647777
 40
0.2880536220866244
 40
0.3639835027084711
 40
0.4399133833303133
 40
0.5158432639521601
 40
0.5917731445740023
 40
0.6677030251958446
 40
0.7436329058176914
 40
0.8195627864395381
 40
0.8954926670613804
 40
0.9714225476832271
 40
0.9999999999999999
 40
0.9999999999999999
 40
0.9999999999999999
 40
0.9999999999999999
 10
6.619327901979102
 20
4.859844287433786
 30
0.0
 10
6.621521101852485
 20
4.849345123767304
 30
0.0
 10
6.626477634050661
 20
4.825617490276886
 30
0.0
 10
6.613797327064072
 20
4.788641027998161
 30
0.0
 10
6.585730344143351
 20
4.752165473054712
 30
0.0
 10
6.542701380300974
 20
4.721076239188151
 30
0.0
 10
6.488292304346689
 20
4.697397008707037
 30
0.0
 10
6.426037438523484
 20
4.682583149919294
 30
0.0
 10
6.360224098495751
 20
4.677503061596834
 30
0.0
 10
6.295331923234462
 20
4.682356373079
 30
0.0
 10
6.235760183365636
 20
4.696670294274722
 30
0.0
 10
6.1856661214192
 20
4.7193146378343
 30
0.0
 10
6.148096481191809
 20
4.748637675904246
 30
0.0
 10
6.126982379635949
 20
4.78236055492377
 30
0.0
 10
6.120379392047581
 20
4.811024123783049
 30
0.0
 10
6.126797359944812
 20
4.826982632654977
 30
0.0
 10
6.12855234848386
 20
4.83134647501427
 30
0.0
  0
SPLINE
  5
120
330
1F
100
AcDbEntity
  8
0
  6
Continuous
 62
     7
370
    25
100
AcDbSpline
210
0.0
220
0.0
230
1.0
 70
     8
 71
     3
 72
    21
 73
    17
 74
     0
 42
0.000000001
 43
0.00000001
 40
0.0
 40
0.0
 40
0.0
 40
0.0
 40
0.060263980221093
 40
0.1361938608429353
 40
0.2121237414647777
 40
0.2880536220866244
 40
0.3639835027084711
 40
0.4399133833303133
 40
0.5158432639521602
 40
0.5917731445740024
 40
0.6677030251958447
 40
0.7436329058176915
 40
0.8195627864395382
 40
0.8954926670613804
 40
0.9714225476832271
 40
0.9999999999999999
 40
0.9999999999999999
 40
0.9999999999999999
 40
0.9999999999999999
 10
6.619327901979102
 20
4.808810486690927
 30
0.0
 10
6.621521101852485
 20
4.798311323024445
 30
0.0
 10
6.626477634050661
 20
4.774583689534027
 30
0.0
 10
6.613797327064072
 20
4.737607227255302
 30
0.0
 10
6.585730344143351
 20
4.701131672311853
 30
0.0
 10
6.542701380300974
 20
4.670042438445291
 30
0.0
 10
6.488292304346689
 20
4.646363207964177
 30
0.0
 10
6.426037438523484
 20
4.631549349176436
 30
0.0
 10
6.360224098495751
 20
4.626469260853975
 30
0.0
 10
6.295331923234462
 20
4.63132257233614
 30
0.0
 10
6.235760183365636
 20
4.645636493531862
 30
0.0
 10
6.1856661214192
 20
4.66828083709144
 30
0.0
 10
6.148096481191809
 20
4.697603875161385
 30
0.0
 10
6.126982379635949
 20
4.731326754180912
 30
0.0
 10
6.120379392047581
 20
4.75999032304019
 30
0.0
 10
6.126797359944812
 20
4.775948831912117
 30
0.0
 10
6.12855234848386
 20
4.78031267427141
 30
0.0
  0
SPLINE
  5
121
330
1F
100
AcDbEntity
  8
0
  6
Continuous
 62
     7
370
    25
100
AcDbSpline
210
0.0
220
0.0
230
1.0
 70
     8
 71
     3
 72
    21
 73
    17
 74
     0
 42
0.000000001
 43
0.00000001
 40
0.0
 40
0.0
 40
0.0
 40
0.0
 40
0.0602639802210965
 40
0.1361938608429343
 40
0.2121237414647811
 40
0.2880536220866234
 40
0.3639835027084745
 40
0.4399133833303123
 40
0.5158432639521635
 40
0.5917731445740013
 40
0.667703025195848
 40
0.7436329058176903
 40
0.8195627864395414
 40
0.8954926670613792
 40
0.9714225476832281
 40
0.9999999999999999
 40
0.9999999999999999
 40
0.9999999999999999
 40
0.9999999999999999
 10
6.619327901979102
 20
4.757776685948066
 30
0.0
 10
6.621521101852485
 20
4.747277522281584
 30
0.0
 10
6.62647763405066
 20
4.723549888791166
 30
0.0
 10
6.613797327064071
 20
4.686573426512441
 30
0.0
 10
6.58573034414335
 20
4.650097871568994
 30
0.0
 10
6.542701380300973
 20
4.61900863770243
 30
0.0
 10
6.488292304346688
 20
4.595329407221318
 30
0.0
 10
6.426037438523482
 20
4.580515548433576
 30
0.0
 10
6.36022409849575
 20
4.575435460111115
 30
0.0
 10
6.29533192323446
 20
4.580288771593282
 30
0.0
 10
6.235760183365635
 20
4.594602692789004
 30
0.0
 10
6.185666121419198
 20
4.617247036348582
 30
0.0
 10
6.148096481191809
 20
4.646570074418527
 30
0.0
 10
6.126982379635949
 20
4.680292953438054
 30
0.0
 10
6.120379392047581
 20
4.708956522297332
 30
0.0
 10
6.126797359944812
 20
4.724915031169258
 30
0.0
 10
6.12855234848386
 20
4.729278873528552
 30
0.0
  0
SPLINE
  5
122
330
1F
100
AcDbEntity
  8
0
  6
Continuous
 62
     7
370
    25
100
AcDbSpline
210
0.0
220
0.0
230
1.0
 70
     8
 71
     3
 72
    21
 73
    17
 74
     0
 42
0.000000001
 43
0.00000001
 40
0.0
 40
0.0
 40
0.0
 40
0.0
 40
0.0602639802210931
 40
0.1361938608429354
 40
0.2121237414647777
 40
0.2880536220866244
 40
0.3639835027084712
 40
0.4399133833303134
 40
0.5158432639521602
 40
0.5917731445740024
 40
0.6677030251958447
 40
0.7436329058176915
 40
0.8195627864395382
 40
0.8954926670613804
 40
0.9714225476832271
 40
0.9999999999999999
 40
0.9999999999999999
 40
0.9999999999999999
 40
0.9999999999999999
 10
6.619327901979102
 20
4.706742885205208
 30
0.0
 10
6.621521101852485
 20
4.696243721538726
 30
0.0
 10
6.626477634050661
 20
4.672516088048308
 30
0.0
 10
6.613797327064072
 20
4.635539625769583
 30
0.0
 10
6.585730344143351
 20
4.599064070826135
 30
0.0
 10
6.542701380300974
 20
4.567974836959572
 30
0.0
 10
6.488292304346689
 20
4.544295606478459
 30
0.0
 10
6.426037438523484
 20
4.529481747690716
 30
0.0
 10
6.360224098495751
 20
4.524401659368256
 30
0.0
 10
6.295331923234462
 20
4.529254970850422
 30
0.0
 10
6.235760183365636
 20
4.543568892046143
 30
0.0
 10
6.1856661214192
 20
4.566213235605722
 30
0.0
 10
6.148096481191809
 20
4.595536273675666
 30
0.0
 10
6.126982379635949
 20
4.629259152695192
 30
0.0
 10
6.120379392047581
 20
4.657922721554471
 30
0.0
 10
6.126797359944812
 20
4.673881230426399
 30
0.0
 10
6.12855234848386
 20
4.678245072785692
 30
0.0
  0
SPLINE
  5
123
330
1F
100
AcDbEntity
  8
0
  6
Continuous
 62
     7
370
    25
100
AcDbSpline
210
0.0
220
0.0
230
1.0
 70
     8
 71
     3
 72
    21
 73
    17
 74
     0
 42
0.000000001
 43
0.00000001
 40
0.0
 40
0.0
 40
0.0
 40
0.0
 40
0.0602639802210869
 40
0.1361938608429359
 40
0.2121237414647806
 40
0.2880536220866252
 40
0.3639835027084743
 40
0.4399133833303143
 40
0.5158432639521588
 40
0.5917731445740034
 40
0.6677030251958525
 40
0.7436329058176926
 40
0.8195627864395372
 40
0.8954926670613819
 40
0.971422547683222
 40
1.0
 40
1.0
 40
1.0
 40
1.0
 10
6.619327901979102
 20
4.655709084462349
 30
0.0
 10
6.621521101852485
 20
4.645209920795869
 30
0.0
 10
6.626477634050661
 20
4.621482287305449
 30
0.0
 10
6.613797327064073
 20
4.584505825026724
 30
0.0
 10
6.585730344143351
 20
4.548030270083274
 30
0.0
 10
6.542701380300973
 20
4.516941036216712
 30
0.0
 10
6.488292304346688
 20
4.493261805735599
 30
0.0
 10
6.426037438523484
 20
4.478447946947858
 30
0.0
 10
6.360224098495752
 20
4.473367858625396
 30
0.0
 10
6.295331923234461
 20
4.478221170107562
 30
0.0
 10
6.235760183365634
 20
4.492535091303285
 30
0.0
 10
6.185666121419199
 20
4.515179434862864
 30
0.0
 10
6.148096481191809
 20
4.544502472932808
 30
0.0
 10
6.12698237963595
 20
4.578225351952331
 30
0.0
 10
6.120379392047581
 20
4.606888920811611
 30
0.0
 10
6.126797359944812
 20
4.622847429683538
 30
0.0
 10
6.12855234848386
 20
4.627211272042832
 30
0.0
  0
LINE
  5
124
330
1F
100
AcDbEntity
  8
0
  6
Continuous
 62
     7
370
    25
100
AcDbLine
 10
6.619328
 20
4.604675
 30
0.0
 11
6.623343
 21
4.573175
 31
0.0
  0
SPLINE
  5
125
330
1F
100
AcDbEntity
  8
0
  6
Continuous
 62
     7
370
    25
100
AcDbSpline
210
0.0
220
0.0
230
1.0
 70
     8
 71
     3
 72
    19
 73
    15
 74
     0
 42
0.000000001
 43
0.00000001
 40
0.0
 40
0.0
 40
0.0
 40
0.0
 40
0.0336198807721402
 40
0.1240331070838865
 40
0.2144463333956328
 40
0.3048595597073793
 40
0.3952727860191252
 40
0.4856860123308716
 40
0.5760992386426178
 40
0.6665124649567995
 40
0.7569256912697014
 40
0.8473389175802922
 40
0.9377521438896027
 40
1.0
 40
1.0
 40
1.0
 40
1.0
 10
6.615834033919578
 20
5.001498857716161
 30
0.0
 10
6.61459546181664
 20
4.996607100194955
 30
0.0
 10
6.610026024247363
 20
4.978560043794955
 30
0.0
 10
6.584962280357979
 20
4.949994246795137
 30
0.0
 10
6.542907128954222
 20
4.91881271196195
 30
0.0
 10
6.488237373519071
 20
4.895158210306592
 30
0.0
 10
6.426051413180709
 20
4.880337737182454
 30
0.0
 10
6.360223130694474
 20
4.875259377379824
 30
0.0
 10
6.295321819781766
 20
4.880112389119112
 30
0.0
 10
6.235801564974066
 20
4.894425780767006
 30
0.0
 10
6.185510698430964
 20
4.917072542262563
 30
0.0
 10
6.148676791528847
 20
4.946386438138535
 30
0.0
 10
6.127294193678135
 20
4.97663815768826
 30
0.0
 10
6.126111441174205
 20
4.99673102578951
 30
0.0
 10
6.125629171518363
 20
5.004923932210631
 30
0.0
  0
SPLINE
  5
126
330
1F
100
AcDbEntity
  8
0
  6
Continuous
 62
     7
370
    25
100
AcDbSpline
210
0.0
220
0.0
230
1.0
 70
     8
 71
     3
 72
    20
 73
    16
 74
     0
 42
0.000000001
 43
0.00000001
 40
0.0
 40
0.0
 40
0.0
 40
0.0
 40
0.0169223940217624
 40
0.1002557273550956
 40
0.1835890606884288
 40
0.2669223940217622
 40
0.3502557273550955
 40
0.4335890606884285
 40
0.5169223940217618
 40
0.6002557273550949
 40
0.6835890606906729
 40
0.7669223940250712
 40
0.8502557273573395
 40
0.9335890606884277
 40
1.0
 40
1.0
 40
1.0
 40
1.0
 10
6.622315709028664
 20
4.983125934563978
 30
0.0
 10
6.622745014520278
 20
4.980439514444799
 30
0.0
 10
6.625288409637073
 20
4.964523976567396
 30
0.0
 10
6.613194694037317
 20
4.935362603686025
 30
0.0
 10
6.585891831638146
 20
4.898887810827854
 30
0.0
 10
6.542658063348549
 20
4.867798374385742
 30
0.0
 10
6.488304084661597
 20
4.84411919212155
 30
0.0
 10
6.426033634216279
 20
4.829305343041675
 30
0.0
 10
6.360227535409669
 20
4.824225167670825
 30
0.0
 10
6.295321979885419
 20
4.829078817638729
 30
0.0
 10
6.235796519844263
 20
4.84339147194038
 30
0.0
 10
6.185530718846524
 20
4.866040544592292
 30
0.0
 10
6.148601754996414
 20
4.895345933189085
 30
0.0
 10
6.126687735075997
 20
4.926847534992138
 30
0.0
 10
6.125574331844262
 20
4.94824392310029
 30
0.0
 10
6.125080542311298
 20
4.957733128978155
 30
0.0
  0
SPLINE
  5
127
330
1F
100
AcDbEntity
  8
0
  6
Continuous
 62
     7
370
    25
100
AcDbSpline
210
0.0
220
0.0
230
1.0
 70
     8
 71
     3
 72
    20
 73
    16
 74
     0
 42
0.000000001
 43
0.00000001
 40
0.0
 40
0.0
 40
0.0
 40
0.0
 40
0.0169223940217624
 40
0.1002557273550956
 40
0.1835890606884288
 40
0.2669223940217622
 40
0.3502557273550955
 40
0.4335890606884285
 40
0.5169223940217618
 40
0.6002557273550949
 40
0.6835890606906729
 40
0.7669223940250712
 40
0.8502557273573395
 40
0.9335890606884277
 40
1.0
 40
1.0
 40
1.0
 40
1.0
 10
6.622315709028664
 20
4.932092133821119
 30
0.0
 10
6.622745014520278
 20
4.929405713701939
 30
0.0
 10
6.625288409637073
 20
4.913490175824537
 30
0.0
 10
6.613194694037317
 20
4.884328802943165
 30
0.0
 10
6.585891831638146
 20
4.847854010084995
 30
0.0
 10
6.542658063348549
 20
4.816764573642883
 30
0.0
 10
6.488304084661597
 20
4.79308539137869
 30
0.0
 10
6.426033634216279
 20
4.778271542298816
 30
0.0
 10
6.360227535409669
 20
4.773191366927966
 30
0.0
 10
6.295321979885419
 20
4.77804501689587
 30
0.0
 10
6.235796519844263
 20
4.792357671197521
 30
0.0
 10
6.185530718846524
 20
4.815006743849433
 30
0.0
 10
6.148601754996414
 20
4.844312132446226
 30
0.0
 10
6.126687735075997
 20
4.875813734249278
 30
0.0
 10
6.125574331844262
 20
4.89721012235743
 30
0.0
 10
6.125080542311298
 20
4.906699328235296
 30
0.0
  0
SPLINE
  5
128
330
1F
100
AcDbEntity
  8
0
  6
Continuous
 62
     7
370
    25
100
AcDbSpline
210
0.0
220
0.0
230
1.0
 70
     8
 71
     3
 72
    20
 73
    16
 74
     0
 42
0.000000001
 43
0.00000001
 40
0.0
 40
0.0
 40
0.0
 40
0.0
 40
0.0169223940217624
 40
0.1002557273550956
 40
0.1835890606884288
 40
0.2669223940217622
 40
0.3502557273550955
 40
0.4335890606884285
 40
0.5169223940217618
 40
0.6002557273550949
 40
0.6835890606906729
 40
0.7669223940250712
 40
0.8502557273573395
 40
0.9335890606884277
 40
1.0
 40
1.0
 40
1.0
 40
1.0
 10
6.622315709028664
 20
4.88105833307826
 30
0.0
 10
6.622745014520278
 20
4.878371912959081
 30
0.0
 10
6.625288409637073
 20
4.862456375081678
 30
0.0
 10
6.613194694037317
 20
4.833295002200305
 30
0.0
 10
6.585891831638146
 20
4.796820209342136
 30
0.0
 10
6.542658063348549
 20
4.765730772900024
 30
0.0
 10
6.488304084661597
 20
4.742051590635831
 30
0.0
 10
6.426033634216279
 20
4.727237741555956
 30
0.0
 10
6.360227535409669
 20
4.722157566185107
 30
0.0
 10
6.295321979885419
 20
4.727011216153011
 30
0.0
 10
6.235796519844263
 20
4.741323870454662
 30
0.0
 10
6.185530718846524
 20
4.763972943106574
 30
0.0
 10
6.148601754996414
 20
4.793278331703367
 30
0.0
 10
6.126687735075997
 20
4.824779933506419
 30
0.0
 10
6.125574331844262
 20
4.846176321614571
 30
0.0
 10
6.125080542311298
 20
4.855665527492436
 30
0.0
  0
SPLINE
  5
129
330
1F
100
AcDbEntity
  8
0
  6
Continuous
 62
     7
370
    25
100
AcDbSpline
210
0.0
220
0.0
230
1.0
 70
     8
 71
     3
 72
    20
 73
    16
 74
     0
 42
0.000000001
 43
0.00000001
 40
0.0
 40
0.0
 40
0.0
 40
0.0
 40
0.0169223940217624
 40
0.1002557273550956
 40
0.1835890606884288
 40
0.2669223940217622
 40
0.3502557273550955
 40
0.4335890606884285
 40
0.5169223940217618
 40
0.6002557273550949
 40
0.6835890606906729
 40
0.7669223940250712
 40
0.8502557273573395
 40
0.9335890606884277
 40
1.0
 40
1.0
 40
1.0
 40
1.0
 10
6.622315709028664
 20
4.830024532335401
 30
0.0
 10
6.622745014520278
 20
4.827338112216221
 30
0.0
 10
6.625288409637073
 20
4.811422574338819
 30
0.0
 10
6.613194694037317
 20
4.782261201457446
 30
0.0
 10
6.585891831638146
 20
4.745786408599276
 30
0.0
 10
6.542658063348549
 20
4.714696972157164
 30
0.0
 10
6.488304084661597
 20
4.691017789892972
 30
0.0
 10
6.426033634216279
 20
4.676203940813097
 30
0.0
 10
6.360227535409669
 20
4.671123765442247
 30
0.0
 10
6.295321979885419
 20
4.675977415410151
 30
0.0
 10
6.235796519844263
 20
4.690290069711802
 30
0.0
 10
6.185530718846524
 20
4.712939142363715
 30
0.0
 10
6.148601754996414
 20
4.742244530960508
 30
0.0
 10
6.126687735075997
 20
4.77374613276356
 30
0.0
 10
6.125574331844262
 20
4.795142520871711
 30
0.0
 10
6.125080542311298
 20
4.804631726749577
 30
0.0
  0
SPLINE
  5
12A
330
1F
100
AcDbEntity
  8
0
  6
Continuous
 62
     7
370
    25
100
AcDbSpline
210
0.0
220
0.0
230
1.0
 70
     8
 71
     3
 72
    20
 73
    16
 74
     0
 42
0.000000001
 43
0.00000001
 40
0.0
 40
0.0
 40
0.0
 40
0.0
 40
0.0169223940217624
 40
0.1002557273550956
 40
0.1835890606884289
 40
0.2669223940217622
 40
0.3502557273550955
 40
0.4335890606884285
 40
0.5169223940217618
 40
0.6002557273550949
 40
0.6835890606906729
 40
0.7669223940250712
 40
0.8502557273573395
 40
0.9335890606884277
 40
1.0
 40
1.0
 40
1.0
 40
1.0
 10
6.622315709028664
 20
4.778990731592542
 30
0.0
 10
6.622745014520278
 20
4.776304311473361
 30
0.0
 10
6.625288409637073
 20
4.760388773595959
 30
0.0
 10
6.613194694037317
 20
4.731227400714587
 30
0.0
 10
6.585891831638146
 20
4.694752607856416
 30
0.0
 10
6.542658063348549
 20
4.663663171414305
 30
0.0
 10
6.488304084661597
 20
4.639983989150112
 30
0.0
 10
6.426033634216279
 20
4.625170140070237
 30
0.0
 10
6.360227535409669
 20
4.620089964699387
 30
0.0
 10
6.295321979885419
 20
4.624943614667292
 30
0.0
 10
6.235796519844263
 20
4.639256268968943
 30
0.0
 10
6.185530718846524
 20
4.661905341620855
 30
0.0
 10
6.148601754996414
 20
4.691210730217648
 30
0.0
 10
6.126687735075997
 20
4.7227123320207
 30
0.0
 10
6.125574331844262
 20
4.744108720128852
 30
0.0
 10
6.125080542311298
 20
4.753597926006717
 30
0.0
  0
SPLINE
  5
12B
330
1F
100
AcDbEntity
  8
0
  6
Continuous
 62
     7
370
    25
100
AcDbSpline
210
0.0
220
0.0
230
1.0
 70
     8
 71
     3
 72
    20
 73
    16
 74
     0
 42
0.000000001
 43
0.00000001
 40
0.0
 40
0.0
 40
0.0
 40
0.0
 40
0.0169223940217624
 40
0.1002557273550956
 40
0.1835890606884288
 40
0.2669223940217622
 40
0.3502557273550955
 40
0.4335890606884285
 40
0.5169223940217618
 40
0.6002557273550949
 40
0.6835890606906729
 40
0.7669223940250712
 40
0.8502557273573395
 40
0.9335890606884277
 40
1.0
 40
1.0
 40
1.0
 40
1.0
 10
6.622315709028664
 20
4.727956930849682
 30
0.0
 10
6.622745014520278
 20
4.725270510730502
 30
0.0
 10
6.625288409637073
 20
4.709354972853099
 30
0.0
 10
6.613194694037317
 20
4.680193599971727
 30
0.0
 10
6.585891831638146
 20
4.643718807113557
 30
0.0
 10
6.542658063348549
 20
4.612629370671446
 30
0.0
 10
6.488304084661597
 20
4.588950188407253
 30
0.0
 10
6.426033634216279
 20
4.574136339327378
 30
0.0
 10
6.360227535409669
 20
4.569056163956528
 30
0.0
 10
6.295321979885419
 20
4.573909813924432
 30
0.0
 10
6.235796519844263
 20
4.588222468226083
 30
0.0
 10
6.185530718846524
 20
4.610871540877996
 30
0.0
 10
6.148601754996414
 20
4.640176929474788
 30
0.0
 10
6.126687735075997
 20
4.671678531277841
 30
0.0
 10
6.125574331844262
 20
4.693074919385993
 30
0.0
 10
6.125080542311298
 20
4.702564125263858
 30
0.0
  0
SPLINE
  5
12C
330
1F
100
AcDbEntity
  8
0
  6
Continuous
 62
     7
370
    25
100
AcDbSpline
210
0.0
220
0.0
230
1.0
 70
     8
 71
     3
 72
    20
 73
    16
 74
     0
 42
0.000000001
 43
0.00000001
 40
0.0
 40
0.0
 40
0.0
 40
0.0
 40
0.0169223940217645
 40
0.1002557273550981
 40
0.1835890606884317
 40
0.2669223940217654
 40
0.3502557273550992
 40
0.4335890606884326
 40
0.5169223940217663
 40
0.6002557273550998
 40
0.6835890606906782
 40
0.766922394025077
 40
0.8502557273573457
 40
0.9335890606884343
 40
1.0
 40
1.0
 40
1.0
 40
1.0
 10
6.622315709028664
 20
4.676923130106823
 30
0.0
 10
6.622745014520278
 20
4.674236709987644
 30
0.0
 10
6.625288409637073
 20
4.658321172110241
 30
0.0
 10
6.613194694037317
 20
4.629159799228868
 30
0.0
 10
6.585891831638146
 20
4.592685006370698
 30
0.0
 10
6.542658063348549
 20
4.561595569928586
 30
0.0
 10
6.488304084661597
 20
4.537916387664393
 30
0.0
 10
6.426033634216279
 20
4.523102538584518
 30
0.0
 10
6.360227535409669
 20
4.518022363213669
 30
0.0
 10
6.295321979885419
 20
4.522876013181573
 30
0.0
 10
6.235796519844263
 20
4.537188667483224
 30
0.0
 10
6.185530718846524
 20
4.559837740135136
 30
0.0
 10
6.148601754996414
 20
4.589143128731929
 30
0.0
 10
6.126687735075998
 20
4.62064473053498
 30
0.0
 10
6.125574331844262
 20
4.642041118643132
 30
0.0
 10
6.125080542311298
 20
4.651530324520996
 30
0.0
  0
SPLINE
  5
12D
330
1F
100
AcDbEntity
  8
0
  6
Continuous
 62
     7
370
    25
100
AcDbSpline
210
0.0
220
0.0
230
1.0
 70
     8
 71
     3
 72
    20
 73
    16
 74
     0
 42
0.000000001
 43
0.00000001
 40
0.0
 40
0.0
 40
0.0
 40
0.0
 40
0.0169223940217645
 40
0.1002557273550981
 40
0.1835890606884317
 40
0.2669223940217654
 40
0.3502557273550992
 40
0.4335890606884326
 40
0.5169223940217663
 40
0.6002557273550998
 40
0.6835890606906782
 40
0.766922394025077
 40
0.8502557273573457
 40
0.9335890606884343
 40
1.0
 40
1.0
 40
1.0
 40
1.0
 10
6.622315709028664
 20
4.625889329363964
 30
0.0
 10
6.622745014520278
 20
4.623202909244784
 30
0.0
 10
6.625288409637073
 20
4.607287371367382
 30
0.0
 10
6.613194694037317
 20
4.578125998486009
 30
0.0
 10
6.585891831638146
 20
4.541651205627839
 30
0.0
 10
6.542658063348549
 20
4.510561769185727
 30
0.0
 10
6.488304084661597
 20
4.486882586921534
 30
0.0
 10
6.426033634216279
 20
4.472068737841659
 30
0.0
 10
6.360227535409669
 20
4.46698856247081
 30
0.0
 10
6.295321979885419
 20
4.471842212438714
 30
0.0
 10
6.235796519844263
 20
4.486154866740365
 30
0.0
 10
6.185530718846524
 20
4.508803939392277
 30
0.0
 10
6.148601754996414
 20
4.53810932798907
 30
0.0
 10
6.126687735075998
 20
4.569610929792121
 30
0.0
 10
6.125574331844262
 20
4.591007317900273
 30
0.0
 10
6.125080542311298
 20
4.600496523778136
 30
0.0
  0
LINE
  5
12E
330
1F
100
AcDbEntity
  8
0
  6
Continuous
 62
     7
370
    25
100
AcDbLine
 10
6.064822
 20
4.207918
 30
0.0
 11
6.064822
 21
4.35464
 31
0.0
  0
SPLINE
  5
12F
330
1F
100
AcDbEntity
  8
0
  6
Continuous
 62
     7
370
    25
100
AcDbSpline
210
0.0
220
0.0
230
1.0
 70
     8
 71
     3
 72
    21
 73
    17
 74
     0
 42
0.000000001
 43
0.00000001
 40
0.0
 40
0.0
 40
0.0
 40
0.0
 40
0.0229923141141137
 40
0.0458855506193078
 40
0.0837391969946421
 40
0.1491858238904628
 40
0.2427131357714122
 40
0.3367521683253692
 40
0.5375580556441003
 40
0.6737723155625225
 40
0.766866686120996
 40
0.8740689235416464
 40
0.9134381238394067
 40
0.9530749853655903
 40
0.978078077806577
 40
0.9999999999999999
 40
0.9999999999999999
 40
0.9999999999999999
 40
0.9999999999999999
 10
6.064822078498743
 20
4.354640220316263
 30
0.0
 10
6.06520411583984
 20
4.357612835647595
 30
0.0
 10
6.065966544261196
 20
4.363545256828891
 30
0.0
 10
6.072563476295242
 20
4.372252161946541
 30
0.0
 10
6.087020854183574
 20
4.381435299104438
 30
0.0
 10
6.115247348893535
 20
4.387807091151922
 30
0.0
 10
6.153864419838576
 20
4.388322294511709
 30
0.0
 10
6.214047856697884
 20
4.381830172086459
 30
0.0
 10
6.28087330498988
 20
4.371000521194849
 30
0.0
 10
6.347624329027721
 20
4.359938077427486
 30
0.0
 10
6.399597358050394
 20
4.348122475739157
 30
0.0
 10
6.43639694534283
 20
4.335253747368776
 30
0.0
 10
6.462015800358286
 20
4.319537412442942
 30
0.0
 10
6.474113964774106
 20
4.308284660437551
 30
0.0
 10
6.480979375532749
 20
4.297071342262914
 30
0.0
 10
6.481726162334849
 20
4.290761964134506
 30
0.0
 10
6.482075038138048
 20
4.28781441691481
 30
0.0
  0
LINE
  5
130
330
1F
100
AcDbEntity
  8
0
  6
Continuous
 62
     7
370
    25
100
AcDbLine
 10
6.482075
 20
4.141092
 30
0.0
 11
6.482075
 21
4.287814
 31
0.0
  0
LINE
  5
131
330
1F
100
AcDbEntity
  8
0
  6
Continuous
 62
     7
370
    25
100
AcDbLine
 10
6.482075
 20
4.141092
 30
0.0
 11
6.064822
 21
4.207918
 31
0.0
  0
SPLINE
  5
132
330
1F
100
AcDbEntity
  8
0
  6
Continuous
 62
     7
370
    25
100
AcDbSpline
210
0.0
220
0.0
230
1.0
 70
     8
 71
     3
 72
    21
 73
    17
 74
     0
 42
0.000000001
 43
0.00000001
 40
0.0
 40
0.0
 40
0.0
 40
0.0
 40
0.0229932057752198
 40
0.0458873300992076
 40
0.0837424444705008
 40
0.1491916094410639
 40
0.2417527174274558
 40
0.3367264470216143
 40
0.5375401217600353
 40
0.6737596641809971
 40
0.7668576450167583
 40
0.8740640398295328
 40
0.9134347668976965
 40
0.9530731655744088
 40
0.9780772276561611
 40
1.0
 40
1.0
 40
1.0
 40
1.0
 10
5.956445166030675
 20
4.596656996723058
 30
0.0
 10
5.9565443980935
 20
4.599469168417225
 30
0.0
 10
5.956742434612103
 20
4.605081393701833
 30
0.0
 10
5.958455879110407
 20
4.611019161564141
 30
0.0
 10
5.962211323107513
 20
4.614126446233584
 30
0.0
 10
5.969504337164084
 20
4.608719332535605
 30
0.0
 10
5.979543087536292
 20
4.592816167446652
 30
0.0
 10
5.995163669454278
 20
4.561405404026998
 30
0.0
 10
6.01256298849471
 20
4.522274610404991
 30
0.0
 10
6.029899845089287
 20
4.483219683017729
 30
0.0
 10
6.043399433218667
 20
4.44957681569985
 30
0.0
 10
6.052957688119408
 20
4.421258408854471
 30
0.0
 10
6.059611910433349
 20
4.394785421254306
 30
0.0
 10
6.062754276305335
 20
4.378453062910052
 30
0.0
 10
6.064537492082577
 20
4.364357178344621
 30
0.0
 10
6.064731461812512
 20
4.357734249007577
 30
0.0
 10
6.064822078498743
 20
4.354640220316263
 30
0.0
  0
SPLINE
  5
133
330
1F
100
AcDbEntity
  8
0
  6
Continuous
 62
     7
370
    25
100
AcDbSpline
210
0.0
220
0.0
230
1.0
 70
     8
 71
     3
 72
    14
 73
    10
 74
     0
 42
0.000000001
 43
0.00000001
 40
0.0
 40
0.0
 40
0.0
 40
0.0
 40
0.0922874486503686
 40
0.3557195071751406
 40
0.619782315436392
 40
0.7517001937330698
 40
0.8868353178669642
 40
0.9801654203590775
 40
1.0
 40
1.0
 40
1.0
 40
1.0
 10
6.126499297880438
 20
4.743659931365107
 30
0.0
 10
6.121294060569779
 20
4.740843076795505
 30
0.0
 10
6.101230612311585
 20
4.729985586053955
 30
0.0
 10
6.066263117906529
 20
4.709649987674774
 30
0.0
 10
6.029070081016124
 20
4.686589154502766
 30
0.0
 10
5.99942009219318
 20
4.663688328569914
 30
0.0
 10
5.980416975714328
 20
4.644848745894596
 30
0.0
 10
5.967928445626391
 20
4.629314356026379
 30
0.0
 10
5.964173317695822
 20
4.621249030727782
 30
0.0
 10
5.963515149594284
 20
4.619835406494941
 30
0.0
  0
SPLINE
  5
134
330
1F
100
AcDbEntity
  8
0
  6
Continuous
 62
     7
370
    25
100
AcDbSpline
210
0.0
220
0.0
230
1.0
 70
     8
 71
     3
 72
     9
 73
     5
 74
     0
 42
0.000000001
 43
0.00000001
 40
0.0
 40
0.0
 40
0.0
 40
0.0
 40
0.1780181811809093
 40
1.0
 40
1.0
 40
1.0
 40
1.0
 10
6.639205909454156
 20
4.749484869777485
 30
0.0
 10
6.638121993950607
 20
4.750144373418469
 30
0.0
 10
6.632033202927364
 20
4.753849071649909
 30
0.0
 10
6.625100399086208
 20
4.75568672221673
 30
0.0
 10
6.619401760375339
 20
4.757197237571999
 30
0.0
  0
SPLINE
  5
135
330
1F
100
AcDbEntity
  8
0
  6
Continuous
 62
     7
370
    25
100
AcDbSpline
210
0.0
220
0.0
230
1.0
 70
     8
 71
     3
 72
    18
 73
    14
 74
     0
 42
0.000000001
 43
0.00000001
 40
0.0
 40
0.0
 40
0.0
 40
0.0
 40
0.0261298296360603
 40
0.0521470616001782
 40
0.0951661907744793
 40
0.1695436197951126
 40
0.2747314742532326
 40
0.3826610686933067
 40
0.6108687906091941
 40
0.765670755648703
 40
0.8714687205989118
 40
0.9932997023132148
 40
1.0
 40
1.0
 40
1.0
 40
1.0
 10
6.790951085309286
 20
4.463005389920154
 30
0.0
 10
6.790851853295309
 20
4.466260751978854
 30
0.0
 10
6.790653816874191
 20
4.4727574482134
 30
0.0
 10
6.788940371488648
 20
4.486347818635256
 30
0.0
 10
6.785184934673009
 20
4.506227627130789
 30
0.0
 10
6.777891862995118
 20
4.53339309747157
 30
0.0
 10
6.767853441380346
 20
4.562322285295203
 30
0.0
 10
6.752231031228152
 20
4.600691644051935
 30
0.0
 10
6.734844587179758
 20
4.63916136899499
 30
0.0
 10
6.717472919316712
 20
4.67782953368962
 30
0.0
 10
6.704058288619888
 20
4.703763213225007
 30
0.0
 10
6.69561110586786
 20
4.718012190983706
 30
0.0
 10
6.691642832066318
 20
4.719563065802819
 30
0.0
 10
6.691435967123427
 20
4.719643912449732
 30
0.0
  0
SPLINE
  5
136
330
1F
100
AcDbEntity
  8
0
  6
Continuous
 62
     7
370
    25
100
AcDbSpline
210
0.0
220
0.0
230
1.0
 70
     8
 71
     3
 72
    22
 73
    18
 74
     0
 42
0.000000001
 43
0.00000001
 40
0.0
 40
0.0
 40
0.0
 40
0.0
 40
0.0209659136686008
 40
0.0432467148547877
 40
0.0796254674790527
 40
0.1414472326937901
 40
0.224478908513144
 40
0.3097477373626991
 40
0.499953252878704
 40
0.6294086173223081
 40
0.7591739438011555
 40
0.8240008183552925
 40
0.8904087067567715
 40
0.9362728377184146
 40
0.9657340254310179
 40
0.989563366725596
 40
1.0
 40
1.0
 40
1.0
 40
1.0
 10
6.482075038138048
 20
4.28781441691481
 30
0.0
 10
6.482309672978618
 20
4.290712770296048
 30
0.0
 10
6.482793657898401
 20
4.296691248706675
 30
0.0
 10
6.487182458955946
 20
4.308618368687609
 30
0.0
 10
6.497126683146188
 20
4.325573107216556
 30
0.0
 10
6.516113488236655
 20
4.347017030231469
 30
0.0
 10
6.541980135981027
 20
4.368483708206019
 30
0.0
 10
6.583019944769335
 20
4.396086786239251
 30
0.0
 10
6.629552730084298
 20
4.422375116865572
 30
0.0
 10
6.681116204741533
 20
4.451524155196566
 30
0.0
 10
6.718369129415412
 20
4.470601799924066
 30
0.0
 10
6.747901586659843
 20
4.481179022359806
 30
0.0
 10
6.767233429767752
 20
4.484381759040723
 30
0.0
 10
6.780948098732225
 20
4.481615641036966
 30
0.0
 10
6.78809911009816
 20
4.475318659806041
 30
0.0
 10
6.790698534475808
 20
4.468741078889239
 30
0.0
 10
6.790892122744029
 20
4.464344490371656
 30
0.0
 10
6.790951085309286
 20
4.463005389920154
 30
0.0
  0
ARC
  5
137
330
1F
100
AcDbEntity
  8
0
  6
Continuous
 62
     7
370
    25
100
AcDbCircle
 10
6.347622
 20
4.714107
 30
0.0
 40
0.2568196825278461
100
AcDbArc
 50
235.828511
 51
261.555429
  0
LINE
  5
138
330
1F
100
AcDbEntity
  8
0
  6
Continuous
 62
     7
370
    25
100
AcDbLine
 10
6.790951
 20
4.316283
 30
0.0
 11
6.790951
 21
4.463005
 31
0.0
  0
LINE
  5
139
330
1F
100
AcDbEntity
  8
0
  6
Continuous
 62
     7
370
    25
100
AcDbLine
 10
6.790951
 20
4.316283
 30
0.0
 11
6.482075
 21
4.141092
 31
0.0
  0
LINE
  5
13A
330
1F
100
AcDbEntity
  8
0
  6
Continuous
 62
     7
370
    25
100
AcDbLine
 10
5.956445
 20
4.449935
 30
0.0
 11
5.956445
 21
4.596657
 31
0.0
  0
LINE
  5
13B
330
1F
100
AcDbEntity
  8
0
  6
Continuous
 62
     7
370
    25
100
AcDbLine
 10
6.064822
 20
4.207918
 30
0.0
 11
5.956445
 21
4.449935
 31
0.0
  0
SPLINE
  5
13C
330
1F
100
AcDbEntity
  8
0
  6
Continuous
 62
     7
370
    25
100
AcDbSpline
210
0.0
220
0.0
230
1.0
 70
     8
 71
     3
 72
    21
 73
    17
 74
     0
 42
0.000000001
 43
0.00000001
 40
0.0
 40
0.0
 40
0.0
 40
0.0
 40
0.0229923141141136
 40
0.0458855506193078
 40
0.0837391969946423
 40
0.1491858238904633
 40
0.2427131357714133
 40
0.3367521683253711
 40
0.5375580556441016
 40
0.6737723155625233
 40
0.7668666861209966
 40
0.8740689235416468
 40
0.9134381238394074
 40
0.9530749853655909
 40
0.9780780778065775
 40
1.0
 40
1.0
 40
1.0
 40
1.0
 10
6.482075038138048
 20
3.987990837550512
 30
0.0
 10
6.481693000796951
 20
3.98501822221918
 30
0.0
 10
6.480930572375595
 20
3.979085801037884
 30
0.0
 10
6.474333640341549
 20
3.970378895920233
 30
0.0
 10
6.459876262453217
 20
3.961195758762337
 30
0.0
 10
6.431649767743256
 20
3.954823966714852
 30
0.0
 10
6.393032696798215
 20
3.954308763355066
 30
0.0
 10
6.332849259938905
 20
3.960800885780316
 30
0.0
 10
6.266023811646909
 20
3.971630536671926
 30
0.0
 10
6.199272787609068
 20
3.982692980439289
 30
0.0
 10
6.147299758586398
 20
3.994508582127618
 30
0.0
 10
6.11050017129396
 20
4.007377310497999
 30
0.0
 10
6.084881316278503
 20
4.023093645423833
 30
0.0
 10
6.072783151862684
 20
4.034346397429223
 30
0.0
 10
6.065917741104042
 20
4.045559715603861
 30
0.0
 10
6.065170954301942
 20
4.051869093732268
 30
0.0
 10
6.064822078498743
 20
4.054816640951964
 30
0.0
  0
LINE
  5
13D
330
1F
100
AcDbEntity
  8
0
  6
Continuous
 62
     7
370
    25
100
AcDbLine
 10
6.064822
 20
4.054817
 30
0.0
 11
6.064822
 21
4.10585
 31
0.0
  0
LINE
  5
13E
330
1F
100
AcDbEntity
  8
0
  6
Continuous
 62
     7
370
    25
100
AcDbLine
 10
6.482075
 20
4.039025
 30
0.0
 11
6.064822
 21
4.10585
 31
0.0
  0
LINE
  5
13F
330
1F
100
AcDbEntity
  8
0
  6
Continuous
 62
     7
370
    25
100
AcDbLine
 10
6.482075
 20
3.987991
 30
0.0
 11
6.482075
 21
4.039025
 31
0.0
  0
LWPOLYLINE
  5
140
330
1F
100
AcDbEntity
  8
0
  6
Continuous
 62
     7
370
    25
100
AcDbPolyline
 90
       20
 70
   128
 43
0.0
 10
6.717261
 20
4.274487
 10
6.716343
 20
4.265139
 10
6.708935
 20
4.23715
 10
6.694702
 20
4.210055
 10
6.673935
 20
4.184405
 10
6.647056
 20
4.160722
 10
6.614612
 20
4.139489
 10
6.577264
 20
4.121137
 10
6.535771
 20
4.10604
 10
6.49098
 20
4.094506
 10
6.443801
 20
4.086769
 10
6.395195
 20
4.082987
 10
6.346151
 20
4.083237
 10
6.297668
 20
4.087514
 10
6.250733
 20
4.09573
 10
6.206301
 20
4.107718
 10
6.165276
 20
4.123235
 10
6.128495
 20
4.141965
 10
6.096705
 20
4.163526
 10
6.090484
 20
4.168575
  0
LINE
  5
141
330
1F
100
AcDbEntity
  8
0
  6
Continuous
 62
     7
370
    25
100
AcDbLine
 10
6.064822
 20
4.10585
 30
0.0
 11
6.047775
 21
4.143919
 31
0.0
  0
LINE
  5
142
330
1F
100
AcDbEntity
  8
0
  6
Continuous
 62
     7
370
    25
100
AcDbLine
 10
6.754502
 20
4.29561
 30
0.0
 11
6.790951
 21
4.214216
 31
0.0
  0
LINE
  5
143
330
1F
100
AcDbEntity
  8
0
  6
Continuous
 62
     7
370
    25
100
AcDbLine
 10
6.790951
 20
4.214216
 30
0.0
 11
6.482075
 21
4.039025
 31
0.0
  0
SPLINE
  5
144
330
1F
100
AcDbEntity
  8
0
  6
Continuous
 62
     7
370
    25
100
AcDbSpline
210
0.0
220
0.0
230
1.0
 70
     8
 71
     3
 72
    22
 73
    18
 74
     0
 42
0.000000001
 43
0.00000001
 40
0.0
 40
0.0
 40
0.0
 40
0.0
 40
0.0209659136685973
 40
0.0432467148547838
 40
0.0796254674790473
 40
0.1414472326937808
 40
0.2244789085131242
 40
0.3097477373626686
 40
0.4999532528787043
 40
0.6294086173223086
 40
0.7591739438011561
 40
0.824000818355293
 40
0.8904087067567724
 40
0.9362728377184156
 40
0.9657340254310188
 40
0.9895633667255966
 40
1.0
 40
1.0
 40
1.0
 40
1.0
 10
6.790951085309286
 20
4.163181810555855
 30
0.0
 10
6.790716450468717
 20
4.160283457174618
 30
0.0
 10
6.790232465548932
 20
4.154304978763991
 30
0.0
 10
6.785843664491389
 20
4.142377858783059
 30
0.0
 10
6.775899440301148
 20
4.125423120254113
 30
0.0
 10
6.756912635210683
 20
4.103979197239201
 30
0.0
 10
6.731045987466314
 20
4.082512519264653
 30
0.0
 10
6.690006178678005
 20
4.054909441231418
 30
0.0
 10
6.64347339336304
 20
4.028621110605096
 30
0.0
 10
6.5919099187058
 20
3.9994720722741
 30
0.0
 10
6.554656994031923
 20
3.9803944275466
 30
0.0
 10
6.525124536787493
 20
3.969817205110861
 30
0.0
 10
6.505792693679582
 20
3.966614468429943
 30
0.0
 10
6.49207802471511
 20
3.9693805864337
 30
0.0
 10
6.484927013349174
 20
3.975677567664627
 30
0.0
 10
6.482327588971527
 20
3.982255148581427
 30
0.0
 10
6.482134000703306
 20
3.98665173709901
 30
0.0
 10
6.482075038138048
 20
3.987990837550512
 30
0.0
  0
SPLINE
  5
145
330
1F
100
AcDbEntity
  8
0
  6
Continuous
 62
     7
370
    25
100
AcDbSpline
210
0.0
220
0.0
230
1.0
 70
     8
 71
     3
 72
    10
 73
     6
 74
     0
 42
0.000000001
 43
0.00000001
 40
0.0
 40
0.0
 40
0.0
 40
0.0
 40
0.0069039698965231
 40
0.5360561084074518
 40
0.9999999999999999
 40
0.9999999999999999
 40
0.9999999999999999
 40
0.9999999999999999
 10
6.789063236664877
 20
4.150087292828666
 30
0.0
 10
6.789072769910479
 20
4.150095503370852
 30
0.0
 10
6.789812975127878
 20
4.150733007786131
 30
0.0
 10
6.790622443830769
 20
4.154976883483405
 30
0.0
 10
6.790846440814504
 20
4.160569235746103
 30
0.0
 10
6.790951085309286
 20
4.163181810555855
 30
0.0
  0
SPLINE
  5
146
330
1F
100
AcDbEntity
  8
0
  6
Continuous
 62
     7
370
    25
100
AcDbSpline
210
0.0
220
0.0
230
1.0
 70
     8
 71
     3
 72
    13
 73
     9
 74
     0
 42
0.000000001
 43
0.00000001
 40
0.0
 40
0.0
 40
0.0
 40
0.0
 40
0.0765242382408137
 40
0.1527187211333113
 40
0.2787052329360309
 40
0.4965281647112699
 40
0.8045830026764083
 40
1.0
 40
1.0
 40
1.0
 40
1.0
 10
6.064822078498743
 20
4.054816640951964
 30
0.0
 10
6.064722847698185
 20
4.052004413029339
 30
0.0
 10
6.064524813698678
 20
4.046392075530111
 30
0.0
 10
6.062811346273583
 20
4.04045532895519
 30
0.0
 10
6.059056087850058
 20
4.037339777800951
 30
0.0
 10
6.051761584822503
 20
4.042813218591532
 30
0.0
 10
6.043168834151897
 20
4.056112999448374
 30
0.0
 10
6.037085946202248
 20
4.068439286146646
 30
0.0
 10
6.0347249408493
 20
4.073223597335263
 30
0.0
  0
LINE
  5
147
330
1F
100
AcDbEntity
  8
0
  6
Continuous
 62
     7
370
    25
100
AcDbLine
 10
6.790951
 20
4.163182
 30
0.0
 11
6.790951
 21
4.214216
 31
0.0
  0
ARC
  5
148
330
1F
100
AcDbEntity
  8
0
  6
Continuous
 62
     7
370
    25
100
AcDbCircle
 10
5.505654
 20
3.152113
 30
0.0
 40
0.0359552606878743
100
AcDbArc
 50
248.706012
 51
320.97867
  0
SPLINE
  5
149
330
1F
100
AcDbEntity
  8
0
  6
Continuous
 62
     7
370
    25
100
AcDbSpline
210
0.0
220
0.0
230
1.0
 70
     8
 71
     3
 72
    10
 73
     6
 74
     0
 42
0.000000001
 43
0.00000001
 40
0.0
 40
0.0
 40
0.0
 40
0.0
 40
0.261649972272159
 40
0.6246378710562035
 40
1.0
 40
1.0
 40
1.0
 40
1.0
 10
5.502171369704652
 20
3.130212179543857
 30
0.0
 10
5.501947142205291
 20
3.128520294361951
 30
0.0
 10
5.501411843131428
 20
3.124481251097701
 30
0.0
 10
5.498045948411998
 20
3.120303662524018
 30
0.0
 10
5.494433528182008
 20
3.119182177211291
 30
0.0
 10
5.492597047248512
 20
3.118612036900116
 30
0.0
  0
LWPOLYLINE
  5
14A
330
1F
100
AcDbEntity
  8
0
  6
Continuous
 62
     7
370
    25
100
AcDbPolyline
 90
       18
 70
   128
 43
0.0
 10
5.444872
 20
3.154579
 10
5.431679
 20
3.172535
 10
5.421743
 20
3.192672
 10
5.415963
 20
3.213169
 10
5.414862
 20
3.232173
 10
5.418538
 20
3.247967
 10
5.426661
 20
3.259123
 10
5.438494
 20
3.264632
 10
5.45297
 20
3.263997
 10
5.468778
 20
3.257274
 10
5.484491
 20
3.245072
 10
5.498687
 20
3.228493
 10
5.510084
 20
3.209037
 10
5.517651
 20
3.188461
 10
5.520704
 20
3.168627
 10
5.518968
 20
3.151326
 10
5.512598
 20
3.138123
 10
5.502171
 20
3.130212
  0
SPLINE
  5
14B
330
1F
100
AcDbEntity
  8
0
  6
Continuous
 62
     7
370
    25
100
AcDbSpline
210
0.0
220
0.0
230
1.0
 70
     8
 71
     3
 72
    21
 73
    17
 74
     0
 42
0.000000001
 43
0.00000001
 40
0.0
 40
0.0
 40
0.0
 40
0.0
 40
0.0780905404521422
 40
0.1558462096654606
 40
0.2314004643706928
 40
0.3070109015320264
 40
0.3803891730845537
 40
0.4534287417184947
 40
0.5250453033426584
 40
0.5955307083653275
 40
0.665382971192844
 40
0.7333304846853297
 40
0.8013547735182514
 40
0.8668221427801344
 40
0.9322687300889131
 40
1.0
 40
1.0
 40
1.0
 40
1.0
 10
5.533588384870527
 20
3.129474828320966
 30
0.0
 10
5.536364910534758
 20
3.13559738084422
 30
0.0
 10
5.541906055445573
 20
3.147816230895738
 30
0.0
 10
5.540708085068216
 20
3.173990509967523
 30
0.0
 10
5.53251558224756
 20
3.202031541661888
 30
0.0
 10
5.517935483123863
 20
3.229198540651621
 30
0.0
 10
5.498664370925672
 20
3.25220524246257
 30
0.0
 10
5.477234211517104
 20
3.268650426335408
 30
0.0
 10
5.455847116189437
 20
3.276530327687674
 30
0.0
 10
5.437027017354987
 20
3.275475195134948
 30
0.0
 10
5.422771248579784
 20
3.265523491825578
 30
0.0
 10
5.414465774440413
 20
3.248216751036665
 30
0.0
 10
5.412853926050059
 20
3.225742040079707
 30
0.0
 10
5.417878611590561
 20
3.200810406640325
 30
0.0
 10
5.428569084054958
 20
3.175524638590502
 30
0.0
 10
5.439376206168803
 20
3.161640359468706
 30
0.0
 10
5.444872465983575
 20
3.154579126645545
 30
0.0
  0
LINE
  5
14C
330
1F
100
AcDbEntity
  8
0
  6
Continuous
 62
     7
370
    25
100
AcDbLine
 10
5.493687
 20
3.129725
 30
0.0
 11
5.502171
 21
3.130212
 31
0.0
  0
SPLINE
  5
14D
330
1F
100
AcDbEntity
  8
0
  6
Continuous
 62
     7
370
    25
100
AcDbSpline
210
0.0
220
0.0
230
1.0
 70
     8
 71
     3
 72
    10
 73
     6
 74
     0
 42
0.000000001
 43
0.00000001
 40
0.0
 40
0.0
 40
0.0
 40
0.0
 40
0.24551451648625
 40
0.8916772609306481
 40
1.0
 40
1.0
 40
1.0
 40
1.0
 10
5.596320412144801
 20
3.368366161491414
 30
0.0
 10
5.593010026254877
 20
3.369004867987862
 30
0.0
 10
5.580987128932158
 20
3.371324568132042
 30
0.0
 10
5.568985174260141
 20
3.366609294514173
 30
0.0
 10
5.564199350304431
 20
3.358211407602944
 30
0.0
 10
5.563512241578135
 20
3.357005708974546
 30
0.0
  0
SPLINE
  5
14E
330
1F
100
AcDbEntity
  8
0
  6
Continuous
 62
     7
370
    25
100
AcDbSpline
210
0.0
220
0.0
230
1.0
 70
     8
 71
     3
 72
    17
 73
    13
 74
     0
 42
0.000000001
 43
0.00000001
 40
0.0
 40
0.0
 40
0.0
 40
0.0
 40
0.1053210933794376
 40
0.2148605568974252
 40
0.3244000204154139
 40
0.4339394839333992
 40
0.5434789474513878
 40
0.6530184109693752
 40
0.762557874487365
 40
0.8720973380053512
 40
0.98163680152334
 40
1.0
 40
1.0
 40
1.0
 40
1.0
 10
5.64242783250585
 20
3.192846020117369
 30
0.0
 10
5.648721378319963
 20
3.194486324927755
 30
0.0
 10
5.66156054201539
 20
3.197832632810939
 30
0.0
 10
5.671453018566015
 20
3.218303563303436
 30
0.0
 10
5.671896799256229
 20
3.246864873583888
 30
0.0
 10
5.661964288533884
 20
3.280067222460835
 30
0.0
 10
5.643078859354293
 20
3.31241191090989
 30
0.0
 10
5.617940559823584
 20
3.338857201540708
 30
0.0
 10
5.589904048648859
 20
3.355562922065953
 30
0.0
 10
5.564040865423862
 20
3.358631529795403
 30
0.0
 10
5.546877151613863
 20
3.353911255510249
 30
0.0
 10
5.542100890446833
 20
3.345462354967819
 30
0.0
 10
5.541415154666055
 20
3.344249332227316
 30
0.0
  0
SPLINE
  5
14F
330
1F
100
AcDbEntity
  8
0
  6
Continuous
 62
     7
370
    25
100
AcDbSpline
210
0.0
220
0.0
230
1.0
 70
     8
 71
     3
 72
    17
 73
    13
 74
     0
 42
0.000000001
 43
0.00000001
 40
0.0
 40
0.0
 40
0.0
 40
0.0
 40
0.1053210933794397
 40
0.2148605568974241
 40
0.3244000204154153
 40
0.4339394839334005
 40
0.5434789474513908
 40
0.6530184109693747
 40
0.7625578744873643
 40
0.8720973380053519
 40
0.9816368015233397
 40
1.0
 40
1.0
 40
1.0
 40
1.0
 10
5.62033074559377
 20
3.18008964337014
 30
0.0
 10
5.626624291407884
 20
3.181729948180526
 30
0.0
 10
5.639463455103311
 20
3.18507625606371
 30
0.0
 10
5.649355931653934
 20
3.205547186556207
 30
0.0
 10
5.64979971234415
 20
3.234108496836659
 30
0.0
 10
5.639867201621803
 20
3.267310845713606
 30
0.0
 10
5.620981772442212
 20
3.29965553416266
 30
0.0
 10
5.595843472911505
 20
3.326100824793478
 30
0.0
 10
5.567806961736778
 20
3.342806545318723
 30
0.0
 10
5.541943778511782
 20
3.345875153048174
 30
0.0
 10
5.524780064701782
 20
3.341154878763019
 30
0.0
 10
5.520003803534753
 20
3.332705978220589
 30
0.0
 10
5.519318067753975
 20
3.331492955480087
 30
0.0
  0
SPLINE
  5
150
330
1F
100
AcDbEntity
  8
0
  6
Continuous
 62
     7
370
    25
100
AcDbSpline
210
0.0
220
0.0
230
1.0
 70
     8
 71
     3
 72
    17
 73
    13
 74
     0
 42
0.000000001
 43
0.00000001
 40
0.0
 40
0.0
 40
0.0
 40
0.0
 40
0.1053210933794379
 40
0.214860556897424
 40
0.3244000204154128
 40
0.4339394839333993
 40
0.5434789474513887
 40
0.6530184109693776
 40
0.7625578744873653
 40
0.8720973380053542
 40
0.9816368015233424
 40
1.0
 40
1.0
 40
1.0
 40
1.0
 10
5.59823365868169
 20
3.167333266622911
 30
0.0
 10
5.604527204495803
 20
3.168973571433297
 30
0.0
 10
5.617366368191231
 20
3.172319879316481
 30
0.0
 10
5.627258844741855
 20
3.192790809808976
 30
0.0
 10
5.627702625432071
 20
3.221352120089429
 30
0.0
 10
5.617770114709725
 20
3.254554468966375
 30
0.0
 10
5.598884685530133
 20
3.28689915741543
 30
0.0
 10
5.573746385999424
 20
3.313344448046248
 30
0.0
 10
5.545709874824699
 20
3.330050168571493
 30
0.0
 10
5.519846691599703
 20
3.333118776300944
 30
0.0
 10
5.502682977789702
 20
3.328398502015789
 30
0.0
 10
5.497906716622674
 20
3.319949601473359
 30
0.0
 10
5.497220980841896
 20
3.318736578732858
 30
0.0
  0
SPLINE
  5
151
330
1F
100
AcDbEntity
  8
0
  6
Continuous
 62
     7
370
    25
100
AcDbSpline
210
0.0
220
0.0
230
1.0
 70
     8
 71
     3
 72
    17
 73
    13
 74
     0
 42
0.000000001
 43
0.00000001
 40
0.0
 40
0.0
 40
0.0
 40
0.0
 40
0.1053210933794392
 40
0.2148605568974256
 40
0.3244000204154133
 40
0.4339394839334005
 40
0.5434789474513888
 40
0.6530184109693767
 40
0.7625578744873625
 40
0.8720973380053522
 40
0.98163680152334
 40
1.0
 40
1.0
 40
1.0
 40
1.0
 10
5.57613657176961
 20
3.154576889875681
 30
0.0
 10
5.582430117583725
 20
3.156217194686067
 30
0.0
 10
5.595269281279151
 20
3.159563502569251
 30
0.0
 10
5.605161757829775
 20
3.180034433061746
 30
0.0
 10
5.60560553851999
 20
3.208595743342199
 30
0.0
 10
5.595673027797644
 20
3.241798092219145
 30
0.0
 10
5.576787598618054
 20
3.274142780668201
 30
0.0
 10
5.551649299087345
 20
3.300588071299019
 30
0.0
 10
5.523612787912619
 20
3.317293791824263
 30
0.0
 10
5.497749604687622
 20
3.320362399553714
 30
0.0
 10
5.480585890877624
 20
3.31564212526856
 30
0.0
 10
5.475809629710594
 20
3.307193224726129
 30
0.0
 10
5.475123893929815
 20
3.305980201985627
 30
0.0
  0
SPLINE
  5
152
330
1F
100
AcDbEntity
  8
0
  6
Continuous
 62
     7
370
    25
100
AcDbSpline
210
0.0
220
0.0
230
1.0
 70
     8
 71
     3
 72
    17
 73
    13
 74
     0
 42
0.000000001
 43
0.00000001
 40
0.0
 40
0.0
 40
0.0
 40
0.0
 40
0.1053210933794357
 40
0.2148605568974239
 40
0.324400020415414
 40
0.433939483933398
 40
0.5434789474513878
 40
0.6530184109693737
 40
0.7625578744873643
 40
0.8720973380053504
 40
0.9816368015233403
 40
1.0
 40
1.0
 40
1.0
 40
1.0
 10
5.554039484857531
 20
3.141820513128451
 30
0.0
 10
5.560333030671644
 20
3.143460817938837
 30
0.0
 10
5.573172194367071
 20
3.146807125822021
 30
0.0
 10
5.583064670917696
 20
3.167278056314517
 30
0.0
 10
5.58350845160791
 20
3.195839366594969
 30
0.0
 10
5.573575940885565
 20
3.229041715471916
 30
0.0
 10
5.554690511705973
 20
3.261386403920971
 30
0.0
 10
5.529552212175266
 20
3.287831694551789
 30
0.0
 10
5.501515701000538
 20
3.304537415077033
 30
0.0
 10
5.475652517775543
 20
3.307606022806485
 30
0.0
 10
5.458488803965544
 20
3.30288574852133
 30
0.0
 10
5.453712542798513
 20
3.294436847978899
 30
0.0
 10
5.453026807017736
 20
3.293223825238398
 30
0.0
  0
SPLINE
  5
153
330
1F
100
AcDbEntity
  8
0
  6
Continuous
 62
     7
370
    25
100
AcDbSpline
210
0.0
220
0.0
230
1.0
 70
     8
 71
     3
 72
    18
 73
    14
 74
     0
 42
0.000000001
 43
0.00000001
 40
0.0
 40
0.0
 40
0.0
 40
0.0
 40
0.0853862286074787
 40
0.1842118485869434
 40
0.2830374685664137
 40
0.3818630885458782
 40
0.4806887085253492
 40
0.5795143285048143
 40
0.6783399484842835
 40
0.7771655684637506
 40
0.8759911884432182
 40
0.9748168084226867
 40
1.0
 40
1.0
 40
1.0
 40
1.0
 10
5.533703458411038
 20
3.129811823472254
 30
0.0
 10
5.53933598228624
 20
3.131323110628291
 30
0.0
 10
5.551487562841821
 20
3.134583554441067
 30
0.0
 10
5.560942673619904
 20
3.154562019576389
 30
0.0
 10
5.561418867443025
 20
3.183071260567703
 30
0.0
 10
5.551473753370421
 20
3.216291915835733
 30
0.0
 10
5.532606324458955
 20
3.248615448009593
 30
0.0
 10
5.507408627206003
 20
3.275127057350107
 30
0.0
 10
5.479591706652124
 20
3.291588659311759
 30
0.0
 10
5.452909558665985
 20
3.295567422585886
 30
0.0
 10
5.432211356411885
 20
3.285638089401417
 30
0.0
 10
5.420567422122795
 20
3.270719242459051
 30
0.0
 10
5.419659333646837
 20
3.258030814587614
 30
0.0
 10
5.419474922831411
 20
3.25545410164367
 30
0.0
  0
SPLINE
  5
154
330
1F
100
AcDbEntity
  8
0
  6
Continuous
 62
     7
370
    25
100
AcDbSpline
210
0.0
220
0.0
230
1.0
 70
     8
 71
     3
 72
     9
 73
     5
 74
     0
 42
0.000000001
 43
0.00000001
 40
0.0
 40
0.0
 40
0.0
 40
0.0
 40
0.1085247436559864
 40
1.0
 40
1.0
 40
1.0
 40
1.0
 10
5.458245149692643
 20
3.143223032270968
 30
0.0
 10
5.459358925650919
 20
3.14178344895753
 30
0.0
 10
5.469621801385564
 20
3.128518425102685
 30
0.0
 10
5.481768534886772
 20
3.123281037952449
 30
0.0
 10
5.492597047248504
 20
3.11861203690012
 30
0.0
  0
SPLINE
  5
155
330
1F
100
AcDbEntity
  8
0
  6
Continuous
 62
     7
370
    25
100
AcDbSpline
210
0.0
220
0.0
230
1.0
 70
     8
 71
     3
 72
    16
 73
    12
 74
     0
 42
0.000000001
 43
0.00000001
 40
0.0
 40
0.0
 40
0.0
 40
0.0
 40
0.0415731421638138
 40
0.1665731421638127
 40
0.2915731421638117
 40
0.4165731421638116
 40
0.5415731421638145
 40
0.6665731421638116
 40
0.791573142163812
 40
0.9165731421638125
 40
1.0
 40
1.0
 40
1.0
 40
1.0
 10
5.65655157081043
 20
3.199264321786073
 30
0.0
 10
5.65864623416511
 20
3.199965415076784
 30
0.0
 10
5.667039024284023
 20
3.202774519857065
 30
0.0
 10
5.673984978149041
 20
3.220271953891046
 30
0.0
 10
5.674722078752437
 20
3.248356993697882
 30
0.0
 10
5.664704026150091
 20
3.281697633977671
 30
0.0
 10
5.645867444577314
 20
3.313965427288972
 30
0.0
 10
5.620619296499349
 20
3.340580007067965
 30
0.0
 10
5.592973331906839
 20
3.35668546613826
 30
0.0
 10
5.568686056335131
 20
3.361398223065294
 30
0.0
 10
5.557665028095586
 20
3.355002495753858
 30
0.0
 10
5.553253649611573
 20
3.352442482909499
 30
0.0
  0
SPLINE
  5
156
330
1F
100
AcDbEntity
  8
0
  6
Continuous
 62
     7
370
    25
100
AcDbSpline
210
0.0
220
0.0
230
1.0
 70
     8
 71
     3
 72
    16
 73
    12
 74
     0
 42
0.000000001
 43
0.00000001
 40
0.0
 40
0.0
 40
0.0
 40
0.0
 40
0.0415731421638125
 40
0.1665731421638124
 40
0.2915731421638136
 40
0.4165731421638108
 40
0.5415731421638121
 40
0.6665731421638116
 40
0.791573142163814
 40
0.916573142163811
 40
1.0
 40
1.0
 40
1.0
 40
1.0
 10
5.634454483898351
 20
3.186507945038843
 30
0.0
 10
5.636549147253031
 20
3.187209038329554
 30
0.0
 10
5.644941937371942
 20
3.190018143109836
 30
0.0
 10
5.651887891236961
 20
3.207515577143817
 30
0.0
 10
5.652624991840357
 20
3.235600616950652
 30
0.0
 10
5.642606939238012
 20
3.268941257230442
 30
0.0
 10
5.623770357665236
 20
3.301209050541742
 30
0.0
 10
5.598522209587268
 20
3.327823630320736
 30
0.0
 10
5.570876244994759
 20
3.34392908939103
 30
0.0
 10
5.546588969423051
 20
3.348641846318065
 30
0.0
 10
5.535567941183507
 20
3.342246119006628
 30
0.0
 10
5.531156562699494
 20
3.339686106162269
 30
0.0
  0
SPLINE
  5
157
330
1F
100
AcDbEntity
  8
0
  6
Continuous
 62
     7
370
    25
100
AcDbSpline
210
0.0
220
0.0
230
1.0
 70
     8
 71
     3
 72
    16
 73
    12
 74
     0
 42
0.000000001
 43
0.00000001
 40
0.0
 40
0.0
 40
0.0
 40
0.0
 40
0.0415731421638181
 40
0.1665731421638133
 40
0.2915731421638161
 40
0.4165731421638115
 40
0.541573142163815
 40
0.6665731421638119
 40
0.7915731421638131
 40
0.9165731421638127
 40
0.9999999999999999
 40
0.9999999999999999
 40
0.9999999999999999
 40
0.9999999999999999
 10
5.612357396986271
 20
3.173751568291614
 30
0.0
 10
5.614452060340952
 20
3.174452661582325
 30
0.0
 10
5.622844850459861
 20
3.177261766362605
 30
0.0
 10
5.629790804324881
 20
3.194759200396589
 30
0.0
 10
5.630527904928276
 20
3.222844240203422
 30
0.0
 10
5.620509852325932
 20
3.256184880483212
 30
0.0
 10
5.601673270753155
 20
3.288452673794512
 30
0.0
 10
5.57642512267519
 20
3.315067253573507
 30
0.0
 10
5.548779158082679
 20
3.331172712643801
 30
0.0
 10
5.524491882510971
 20
3.335885469570834
 30
0.0
 10
5.513470854271428
 20
3.329489742259399
 30
0.0
 10
5.509059475787414
 20
3.326929729415039
 30
0.0
  0
SPLINE
  5
158
330
1F
100
AcDbEntity
  8
0
  6
Continuous
 62
     7
370
    25
100
AcDbSpline
210
0.0
220
0.0
230
1.0
 70
     8
 71
     3
 72
    16
 73
    12
 74
     0
 42
0.000000001
 43
0.00000001
 40
0.0
 40
0.0
 40
0.0
 40
0.0
 40
0.0415731421638154
 40
0.1665731421638115
 40
0.2915731421638141
 40
0.416573142163811
 40
0.5415731421638111
 40
0.6665731421638112
 40
0.7915731421638112
 40
0.9165731421638121
 40
1.0
 40
1.0
 40
1.0
 40
1.0
 10
5.590260310074191
 20
3.160995191544384
 30
0.0
 10
5.592354973428871
 20
3.161696284835096
 30
0.0
 10
5.600747763547782
 20
3.164505389615377
 30
0.0
 10
5.607693717412801
 20
3.182002823649357
 30
0.0
 10
5.608430818016197
 20
3.210087863456192
 30
0.0
 10
5.598412765413853
 20
3.243428503735982
 30
0.0
 10
5.579576183841076
 20
3.275696297047283
 30
0.0
 10
5.55432803576311
 20
3.302310876826276
 30
0.0
 10
5.5266820711706
 20
3.318416335896571
 30
0.0
 10
5.502394795598891
 20
3.323129092823605
 30
0.0
 10
5.491373767359347
 20
3.316733365512169
 30
0.0
 10
5.486962388875335
 20
3.314173352667809
 30
0.0
  0
SPLINE
  5
159
330
1F
100
AcDbEntity
  8
0
  6
Continuous
 62
     7
370
    25
100
AcDbSpline
210
0.0
220
0.0
230
1.0
 70
     8
 71
     3
 72
    16
 73
    12
 74
     0
 42
0.000000001
 43
0.00000001
 40
0.0
 40
0.0
 40
0.0
 40
0.0
 40
0.0415731421638152
 40
0.1665731421638136
 40
0.2915731421638132
 40
0.4165731421638109
 40
0.5415731421638119
 40
0.666573142163811
 40
0.7915731421638101
 40
0.9165731421638124
 40
1.0
 40
1.0
 40
1.0
 40
1.0
 10
5.568163223162111
 20
3.148238814797155
 30
0.0
 10
5.570257886516792
 20
3.148939908087865
 30
0.0
 10
5.578650676635704
 20
3.151749012868146
 30
0.0
 10
5.585596630500723
 20
3.169246446902129
 30
0.0
 10
5.586333731104117
 20
3.197331486708962
 30
0.0
 10
5.576315678501772
 20
3.230672126988753
 30
0.0
 10
5.557479096928995
 20
3.262939920300052
 30
0.0
 10
5.53223094885103
 20
3.289554500079046
 30
0.0
 10
5.504584984258519
 20
3.305659959149342
 30
0.0
 10
5.480297708686812
 20
3.310372716076376
 30
0.0
 10
5.469276680447267
 20
3.303976988764939
 30
0.0
 10
5.464865301963254
 20
3.30141697592058
 30
0.0
  0
SPLINE
  5
15A
330
1F
100
AcDbEntity
  8
0
  6
Continuous
 62
     7
370
    25
100
AcDbSpline
210
0.0
220
0.0
230
1.0
 70
     8
 71
     3
 72
    16
 73
    12
 74
     0
 42
0.000000001
 43
0.00000001
 40
0.0
 40
0.0
 40
0.0
 40
0.0
 40
0.0415731421638123
 40
0.1665731421638127
 40
0.2915731421638149
 40
0.4165731421638106
 40
0.5415731421638127
 40
0.6665731421638104
 40
0.791573142163813
 40
0.9165731421638107
 40
1.0
 40
1.0
 40
1.0
 40
1.0
 10
5.546066136250031
 20
3.135482438049925
 30
0.0
 10
5.548160799604712
 20
3.136183531340635
 30
0.0
 10
5.556553589723623
 20
3.138992636120916
 30
0.0
 10
5.563499543588642
 20
3.156490070154899
 30
0.0
 10
5.564236644192038
 20
3.184575109961733
 30
0.0
 10
5.554218591589692
 20
3.217915750241523
 30
0.0
 10
5.535382010016916
 20
3.250183543552823
 30
0.0
 10
5.510133861938949
 20
3.276798123331817
 30
0.0
 10
5.482487897346439
 20
3.292903582402111
 30
0.0
 10
5.458200621774732
 20
3.297616339329146
 30
0.0
 10
5.447179593535187
 20
3.291220612017709
 30
0.0
 10
5.442768215051173
 20
3.288660599173349
 30
0.0
  0
SPLINE
  5
15B
330
1F
100
AcDbEntity
  8
0
  6
Continuous
 62
     7
370
    25
100
AcDbSpline
210
0.0
220
0.0
230
1.0
 70
     8
 71
     3
 72
    10
 73
     6
 74
     0
 42
0.000000001
 43
0.00000001
 40
0.0
 40
0.0
 40
0.0
 40
0.0
 40
0.1361887773435271
 40
0.5655125727915599
 40
1.0
 40
1.0
 40
1.0
 40
1.0
 10
5.454274816372013
 20
3.146485170077951
 30
0.0
 10
5.456069876079466
 20
3.144969043450692
 30
0.0
 10
5.463523712241873
 20
3.138673453708403
 30
0.0
 10
5.477530997668832
 20
3.13063535823988
 30
0.0
 10
5.4882802160164
 20
3.130029496146417
 30
0.0
 10
5.493686953162016
 20
3.129724754259153
 30
0.0
  0
ARC
  5
15C
330
1F
100
AcDbEntity
  8
0
  6
Continuous
 62
     7
370
    25
100
AcDbCircle
 10
5.452938
 20
3.22258
 30
0.0
 40
0.0238031845513752
100
AcDbArc
 50
100.546778
 51
189.251879
  0
ARC
  5
15D
330
1F
100
AcDbEntity
  8
0
  6
Continuous
 62
     7
370
    25
100
AcDbCircle
 10
5.512435
 20
3.222578
 30
0.0
 40
0.0830785959333847
100
AcDbArc
 50
182.639287
 51
219.772072
  0
ARC
  5
15E
330
1F
100
AcDbEntity
  8
0
  6
Continuous
 62
     7
370
    25
100
AcDbCircle
 10
5.48981
 20
3.196652
 30
0.0
 40
0.0494045551392984
100
AcDbArc
 50
213.434915
 51
266.570462
  0
ARC
  5
15F
330
1F
100
AcDbEntity
  8
0
  6
Continuous
 62
     7
370
    25
100
AcDbCircle
 10
5.482497
 20
3.170737
 30
0.0
 40
0.0238031845513752
100
AcDbArc
 50
280.546778
 51
9.251879
  0
ARC
  5
160
330
1F
100
AcDbEntity
  8
0
  6
Continuous
 62
     7
370
    25
100
AcDbCircle
 10
5.423
 20
3.170738
 30
0.0
 40
0.0830785959333936
100
AcDbArc
 50
2.639287
 51
39.772072
  0
ARC
  5
161
330
1F
100
AcDbEntity
  8
0
  6
Continuous
 62
     7
370
    25
100
AcDbCircle
 10
5.445625
 20
3.196665
 30
0.0
 40
0.0494045551393029
100
AcDbArc
 50
33.434915
 51
86.570462
  0
LINE
  5
162
330
1F
100
AcDbEntity
  8
0
  6
Continuous
 62
     7
370
    25
100
AcDbLine
 10
5.444872
 20
3.154579
 30
0.0
 11
5.454275
 21
3.146485
 31
0.0
  0
SPLINE
  5
163
330
1F
100
AcDbEntity
  8
0
  6
Continuous
 62
     7
370
    25
100
AcDbSpline
210
0.0
220
0.0
230
1.0
 70
     8
 71
     3
 72
     9
 73
     5
 74
     0
 42
0.000000001
 43
0.00000001
 40
0.0
 40
0.0
 40
0.0
 40
0.0
 40
0.5034798652442006
 40
1.0
 40
1.0
 40
1.0
 40
1.0
 10
5.472518646224341
 20
3.237676300145348
 30
0.0
 10
5.468989318763265
 20
3.239539866513164
 30
0.0
 10
5.46197945063405
 20
3.243241238695966
 30
0.0
 10
5.453026328879345
 20
3.245071897711636
 30
0.0
 10
5.448580923659214
 20
3.245980856772789
 30
0.0
  0
SPLINE
  5
164
330
1F
100
AcDbEntity
  8
0
  6
Continuous
 62
     7
370
    25
100
AcDbSpline
210
0.0
220
0.0
230
1.0
 70
     8
 71
     3
 72
    10
 73
     6
 74
     0
 42
0.000000001
 43
0.00000001
 40
0.0
 40
0.0
 40
0.0
 40
0.0
 40
0.4391249614226835
 40
0.7513736477008299
 40
1.0
 40
1.0
 40
1.0
 40
1.0
 10
5.4868542008902
 20
3.147335463011807
 30
0.0
 10
5.491863984671078
 20
3.152543983836613
 30
0.0
 10
5.500436076545416
 20
3.161456128749944
 30
0.0
 10
5.505523634006444
 20
3.170154808777653
 30
0.0
 10
5.505847344262373
 20
3.173209413150364
 30
0.0
 10
5.505990839505694
 20
3.174563467245605
 30
0.0
  0
LINE
  5
165
330
1F
100
AcDbEntity
  8
0
  6
Continuous
 62
     7
370
    25
100
AcDbLine
 10
5.466799
 20
3.240317
 30
0.0
 11
5.429444
 21
3.218753
 31
0.0
  0
SPLINE
  5
166
330
1F
100
AcDbEntity
  8
0
  6
Continuous
 62
     7
370
    25
100
AcDbSpline
210
0.0
220
0.0
230
1.0
 70
     8
 71
     3
 72
    10
 73
     6
 74
     0
 42
0.000000001
 43
0.00000001
 40
0.0
 40
0.0
 40
0.0
 40
0.0
 40
0.4391249614226791
 40
0.7513736477008304
 40
0.9999999999999999
 40
0.9999999999999999
 40
0.9999999999999999
 40
0.9999999999999999
 10
5.448580923659214
 20
3.245980856772789
 30
0.0
 10
5.448111478528824
 20
3.243393417659616
 30
0.0
 10
5.447308224942705
 20
3.238966127627253
 30
0.0
 10
5.438767228173075
 20
3.228273819522258
 30
0.0
 10
5.432307688824205
 20
3.221677076410734
 30
0.0
 10
5.42944428504372
 20
3.21875285253899
 30
0.0
  0
ARC
  5
167
330
1F
100
AcDbEntity
  8
0
  6
Continuous
 62
     7
370
    25
100
AcDbCircle
 10
5.549853
 20
3.244001
 30
0.0
 40
0.0741149700447731
100
AcDbArc
 50
200.529307
 51
232.784101
  0
ARC
  5
168
330
1F
100
AcDbEntity
  8
0
  6
Continuous
 62
     7
370
    25
100
AcDbCircle
 10
5.539765
 20
3.241705
 30
0.0
 40
0.063877468598391
100
AcDbArc
 50
186.198412
 51
201.773883
  0
SPLINE
  5
169
330
1F
100
AcDbEntity
  8
0
  6
Continuous
 62
     7
370
    25
100
AcDbSpline
210
0.0
220
0.0
230
1.0
 70
     8
 71
     3
 72
    10
 73
     6
 74
     0
 42
0.000000001
 43
0.00000001
 40
0.0
 40
0.0
 40
0.0
 40
0.0
 40
0.439124961422681
 40
0.7513736477008237
 40
1.0
 40
1.0
 40
1.0
 40
1.0
 10
5.448580923659214
 20
3.1694301556585
 30
0.0
 10
5.456330321895726
 20
3.167577604992137
 30
0.0
 10
5.469590086500292
 20
3.164407760701744
 30
0.0
 10
5.481491921076648
 20
3.155543349772249
 30
0.0
 10
5.485207256134976
 20
3.149856393757984
 30
0.0
 10
5.4868542008902
 20
3.147335463011807
 30
0.0
  0
LINE
  5
16A
330
1F
100
AcDbEntity
  8
0
  6
Continuous
 62
     7
370
    25
100
AcDbLine
 10
5.490013
 20
3.193348
 30
0.0
 11
5.505085
 21
3.184648
 31
0.0
  0
LINE
  5
16B
330
1F
100
AcDbEntity
  8
0
  6
Continuous
 62
     7
370
    25
100
AcDbLine
 10
5.490013
 20
3.193348
 30
0.0
 11
5.448581
 21
3.16943
 31
0.0
  0
LINE
  5
16C
330
1F
100
AcDbEntity
  8
0
  6
Continuous
 62
     7
370
    25
100
AcDbLine
 10
5.4729
 20
3.237456
 30
0.0
 11
5.480445
 21
3.21801
 31
0.0
  0
LINE
  5
16D
330
1F
100
AcDbEntity
  8
0
  6
Continuous
 62
     7
370
    25
100
AcDbLine
 10
5.480445
 20
3.21801
 30
0.0
 11
5.490013
 21
3.193348
 31
0.0
  0
SPLINE
  5
16E
330
1F
100
AcDbEntity
  8
0
  6
Continuous
 62
     7
370
    25
100
AcDbSpline
210
0.0
220
0.0
230
1.0
 70
     8
 71
     3
 72
    11
 73
     7
 74
     0
 42
0.000000001
 43
0.00000001
 40
0.0
 40
0.0
 40
0.0
 40
0.0
 40
0.1809422465198825
 40
0.5062925772655639
 40
0.8439745107797024
 40
1.0
 40
1.0
 40
1.0
 40
1.0
 10
5.42944428504372
 20
3.21875285253899
 30
0.0
 10
5.43154729577739
 20
3.216528555587971
 30
0.0
 10
5.437431707764336
 20
3.210304773925063
 30
0.0
 10
5.445258268642283
 20
3.197030431412491
 30
0.0
 10
5.448339517021497
 20
3.18161017269937
 30
0.0
 10
5.448522952779092
 20
3.172355039226112
 30
0.0
 10
5.448580923659214
 20
3.1694301556585
 30
0.0
  0
LINE
  5
16F
330
1F
100
AcDbEntity
  8
0
  6
Continuous
 62
     7
370
    25
100
AcDbLine
 10
7.305648
 20
3.159708
 30
0.0
 11
7.314132
 21
3.169992
 31
0.0
  0
SPLINE
  5
170
330
1F
100
AcDbEntity
  8
0
  6
Continuous
 62
     7
370
    25
100
AcDbSpline
210
0.0
220
0.0
230
1.0
 70
     8
 71
     3
 72
    10
 73
     6
 74
     0
 42
0.000000001
 43
0.00000001
 40
0.0
 40
0.0
 40
0.0
 40
0.0
 40
0.261649972272159
 40
0.6246378710562017
 40
0.9999999999999999
 40
0.9999999999999999
 40
0.9999999999999999
 40
0.9999999999999999
 10
7.314132496495184
 20
3.169991698871587
 30
0.0
 10
7.312162540372321
 20
3.167033138446511
 30
0.0
 10
7.307459657402473
 20
3.15997015705476
 30
0.0
 10
7.298073680934343
 20
3.1484310699384
 30
0.0
 10
7.290063387845102
 20
3.140599935045389
 30
0.0
 10
7.285991117845067
 20
3.136618745426513
 30
0.0
  0
SPLINE
  5
171
330
1F
100
AcDbEntity
  8
0
  6
Continuous
 62
     7
370
    25
100
AcDbSpline
210
0.0
220
0.0
230
1.0
 70
     8
 71
     3
 72
    14
 73
    10
 74
     0
 42
0.000000001
 43
0.00000001
 40
0.0
 40
0.0
 40
0.0
 40
0.0
 40
0.0684853590344229
 40
0.2487300475411174
 40
0.4289747360478141
 40
0.6092194245545093
 40
0.7894641130612043
 40
0.9697088015678995
 40
1.0
 40
1.0
 40
1.0
 40
1.0
 10
7.10339709907741
 20
3.340841810693718
 30
0.0
 10
7.100403485644374
 20
3.337858443734846
 30
0.0
 10
7.089531065290345
 20
3.327023237261885
 30
0.0
 10
7.075314359802705
 20
3.299846834504208
 30
0.0
 10
7.064807013591722
 20
3.26531613917513
 30
0.0
 10
7.064403055468246
 20
3.232556655097383
 30
0.0
 10
7.074662507713922
 20
3.208654192438125
 30
0.0
 10
7.087336847740383
 20
3.196139436598462
 30
0.0
 10
7.09704491000774
 20
3.196227232190755
 30
0.0
 10
7.098441673499263
 20
3.196239863926589
 30
0.0
  0
SPLINE
  5
172
330
1F
100
AcDbEntity
  8
0
  6
Continuous
 62
     7
370
    25
100
AcDbSpline
210
0.0
220
0.0
230
1.0
 70
     8
 71
     3
 72
    17
 73
    13
 74
     0
 42
0.000000001
 43
0.00000001
 40
0.0
 40
0.0
 40
0.0
 40
0.0
 40
0.1052713557196599
 40
0.2148113302334002
 40
0.3243513047471429
 40
0.4338912792608819
 40
0.5434312537746234
 40
0.6529712282883633
 40
0.7625112028021029
 40
0.8720511773158425
 40
0.9815911518295859
 40
1.0
 40
1.0
 40
1.0
 40
1.0
 10
7.201133181683743
 20
3.346668726579181
 30
0.0
 10
7.196568598152719
 20
3.351297688690032
 30
0.0
 10
7.187254343068247
 20
3.360743311403203
 30
0.0
 10
7.16458478972484
 20
3.359077817796249
 30
0.0
 10
7.139629806204499
 20
3.345184494808157
 30
0.0
 10
7.11584292355756
 20
3.319983136370745
 30
0.0
 10
7.097274538097175
 20
3.287455919732288
 30
0.0
 10
7.086940793563122
 20
3.2524618144815
 30
0.0
 10
7.086490278760654
 20
3.219826608160445
 30
0.0
 10
7.096762356045369
 20
3.195890444396128
 30
0.0
 10
7.109433846178741
 20
3.183383296021762
 30
0.0
 10
7.119141985791607
 20
3.183470885149022
 30
0.0
 10
7.120538760411343
 20
3.183483487179359
 30
0.0
  0
SPLINE
  5
173
330
1F
100
AcDbEntity
  8
0
  6
Continuous
 62
     7
370
    25
100
AcDbSpline
210
0.0
220
0.0
230
1.0
 70
     8
 71
     3
 72
    17
 73
    13
 74
     0
 42
0.000000001
 43
0.00000001
 40
0.0
 40
0.0
 40
0.0
 40
0.0
 40
0.1052713557196639
 40
0.2148113302334007
 40
0.3243513047471431
 40
0.4338912792608834
 40
0.543431253774624
 40
0.6529712282883654
 40
0.7625112028021056
 40
0.8720511773158472
 40
0.981591151829588
 40
1.0
 40
1.0
 40
1.0
 40
1.0
 10
7.223230268595824
 20
3.333912349831951
 30
0.0
 10
7.218665685064798
 20
3.338541311942802
 30
0.0
 10
7.209351429980326
 20
3.347986934655973
 30
0.0
 10
7.186681876636919
 20
3.346321441049019
 30
0.0
 10
7.161726893116578
 20
3.332428118060928
 30
0.0
 10
7.137940010469639
 20
3.307226759623516
 30
0.0
 10
7.119371625009255
 20
3.274699542985058
 30
0.0
 10
7.109037880475201
 20
3.239705437734271
 30
0.0
 10
7.108587365672733
 20
3.207070231413215
 30
0.0
 10
7.118859442957449
 20
3.183134067648898
 30
0.0
 10
7.131530933090821
 20
3.170626919274532
 30
0.0
 10
7.141239072703685
 20
3.170714508401792
 30
0.0
 10
7.142635847323421
 20
3.17072711043213
 30
0.0
  0
SPLINE
  5
174
330
1F
100
AcDbEntity
  8
0
  6
Continuous
 62
     7
370
    25
100
AcDbSpline
210
0.0
220
0.0
230
1.0
 70
     8
 71
     3
 72
    17
 73
    13
 74
     0
 42
0.000000001
 43
0.00000001
 40
0.0
 40
0.0
 40
0.0
 40
0.0
 40
0.1052713557196603
 40
0.2148113302334019
 40
0.3243513047471422
 40
0.4338912792608837
 40
0.5434312537746245
 40
0.6529712282883665
 40
0.7625112028021054
 40
0.8720511773158468
 40
0.9815911518295877
 40
1.0
 40
1.0
 40
1.0
 40
1.0
 10
7.245327355507903
 20
3.321155973084721
 30
0.0
 10
7.240762771976877
 20
3.325784935195572
 30
0.0
 10
7.231448516892407
 20
3.335230557908743
 30
0.0
 10
7.208778963548999
 20
3.333565064301789
 30
0.0
 10
7.183823980028658
 20
3.319671741313698
 30
0.0
 10
7.160037097381719
 20
3.294470382876286
 30
0.0
 10
7.141468711921335
 20
3.261943166237828
 30
0.0
 10
7.131134967387281
 20
3.226949060987041
 30
0.0
 10
7.130684452584813
 20
3.194313854665986
 30
0.0
 10
7.140956529869529
 20
3.170377690901668
 30
0.0
 10
7.153628020002899
 20
3.157870542527303
 30
0.0
 10
7.163336159615765
 20
3.157958131654562
 30
0.0
 10
7.1647329342355
 20
3.1579707336849
 30
0.0
  0
SPLINE
  5
175
330
1F
100
AcDbEntity
  8
0
  6
Continuous
 62
     7
370
    25
100
AcDbSpline
210
0.0
220
0.0
230
1.0
 70
     8
 71
     3
 72
    17
 73
    13
 74
     0
 42
0.000000001
 43
0.00000001
 40
0.0
 40
0.0
 40
0.0
 40
0.0
 40
0.1052713557196594
 40
0.2148113302334002
 40
0.3243513047471388
 40
0.4338912792608813
 40
0.543431253774622
 40
0.6529712282883631
 40
0.7625112028021062
 40
0.8720511773158444
 40
0.9815911518295853
 40
1.0
 40
1.0
 40
1.0
 40
1.0
 10
7.267424442419983
 20
3.308399596337491
 30
0.0
 10
7.262859858888956
 20
3.313028558448342
 30
0.0
 10
7.253545603804485
 20
3.322474181161513
 30
0.0
 10
7.230876050461078
 20
3.320808687554559
 30
0.0
 10
7.205921066940737
 20
3.306915364566468
 30
0.0
 10
7.182134184293798
 20
3.281714006129056
 30
0.0
 10
7.163565798833414
 20
3.249186789490598
 30
0.0
 10
7.15323205429936
 20
3.214192684239811
 30
0.0
 10
7.152781539496893
 20
3.181557477918755
 30
0.0
 10
7.163053616781608
 20
3.157621314154438
 30
0.0
 10
7.175725106914981
 20
3.145114165780071
 30
0.0
 10
7.185433246527844
 20
3.145201754907332
 30
0.0
 10
7.186830021147581
 20
3.14521435693767
 30
0.0
  0
SPLINE
  5
176
330
1F
100
AcDbEntity
  8
0
  6
Continuous
 62
     7
370
    25
100
AcDbSpline
210
0.0
220
0.0
230
1.0
 70
     8
 71
     3
 72
    17
 73
    13
 74
     0
 42
0.000000001
 43
0.00000001
 40
0.0
 40
0.0
 40
0.0
 40
0.0
 40
0.1052713557196636
 40
0.2148113302334023
 40
0.3243513047471457
 40
0.4338912792608846
 40
0.5434312537746274
 40
0.6529712282883654
 40
0.7625112028021073
 40
0.8720511773158474
 40
0.9815911518295884
 40
1.0
 40
1.0
 40
1.0
 40
1.0
 10
7.289521529332062
 20
3.295643219590261
 30
0.0
 10
7.284956945801037
 20
3.300272181701112
 30
0.0
 10
7.275642690716565
 20
3.309717804414283
 30
0.0
 10
7.252973137373157
 20
3.308052310807329
 30
0.0
 10
7.228018153852815
 20
3.294158987819238
 30
0.0
 10
7.204231271205877
 20
3.268957629381826
 30
0.0
 10
7.185662885745494
 20
3.236430412743367
 30
0.0
 10
7.175329141211439
 20
3.201436307492581
 30
0.0
 10
7.174878626408971
 20
3.168801101171525
 30
0.0
 10
7.185150703693687
 20
3.144864937407208
 30
0.0
 10
7.19782219382706
 20
3.132357789032842
 30
0.0
 10
7.207530333439923
 20
3.132445378160103
 30
0.0
 10
7.208927108059661
 20
3.13245798019044
 30
0.0
  0
LWPOLYLINE
  5
177
330
1F
100
AcDbEntity
  8
0
  6
Continuous
 62
     7
370
    25
100
AcDbPolyline
 90
       14
 70
   128
 43
0.0
 10
7.313537
 20
3.278148
 10
7.312229
 20
3.282426
 10
7.296556
 20
3.29424
 10
7.274739
 20
3.293262
 10
7.25031
 20
3.279518
 10
7.227198
 20
3.25498
 10
7.209132
 20
3.223263
 10
7.199073
 20
3.189073
 10
7.198763
 20
3.157495
 10
7.208458
 20
3.133214
 10
7.226894
 20
3.119805
 10
7.251473
 20
3.119189
 10
7.285991
 20
3.136619
 10
7.285991
 20
3.136619
  0
ARC
  5
178
330
1F
100
AcDbEntity
  8
0
  6
Continuous
 62
     7
370
    25
100
AcDbCircle
 10
7.184125
 20
3.25191
 30
0.0
 40
0.1538466291779772
100
AcDbArc
 50
311.462402
 51
338.213191
  0
LWPOLYLINE
  5
179
330
1F
100
AcDbEntity
  8
0
  6
Continuous
 62
     7
370
    25
100
AcDbPolyline
 90
       18
 70
   128
 43
0.0
 10
7.256834
 20
3.128203
 10
7.24364
 20
3.130926
 10
7.233704
 20
3.139591
 10
7.227924
 20
3.153415
 10
7.226823
 20
3.171147
 10
7.2305
 20
3.191186
 10
7.238622
 20
3.21172
 10
7.250455
 20
3.230892
 10
7.264931
 20
3.246969
 10
7.280739
 20
3.258499
 10
7.296452
 20
3.264438
 10
7.310649
 20
3.26425
 10
7.322045
 20
3.257952
 10
7.329612
 20
3.246113
 10
7.332665
 20
3.229804
 10
7.330929
 20
3.210498
 10
7.324559
 20
3.189941
 10
7.314132
 20
3.169992
  0
SPLINE
  5
17A
330
1F
100
AcDbEntity
  8
0
  6
Continuous
 62
     7
370
    25
100
AcDbSpline
210
0.0
220
0.0
230
1.0
 70
     8
 71
     3
 72
    21
 73
    17
 74
     0
 42
0.000000001
 43
0.00000001
 40
0.0
 40
0.0
 40
0.0
 40
0.0
 40
0.0780905404521424
 40
0.1558462096654606
 40
0.2314004643706928
 40
0.3070109015320264
 40
0.3803891730845538
 40
0.4534287417184947
 40
0.5250453033426584
 40
0.5955307083653275
 40
0.6653829711928441
 40
0.7333304846853297
 40
0.8013547735182515
 40
0.8668221427801344
 40
0.9322687300889129
 40
1.0
 40
1.0
 40
1.0
 40
1.0
 10
7.326982455467084
 20
3.194809127869641
 30
0.0
 10
7.330187161610199
 20
3.204384572018411
 30
0.0
 10
7.336582831336706
 20
3.223494398481499
 30
0.0
 10
7.336718314870727
 20
3.249055316954372
 30
0.0
 10
7.329866114770027
 20
3.268411226520261
 30
0.0
 10
7.316555019376279
 20
3.279476981639687
 30
0.0
 10
7.298672846141907
 20
3.28103554830681
 30
0.0
 10
7.278478306689022
 20
3.27345130500767
 30
0.0
 10
7.258489447747565
 20
3.257445376384557
 30
0.0
 10
7.240921546245211
 20
3.235383898370029
 30
0.0
 10
7.228029987726714
 20
3.209760376598044
 30
0.0
 10
7.221038160539075
 20
3.183622691724973
 30
0.0
 10
7.220724924906587
 20
3.160036653416899
 30
0.0
 10
7.227122397740155
 20
3.141698891652363
 30
0.0
 10
7.239092408850653
 20
3.129494742320244
 30
0.0
 10
7.250852615533195
 20
3.128638304807196
 30
0.0
 10
7.256833592774106
 20
3.128202739904973
 30
0.0
  0
SPLINE
  5
17B
330
1F
100
AcDbEntity
  8
0
  6
Continuous
 62
     7
370
    25
100
AcDbSpline
210
0.0
220
0.0
230
1.0
 70
     8
 71
     3
 72
    12
 73
     8
 74
     0
 42
0.000000001
 43
0.00000001
 40
0.0
 40
0.0
 40
0.0
 40
0.0
 40
0.0565320997162744
 40
0.3137598794610159
 40
0.5709876592057622
 40
0.828215438950504
 40
0.9999999999999999
 40
0.9999999999999999
 40
0.9999999999999999
 40
0.9999999999999999
 10
7.077758134036404
 20
3.308366367783396
 30
0.0
 10
7.076390719414917
 20
3.30606416403049
 30
0.0
 10
7.068801405574387
 20
3.29328665929191
 30
0.0
 10
7.062382234714267
 20
3.266442749612094
 30
0.0
 10
7.061786044339131
 20
3.234742341617394
 30
0.0
 10
7.069964253518873
 20
3.211274127409518
 30
0.0
 10
7.081004465959174
 20
3.204931482413559
 30
0.0
 10
7.085425173401853
 20
3.202391768790154
 30
0.0
  0
SPLINE
  5
17C
330
1F
100
AcDbEntity
  8
0
  6
Continuous
 62
     7
370
    25
100
AcDbSpline
210
0.0
220
0.0
230
1.0
 70
     8
 71
     3
 72
    16
 73
    12
 74
     0
 42
0.000000001
 43
0.00000001
 40
0.0
 40
0.0
 40
0.0
 40
0.0
 40
0.0415211854159213
 40
0.1665211854159181
 40
0.2915211854159183
 40
0.4165211854159185
 40
0.5415211854159178
 40
0.6665211854159193
 40
0.7915211854159182
 40
0.9165211854159171
 40
1.0
 40
1.0
 40
1.0
 40
1.0
 10
7.188514713492773
 20
3.355692561499167
 30
0.0
 10
7.186862437491017
 20
3.357154472794075
 30
0.0
 10
7.180235965831054
 20
3.3630174846364
 30
0.0
 10
7.161613872822185
 20
3.360285898867594
 30
0.0
 10
7.136924831661463
 20
3.346884992814057
 30
0.0
 10
7.113060923448301
 20
3.321540345836222
 30
0.0
 10
7.094534697893186
 20
3.289093866424902
 30
0.0
 10
7.084109339304276
 20
3.253920100805988
 30
0.0
 10
7.08398312081596
 20
3.2219227987303
 30
0.0
 10
7.092045754685206
 20
3.198527596603695
 30
0.0
 10
7.103097096472621
 20
3.192177920895098
 30
0.0
 10
7.107522260313933
 20
3.189635392042924
 30
0.0
  0
SPLINE
  5
17D
330
1F
100
AcDbEntity
  8
0
  6
Continuous
 62
     7
370
    25
100
AcDbSpline
210
0.0
220
0.0
230
1.0
 70
     8
 71
     3
 72
    16
 73
    12
 74
     0
 42
0.000000001
 43
0.00000001
 40
0.0
 40
0.0
 40
0.0
 40
0.0
 40
0.0415211854159198
 40
0.1665211854159195
 40
0.291521185415922
 40
0.4165211854159191
 40
0.541521185415921
 40
0.6665211854159196
 40
0.791521185415919
 40
0.9165211854159182
 40
1.0
 40
1.0
 40
1.0
 40
1.0
 10
7.210611800404853
 20
3.342936184751937
 30
0.0
 10
7.208959524403096
 20
3.344398096046845
 30
0.0
 10
7.202333052743133
 20
3.350261107889171
 30
0.0
 10
7.183710959734264
 20
3.347529522120365
 30
0.0
 10
7.159021918573541
 20
3.334128616066828
 30
0.0
 10
7.135158010360381
 20
3.308783969088992
 30
0.0
 10
7.116631784805266
 20
3.276337489677672
 30
0.0
 10
7.106206426216357
 20
3.241163724058759
 30
0.0
 10
7.10608020772804
 20
3.20916642198307
 30
0.0
 10
7.114142841597285
 20
3.185771219856464
 30
0.0
 10
7.1251941833847
 20
3.179421544147868
 30
0.0
 10
7.129619347226012
 20
3.176879015295694
 30
0.0
  0
SPLINE
  5
17E
330
1F
100
AcDbEntity
  8
0
  6
Continuous
 62
     7
370
    25
100
AcDbSpline
210
0.0
220
0.0
230
1.0
 70
     8
 71
     3
 72
    16
 73
    12
 74
     0
 42
0.000000001
 43
0.00000001
 40
0.0
 40
0.0
 40
0.0
 40
0.0
 40
0.0415211854159206
 40
0.1665211854159178
 40
0.2915211854159191
 40
0.4165211854159188
 40
0.5415211854159183
 40
0.6665211854159183
 40
0.7915211854159183
 40
0.916521185415919
 40
0.9999999999999999
 40
0.9999999999999999
 40
0.9999999999999999
 40
0.9999999999999999
 10
7.232708887316932
 20
3.330179808004707
 30
0.0
 10
7.231056611315176
 20
3.331641719299615
 30
0.0
 10
7.224430139655213
 20
3.33750473114194
 30
0.0
 10
7.205808046646344
 20
3.334773145373135
 30
0.0
 10
7.181119005485621
 20
3.321372239319598
 30
0.0
 10
7.15725509727246
 20
3.296027592341763
 30
0.0
 10
7.138728871717345
 20
3.263581112930443
 30
0.0
 10
7.128303513128436
 20
3.228407347311529
 30
0.0
 10
7.128177294640119
 20
3.196410045235841
 30
0.0
 10
7.136239928509365
 20
3.173014843109234
 30
0.0
 10
7.147291270296781
 20
3.166665167400638
 30
0.0
 10
7.151716434138091
 20
3.164122638548465
 30
0.0
  0
SPLINE
  5
17F
330
1F
100
AcDbEntity
  8
0
  6
Continuous
 62
     7
370
    25
100
AcDbSpline
210
0.0
220
0.0
230
1.0
 70
     8
 71
     3
 72
    16
 73
    12
 74
     0
 42
0.000000001
 43
0.00000001
 40
0.0
 40
0.0
 40
0.0
 40
0.0
 40
0.0415211854159193
 40
0.166521185415919
 40
0.2915211854159188
 40
0.4165211854159193
 40
0.5415211854159189
 40
0.6665211854159193
 40
0.7915211854159167
 40
0.9165211854159179
 40
0.9999999999999999
 40
0.9999999999999999
 40
0.9999999999999999
 40
0.9999999999999999
 10
7.254805974229012
 20
3.317423431257477
 30
0.0
 10
7.253153698227256
 20
3.318885342552385
 30
0.0
 10
7.246527226567292
 20
3.324748354394711
 30
0.0
 10
7.227905133558423
 20
3.322016768625905
 30
0.0
 10
7.2032160923977
 20
3.308615862572368
 30
0.0
 10
7.17935218418454
 20
3.283271215594533
 30
0.0
 10
7.160825958629426
 20
3.250824736183212
 30
0.0
 10
7.150400600040516
 20
3.215650970564299
 30
0.0
 10
7.150274381552199
 20
3.183653668488611
 30
0.0
 10
7.158337015421444
 20
3.160258466362005
 30
0.0
 10
7.169388357208859
 20
3.153908790653408
 30
0.0
 10
7.173813521050171
 20
3.151366261801235
 30
0.0
  0
SPLINE
  5
180
330
1F
100
AcDbEntity
  8
0
  6
Continuous
 62
     7
370
    25
100
AcDbSpline
210
0.0
220
0.0
230
1.0
 70
     8
 71
     3
 72
    16
 73
    12
 74
     0
 42
0.000000001
 43
0.00000001
 40
0.0
 40
0.0
 40
0.0
 40
0.0
 40
0.0415211854159196
 40
0.1665211854159184
 40
0.2915211854159174
 40
0.4165211854159194
 40
0.541521185415919
 40
0.6665211854159183
 40
0.7915211854159205
 40
0.9165211854159158
 40
1.0
 40
1.0
 40
1.0
 40
1.0
 10
7.276903061141091
 20
3.304667054510248
 30
0.0
 10
7.275250785139336
 20
3.306128965805155
 30
0.0
 10
7.268624313479372
 20
3.31199197764748
 30
0.0
 10
7.250002220470503
 20
3.309260391878676
 30
0.0
 10
7.225313179309779
 20
3.295859485825138
 30
0.0
 10
7.201449271096619
 20
3.270514838847303
 30
0.0
 10
7.182923045541505
 20
3.238068359435982
 30
0.0
 10
7.172497686952595
 20
3.202894593817069
 30
0.0
 10
7.172371468464278
 20
3.170897291741381
 30
0.0
 10
7.180434102333525
 20
3.147502089614774
 30
0.0
 10
7.191485444120939
 20
3.141152413906179
 30
0.0
 10
7.195910607962251
 20
3.138609885054005
 30
0.0
  0
SPLINE
  5
181
330
1F
100
AcDbEntity
  8
0
  6
Continuous
 62
     7
370
    25
100
AcDbSpline
210
0.0
220
0.0
230
1.0
 70
     8
 71
     3
 72
    16
 73
    12
 74
     0
 42
0.000000001
 43
0.00000001
 40
0.0
 40
0.0
 40
0.0
 40
0.0
 40
0.04152118541592
 40
0.1665211854159177
 40
0.2915211854159203
 40
0.416521185415918
 40
0.5415211854159203
 40
0.6665211854159179
 40
0.7915211854159179
 40
0.9165211854159152
 40
1.0
 40
1.0
 40
1.0
 40
1.0
 10
7.299000148053171
 20
3.291910677763017
 30
0.0
 10
7.297347872051414
 20
3.293372589057925
 30
0.0
 10
7.290721400391451
 20
3.29923560090025
 30
0.0
 10
7.272099307382582
 20
3.296504015131446
 30
0.0
 10
7.24741026622186
 20
3.283103109077908
 30
0.0
 10
7.223546358008698
 20
3.257758462100073
 30
0.0
 10
7.205020132453584
 20
3.225311982688752
 30
0.0
 10
7.194594773864674
 20
3.190138217069839
 30
0.0
 10
7.194468555376357
 20
3.158140914994151
 30
0.0
 10
7.202531189245603
 20
3.134745712867545
 30
0.0
 10
7.213582531033019
 20
3.128396037158949
 30
0.0
 10
7.218007694874331
 20
3.125853508306775
 30
0.0
  0
SPLINE
  5
182
330
1F
100
AcDbEntity
  8
0
  6
Continuous
 62
     7
370
    25
100
AcDbSpline
210
0.0
220
0.0
230
1.0
 70
     8
 71
     3
 72
    10
 73
     6
 74
     0
 42
0.000000001
 43
0.00000001
 40
0.0
 40
0.0
 40
0.0
 40
0.0
 40
0.1361887773435271
 40
0.5655125727915599
 40
1.0
 40
1.0
 40
1.0
 40
1.0
 10
7.266235943162544
 20
3.130964506025314
 30
0.0
 10
7.268031002869998
 20
3.131520911221202
 30
0.0
 10
7.275484839032406
 20
3.133831337527825
 30
0.0
 10
7.289492124459365
 20
3.14196570957262
 30
0.0
 10
7.300241342806933
 20
3.153770630812307
 30
0.0
 10
7.305648079952548
 20
3.159708374758324
 30
0.0
  0
ARC
  5
183
330
1F
100
AcDbEntity
  8
0
  6
Continuous
 62
     7
370
    25
100
AcDbCircle
 10
7.324396
 20
3.170738
 30
0.0
 40
0.0830785959333759
100
AcDbArc
 50
140.227928
 51
177.360713
  0
ARC
  5
184
330
1F
100
AcDbEntity
  8
0
  6
Continuous
 62
     7
370
    25
100
AcDbCircle
 10
7.264899
 20
3.170737
 30
0.0
 40
0.023803184551374
100
AcDbArc
 50
170.748121
 51
259.453222
  0
ARC
  5
185
330
1F
100
AcDbEntity
  8
0
  6
Continuous
 62
     7
370
    25
100
AcDbCircle
 10
7.257587
 20
3.196652
 30
0.0
 40
0.0494045551393016
100
AcDbArc
 50
273.429538
 51
326.565085
  0
ARC
  5
186
330
1F
100
AcDbEntity
  8
0
  6
Continuous
 62
     7
370
    25
100
AcDbCircle
 10
7.234961
 20
3.222578
 30
0.0
 40
0.0830785959333829
100
AcDbArc
 50
320.227928
 51
357.360713
  0
ARC
  5
187
330
1F
100
AcDbEntity
  8
0
  6
Continuous
 62
     7
370
    25
100
AcDbCircle
 10
7.294458
 20
3.22258
 30
0.0
 40
0.0238031845513745
100
AcDbArc
 50
350.748121
 51
79.453222
  0
ARC
  5
188
330
1F
100
AcDbEntity
  8
0
  6
Continuous
 62
     7
370
    25
100
AcDbCircle
 10
7.301771
 20
3.196665
 30
0.0
 40
0.0494045551393033
100
AcDbArc
 50
93.429538
 51
146.565085
  0
LINE
  5
189
330
1F
100
AcDbEntity
  8
0
  6
Continuous
 62
     7
370
    25
100
AcDbLine
 10
7.256834
 20
3.128203
 30
0.0
 11
7.266236
 21
3.130965
 31
0.0
  0
SPLINE
  5
18A
330
1F
100
AcDbEntity
  8
0
  6
Continuous
 62
     7
370
    25
100
AcDbSpline
210
0.0
220
0.0
230
1.0
 70
     8
 71
     3
 72
     9
 73
     5
 74
     0
 42
0.000000001
 43
0.00000001
 40
0.0
 40
0.0
 40
0.0
 40
0.0
 40
0.8790684237937527
 40
1.0
 40
1.0
 40
1.0
 40
1.0
 10
7.298815327680733
 20
3.24598085677278
 30
0.0
 10
7.290629105596222
 20
3.244374331874995
 30
0.0
 10
7.281316722324414
 20
3.242546800758757
 30
0.0
 10
7.275608285810876
 20
3.238221301455397
 30
0.0
 10
7.274917955585622
 20
3.237698212006762
 30
0.0
  0
SPLINE
  5
18B
330
1F
100
AcDbEntity
  8
0
  6
Continuous
 62
     7
370
    25
100
AcDbSpline
210
0.0
220
0.0
230
1.0
 70
     8
 71
     3
 72
    11
 73
     7
 74
     0
 42
0.000000001
 43
0.00000001
 40
0.0
 40
0.0
 40
0.0
 40
0.0
 40
0.1809422465198824
 40
0.5062925772655626
 40
0.8439745107797013
 40
1.0
 40
1.0
 40
1.0
 40
1.0
 10
7.241405411834251
 20
3.174563467245597
 30
0.0
 10
7.241482232398685
 20
3.173597560117392
 30
0.0
 10
7.241697183203717
 20
3.170894865645846
 30
0.0
 10
7.245150687934178
 20
3.164132366400526
 30
0.0
 10
7.252973242793683
 20
3.155006739312117
 30
0.0
 10
7.25872449296478
 20
3.149177627100578
 30
0.0
 10
7.260542050449745
 20
3.147335463011799
 30
0.0
  0
SPLINE
  5
18C
330
1F
100
AcDbEntity
  8
0
  6
Continuous
 62
     7
370
    25
100
AcDbSpline
210
0.0
220
0.0
230
1.0
 70
     8
 71
     3
 72
    11
 73
     7
 74
     0
 42
0.000000001
 43
0.00000001
 40
0.0
 40
0.0
 40
0.0
 40
0.0
 40
0.1560254892203014
 40
0.4937074227344419
 40
0.8190577534801229
 40
1.0
 40
1.0
 40
1.0
 40
1.0
 10
7.317951966296227
 20
3.218752852538981
 30
0.0
 10
7.316134408811262
 20
3.220595016627761
 30
0.0
 10
7.310383158640164
 20
3.2264241288393
 30
0.0
 10
7.302560603780659
 20
3.235549755927709
 30
0.0
 10
7.299107099050199
 20
3.242312255173029
 30
0.0
 10
7.298892148245167
 20
3.245014949644574
 30
0.0
 10
7.298815327680733
 20
3.24598085677278
 30
0.0
  0
LINE
  5
18D
330
1F
100
AcDbEntity
  8
0
  6
Continuous
 62
     7
370
    25
100
AcDbLine
 10
7.280579
 20
3.240328
 30
0.0
 11
7.317952
 21
3.218753
 31
0.0
  0
ARC
  5
18E
330
1F
100
AcDbEntity
  8
0
  6
Continuous
 62
     7
370
    25
100
AcDbCircle
 10
7.207631
 20
3.241705
 30
0.0
 40
0.0638774685978128
100
AcDbArc
 50
338.226117
 51
353.801588
  0
ARC
  5
18F
330
1F
100
AcDbEntity
  8
0
  6
Continuous
 62
     7
370
    25
100
AcDbCircle
 10
7.197543
 20
3.244001
 30
0.0
 40
0.0741149700447822
100
AcDbArc
 50
307.215899
 51
339.470693
  0
LINE
  5
190
330
1F
100
AcDbEntity
  8
0
  6
Continuous
 62
     7
370
    25
100
AcDbLine
 10
7.242312
 20
3.184648
 30
0.0
 11
7.257383
 21
3.193348
 31
0.0
  0
LINE
  5
191
330
1F
100
AcDbEntity
  8
0
  6
Continuous
 62
     7
370
    25
100
AcDbLine
 10
7.257383
 20
3.193348
 30
0.0
 11
7.298815
 21
3.16943
 31
0.0
  0
SPLINE
  5
192
330
1F
100
AcDbEntity
  8
0
  6
Continuous
 62
     7
370
    25
100
AcDbSpline
210
0.0
220
0.0
230
1.0
 70
     8
 71
     3
 72
    10
 73
     6
 74
     0
 42
0.000000001
 43
0.00000001
 40
0.0
 40
0.0
 40
0.0
 40
0.0
 40
0.439124961422682
 40
0.751373647700825
 40
0.9999999999999999
 40
0.9999999999999999
 40
0.9999999999999999
 40
0.9999999999999999
 10
7.260542050449745
 20
3.147335463011799
 30
0.0
 10
7.263751110035769
 20
3.151809095389794
 30
0.0
 10
7.269242036352116
 20
3.159463794561157
 30
0.0
 10
7.284597310237075
 20
3.166334577413363
 30
0.0
 10
7.294448474388343
 20
3.168479394688817
 30
0.0
 10
7.298815327680733
 20
3.169430155658491
 30
0.0
  0
LINE
  5
193
330
1F
100
AcDbEntity
  8
0
  6
Continuous
 62
     7
370
    25
100
AcDbLine
 10
7.257383
 20
3.193348
 30
0.0
 11
7.266952
 21
3.21801
 31
0.0
  0
LINE
  5
194
330
1F
100
AcDbEntity
  8
0
  6
Continuous
 62
     7
370
    25
100
AcDbLine
 10
7.266952
 20
3.21801
 30
0.0
 11
7.274497
 21
3.237456
 31
0.0
  0
SPLINE
  5
195
330
1F
100
AcDbEntity
  8
0
  6
Continuous
 62
     7
370
    25
100
AcDbSpline
210
0.0
220
0.0
230
1.0
 70
     8
 71
     3
 72
    10
 73
     6
 74
     0
 42
0.000000001
 43
0.00000001
 40
0.0
 40
0.0
 40
0.0
 40
0.0
 40
0.439124961422683
 40
0.7513736477008289
 40
1.0
 40
1.0
 40
1.0
 40
1.0
 10
7.298815327680733
 20
3.169430155658491
 30
0.0
 10
7.299284772811123
 20
3.177801768005476
 30
0.0
 10
7.300088026397242
 20
3.192126184649686
 30
0.0
 10
7.30862902316687
 20
3.208692461568244
 30
0.0
 10
7.315088562515741
 20
3.215662952585814
 30
0.0
 10
7.317951966296227
 20
3.218752852538981
 30
0.0
  0
LWPOLYLINE
  5
196
330
1F
100
AcDbEntity
  8
0
  6
Continuous
 62
     7
370
    25
100
AcDbPolyline
 90
       10
 70
   128
 43
0.0
 10
5.307448
 20
3.643119
 10
5.307501
 20
3.637
 10
5.311713
 20
3.588117
 10
5.32264
 20
3.539582
 10
5.340212
 20
3.491702
 10
5.364318
 20
3.444779
 10
5.394806
 20
3.399111
 10
5.431482
 20
3.354984
 10
5.474116
 20
3.31268
 10
5.477361
 20
3.309754
  0
LWPOLYLINE
  5
197
330
1F
100
AcDbEntity
  8
0
  6
Continuous
 62
     7
370
    25
100
AcDbPolyline
 90
       21
 70
   128
 43
0.0
 10
5.645026
 20
3.193751
 10
5.698301
 20
3.166821
 10
5.765987
 20
3.137349
 10
5.837516
 20
3.111075
 10
5.912434
 20
3.088164
 10
5.990269
 20
3.068762
 10
6.070528
 20
3.052992
 10
6.152704
 20
3.040952
 10
6.236276
 20
3.03272
 10
6.320718
 20
3.028346
 10
6.405495
 20
3.02786
 10
6.49007
 20
3.031263
 10
6.57391
 20
3.038535
 10
6.656484
 20
3.049629
 10
6.73727
 20
3.064475
 10
6.815758
 20
3.08298
 10
6.89145
 20
3.105026
 10
6.96387
 20
3.130474
 10
7.032558
 20
3.159163
 10
7.09708
 20
3.190912
 10
7.104246
 20
3.194767
  0
LWPOLYLINE
  5
198
330
1F
100
AcDbEntity
  8
0
  6
Continuous
 62
     7
370
    25
100
AcDbPolyline
 90
        9
 70
   128
 43
0.0
 10
7.268307
 20
3.308211
 10
7.305804
 20
3.344227
 10
7.343993
 20
3.387923
 10
7.376048
 20
3.433233
 10
7.401765
 20
3.47987
 10
7.420982
 20
3.527539
 10
7.433579
 20
3.575939
 10
7.439474
 20
3.624763
 10
7.439948
 20
3.643119
  0
LWPOLYLINE
  5
199
330
1F
100
AcDbEntity
  8
0
  6
Continuous
 62
     7
370
    25
100
AcDbPolyline
 90
       41
 70
   128
 43
0.0
 10
5.597972
 20
3.75667
 10
5.658918
 20
3.722231
 10
5.724436
 20
3.690714
 10
5.794108
 20
3.662321
 10
5.867488
 20
3.637233
 10
5.944106
 20
3.615611
 10
6.023472
 20
3.597593
 10
6.105079
 20
3.583294
 10
6.188405
 20
3.572806
 10
6.272916
 20
3.566197
 10
6.358071
 20
3.563507
 10
6.443327
 20
3.564755
 10
6.528137
 20
3.569932
 10
6.61196
 20
3.579005
 10
6.694257
 20
3.591917
 10
6.774505
 20
3.608585
 10
6.852188
 20
3.628901
 10
6.92681
 20
3.652737
 10
6.997893
 20
3.679939
 10
7.064983
 20
3.710333
 10
7.127651
 20
3.743726
 10
7.185495
 20
3.779904
 10
7.238146
 20
3.818634
 10
7.285266
 20
3.859669
 10
7.326555
 20
3.902748
 10
7.361748
 20
3.947593
 10
7.39062
 20
3.993919
 10
7.412987
 20
4.041428
 10
7.428704
 20
4.089818
 10
7.437672
 20
4.138778
 10
7.439834
 20
4.187995
 10
7.435174
 20
4.237154
 10
7.423725
 20
4.285941
 10
7.405557
 20
4.334044
 10
7.380788
 20
4.381155
 10
7.349577
 20
4.426972
 10
7.312122
 20
4.471203
 10
7.268664
 20
4.513564
 10
7.21948
 20
4.553785
 10
7.164886
 20
4.591608
 10
7.10523
 20
4.626791
  0
LINE
  5
19A
330
1F
100
AcDbEntity
  8
0
  6
Continuous
 62
     7
370
    25
100
AcDbLine
 10
7.10523
 20
4.626791
 30
0.0
 11
7.10523
 21
4.754375
 31
0.0
  0
LWPOLYLINE
  5
19B
330
1F
100
AcDbEntity
  8
0
  6
Continuous
 62
     7
370
    25
100
AcDbPolyline
 90
       20
 70
   128
 43
0.0
 10
5.597972
 20
3.884254
 10
5.541239
 20
3.921935
 10
5.489983
 20
3.962146
 10
5.44454
 20
4.004623
 10
5.405209
 20
4.049087
 10
5.37225
 20
4.095244
 10
5.345879
 20
4.142791
 10
5.326269
 20
4.191415
 10
5.313551
 20
4.240798
 10
5.307806
 20
4.290612
 10
5.309073
 20
4.340532
 10
5.317345
 20
4.390228
 10
5.332565
 20
4.439374
 10
5.354635
 20
4.487645
 10
5.383408
 20
4.534726
 10
5.418697
 20
4.580306
 10
5.460268
 20
4.624084
 10
5.507848
 20
4.665774
 10
5.561124
 20
4.705101
 10
5.619623
 20
4.741735
  0
LINE
  5
19C
330
1F
100
AcDbEntity
  8
0
  6
Continuous
 62
     7
370
    25
100
AcDbLine
 10
5.597972
 20
3.884254
 30
0.0
 11
5.597972
 21
3.75667
 31
0.0
  0
SPLINE
  5
19D
330
1F
100
AcDbEntity
  8
0
  6
Continuous
 62
     7
370
    25
100
AcDbSpline
210
0.0
220
0.0
230
1.0
 70
    11
 71
     3
 72
    26
 73
    22
 74
     0
 42
0.000000001
 43
0.00000001
 40
0.0
 40
0.0
 40
0.0
 40
0.0
 40
0.0535906995280631
 40
0.1071779352585824
 40
0.160855152486257
 40
0.2145920195038233
 40
0.2682307603962171
 40
0.3217667016590031
 40
0.3753555895901911
 40
0.4290704096043991
 40
0.482787931392283
 40
0.5363809635306345
 40
0.5899166199002572
 40
0.6435507086887583
 40
0.697286428682405
 40
0.7509681937072422
 40
0.8045240484856854
 40
0.8580787879944667
 40
0.9117586189851151
 40
0.9654948630179873
 40
1.0
 40
1.0
 40
1.0
 40
1.0
 10
7.127650731110135
 20
3.552349485813245
 30
0.0
 10
7.133807500467658
 20
3.556660081432611
 30
0.0
 10
7.146120641244207
 20
3.565280994058997
 30
0.0
 10
7.161998199282466
 20
3.586147699699405
 30
0.0
 10
7.173864694481645
 20
3.609980072711148
 30
0.0
 10
7.180562166471537
 20
3.634647194092924
 30
0.0
 10
7.181501628649205
 20
3.65705726595398
 30
0.0
 10
7.176618993477706
 20
3.674716574678627
 30
0.0
 10
7.166344918324741
 20
3.685735665294382
 30
0.0
 10
7.151586889898889
 20
3.689004506386822
 30
0.0
 10
7.133782331702547
 20
3.684252303126816
 30
0.0
 10
7.114844188252185
 20
3.672099999372379
 30
0.0
 10
7.096932494730929
 20
3.653924838725398
 30
0.0
 10
7.082196481053899
 20
3.631648800489919
 30
0.0
 10
7.072530076241642
 20
3.607616934131701
 30
0.0
 10
7.069246885632568
 20
3.58444764150973
 30
0.0
 10
7.072779078138139
 20
3.564741325863679
 30
0.0
 10
7.082633134803955
 20
3.550695007936879
 30
0.0
 10
7.097504031071765
 20
3.544123174265222
 30
0.0
 10
7.113422602837072
 20
3.545265891810296
 30
0.0
 10
7.12365107781592
 20
3.550358224591458
 30
0.0
 10
7.127650731110135
 20
3.552349485813245
 30
0.0
  0
SPLINE
  5
19E
330
1F
100
AcDbEntity
  8
0
  6
Continuous
 62
     7
370
    25
100
AcDbSpline
210
0.0
220
0.0
230
1.0
 70
     8
 71
     3
 72
    14
 73
    10
 74
     0
 42
0.000000001
 43
0.00000001
 40
0.0
 40
0.0
 40
0.0
 40
0.0
 40
0.1591858366219192
 40
0.3183613097243213
 40
0.477805613603511
 40
0.6374259704393487
 40
0.79675478268627
 40
0.9557806101460197
 40
1.0
 40
1.0
 40
1.0
 40
1.0
 10
5.677014800418401
 20
3.253700999909936
 30
0.0
 10
5.676359938021932
 20
3.261188033658962
 30
0.0
 10
5.675050255862681
 20
3.276161613726589
 30
0.0
 10
5.664912326965799
 20
3.300354339072504
 30
0.0
 10
5.650222322546638
 20
3.322513042548923
 30
0.0
 10
5.632151113579099
 20
3.340774872436234
 30
0.0
 10
5.613434945850908
 20
3.352314285263194
 30
0.0
 10
5.599345820748716
 20
3.357156870950175
 30
0.0
 10
5.593338387318204
 20
3.355409050119189
 30
0.0
 10
5.592031369891687
 20
3.355028782520562
 30
0.0
  0
SPLINE
  5
19F
330
1F
100
AcDbEntity
  8
0
  6
Continuous
 62
     7
370
    25
100
AcDbSpline
210
0.0
220
0.0
230
1.0
 70
     8
 71
     3
 72
     9
 73
     5
 74
     0
 42
0.000000001
 43
0.00000001
 40
0.0
 40
0.0
 40
0.0
 40
0.0
 40
0.3750629837156539
 40
1.0
 40
1.0
 40
1.0
 40
1.0
 10
5.672766191776499
 20
3.234491011739215
 30
0.0
 10
5.673849731616311
 20
3.236461173317566
 30
0.0
 10
5.676738685970263
 20
3.241714055270439
 30
0.0
 10
5.67690860913982
 20
3.249090922508596
 30
0.0
 10
5.677014800418402
 20
3.253700999909936
 30
0.0
  0
LINE
  5
1A0
330
1F
100
AcDbEntity
  8
0
  6
Continuous
 62
     7
370
    25
100
AcDbLine
 10
5.597972
 20
3.75667
 30
0.0
 11
6.034725
 21
4.008802
 31
0.0
  0
LINE
  5
1A1
330
1F
100
AcDbEntity
  8
0
  6
Continuous
 62
     7
370
    25
100
AcDbLine
 10
6.790951
 20
4.445362
 30
0.0
 11
7.10523
 21
4.626791
 31
0.0
  0
LWPOLYLINE
  5
1A2
330
1F
100
AcDbEntity
  8
0
  6
Continuous
 62
     7
370
    25
100
AcDbPolyline
 90
       21
 70
   128
 43
0.0
 10
7.061471
 20
3.169654
 10
7.03196
 20
3.153314
 10
6.96975
 20
3.122965
 10
6.90336
 20
3.095728
 10
6.833254
 20
3.071794
 10
6.759924
 20
3.051329
 10
6.683886
 20
3.034479
 10
6.605672
 20
3.021361
 10
6.525831
 20
3.012068
 10
6.444922
 20
3.006664
 10
6.363514
 20
3.005187
 10
6.282178
 20
3.007647
 10
6.201483
 20
3.014029
 10
6.121997
 20
3.024286
 10
6.044275
 20
3.038346
 10
5.968865
 20
3.056112
 10
5.896294
 20
3.077458
 10
5.827072
 20
3.102235
 10
5.761684
 20
3.130269
 10
5.700589
 20
3.161363
 10
5.685925
 20
3.169654
  0
LINE
  5
1A3
330
1F
100
AcDbEntity
  8
0
  6
Continuous
 62
     7
370
    25
100
AcDbLine
 10
5.664295
 20
3.999092
 30
0.0
 11
5.597972
 21
3.884254
 31
0.0
  0
LINE
  5
1A4
330
1F
100
AcDbEntity
  8
0
  6
Continuous
 62
     7
370
    25
100
AcDbLine
 10
5.664295
 20
3.999092
 30
0.0
 11
6.056854
 21
4.225712
 31
0.0
  0
LINE
  5
1A5
330
1F
100
AcDbEntity
  8
0
  6
Continuous
 62
     7
370
    25
100
AcDbLine
 10
6.098447
 20
4.173172
 30
0.0
 11
6.098447
 21
4.202533
 31
0.0
  0
LINE
  5
1A6
330
1F
100
AcDbEntity
  8
0
  6
Continuous
 62
     7
370
    25
100
AcDbLine
 10
6.034725
 20
4.136386
 30
0.0
 11
6.098447
 21
4.173172
 31
0.0
  0
LINE
  5
1A7
330
1F
100
AcDbEntity
  8
0
  6
Continuous
 62
     7
370
    25
100
AcDbLine
 10
6.034725
 20
4.008802
 30
0.0
 11
6.034725
 21
4.136386
 31
0.0
  0
ARC
  5
1A8
330
1F
100
AcDbEntity
  8
0
  6
Continuous
 62
     7
370
    25
100
AcDbCircle
 10
6.443334
 20
3.648144
 30
0.0
 40
1.29018433018666
100
AcDbArc
 50
62.508377
 51
81.982862
  0
LWPOLYLINE
  5
1A9
330
1F
100
AcDbEntity
  8
0
  6
Continuous
 62
     7
370
    25
100
AcDbPolyline
 90
       26
 70
   128
 43
0.0
 10
6.125485
 20
4.925927
 10
6.060444
 20
4.914599
 10
5.985043
 20
4.897739
 10
5.912328
 20
4.877321
 10
5.842803
 20
4.853486
 10
5.776949
 20
4.826399
 10
5.71522
 20
4.796248
 10
5.658043
 20
4.763241
 10
5.605814
 20
4.727605
 10
5.558893
 20
4.689588
 10
5.517606
 20
4.649452
 10
5.482237
 20
4.607475
 10
5.453031
 20
4.563947
 10
5.43019
 20
4.519168
 10
5.413872
 20
4.473449
 10
5.404189
 20
4.427105
 10
5.401209
 20
4.380457
 10
5.404952
 20
4.333828
 10
5.415393
 20
4.287539
 10
5.432458
 20
4.241911
 10
5.456031
 20
4.197259
 10
5.485948
 20
4.153892
 10
5.522002
 20
4.112109
 10
5.563944
 20
4.0722
 10
5.611485
 20
4.034441
 10
5.664295
 20
3.999092
  0
LINE
  5
1AA
330
1F
100
AcDbEntity
  8
0
  6
Continuous
 62
     7
370
    25
100
AcDbLine
 10
7.10523
 20
4.754375
 30
0.0
 11
7.038907
 21
4.792639
 31
0.0
  0
LINE
  5
1AB
330
1F
100
AcDbEntity
  8
0
  6
Continuous
 62
     7
370
    25
100
AcDbLine
 10
6.742559
 20
4.621561
 30
0.0
 11
7.038907
 21
4.792639
 31
0.0
  0
LWPOLYLINE
  5
1AC
330
1F
100
AcDbEntity
  8
0
  6
Continuous
 62
     7
370
    25
100
AcDbPolyline
 90
       13
 70
   128
 43
0.0
 10
6.257733
 20
5.853455
 10
6.284377
 20
5.840999
 10
6.314926
 20
5.832013
 10
6.348043
 20
5.826891
 10
6.382281
 20
5.825855
 10
6.416144
 20
5.828951
 10
6.448153
 20
5.836044
 10
6.476907
 20
5.846824
 10
6.50115
 20
5.860819
 10
6.519823
 20
5.877419
 10
6.53211
 20
5.895896
 10
6.537473
 20
5.915445
 10
6.537697
 20
5.920729
  0
ARC
  5
1AD
330
1F
100
AcDbEntity
  8
0
  6
Continuous
 62
     7
370
    25
100
AcDbCircle
 10
6.290911
 20
5.92796
 30
0.0
 40
0.0815586810925676
100
AcDbArc
 50
185.276509
 51
245.995605
  0
LWPOLYLINE
  5
1AE
330
1F
100
AcDbEntity
  8
0
  6
Continuous
 62
     7
370
    25
100
AcDbPolyline
 90
       25
 70
   128
 43
0.0
 10
6.109404
 20
4.430961
 10
6.147225
 20
4.411581
 10
6.189263
 20
4.395356
 10
6.234738
 20
4.382586
 10
6.282801
 20
4.373509
 10
6.332557
 20
4.368295
 10
6.38308
 20
4.367041
 10
6.433428
 20
4.36977
 10
6.482663
 20
4.376432
 10
6.529869
 20
4.386901
 10
6.574165
 20
4.400984
 10
6.614727
 20
4.418417
 10
6.650799
 20
4.438877
 10
6.681709
 20
4.461982
 10
6.706882
 20
4.487301
 10
6.725848
 20
4.514363
 10
6.738254
 20
4.542664
 10
6.743869
 20
4.571676
 10
6.742588
 20
4.60086
 10
6.734436
 20
4.629671
 10
6.719564
 20
4.657574
 10
6.698249
 20
4.684047
 10
6.670889
 20
4.708598
 10
6.637992
 20
4.730769
 10
6.615061
 20
4.743147
  0
LWPOLYLINE
  5
1AF
330
1F
100
AcDbEntity
  8
0
  6
Continuous
 62
     7
370
    25
100
AcDbPolyline
 90
       13
 70
   128
 43
0.0
 10
6.125196
 20
4.739515
 10
6.096597
 20
4.722853
 10
6.065687
 20
4.699748
 10
6.040515
 20
4.674429
 10
6.021549
 20
4.647367
 10
6.009143
 20
4.619066
 10
6.003527
 20
4.590053
 10
6.004808
 20
4.56087
 10
6.01296
 20
4.532059
 10
6.027832
 20
4.504156
 10
6.049147
 20
4.477683
 10
6.076508
 20
4.453132
 10
6.109404
 20
4.430961
  0
ENDSEC
  0
SECTION
  2
OBJECTS
  0
DICTIONARY
  5
C
330
0
100
AcDbDictionary
281
     1
  3
ACAD_GROUP
350
D
  3
ACAD_IMAGE_DICT
350
1307
  3
ACAD_LAYOUT
350
1A
  3
ACAD_MATERIAL
350
12F9
  3
ACAD_MLEADERSTYLE
350
130D
  3
ACAD_MLINESTYLE
350
17
  3
ACAD_PLOTSETTINGS
350
19
  3
ACAD_PLOTSTYLENAME
350
E
  3
ACAD_SCALELIST
350
47
  3
ACAD_TABLESTYLE
350
1303
  3
ACAD_VISUALSTYLE
350
12E0
  3
AcDbVariableDictionary
350
130C
  3
DWGPROPS
350
1313
  3
HOST_DOC_SETTINGS
350
1305
  3
MCS_STREAM_DICT
350
12FF
  0
DICTIONARY
  5
1314
330
8
100
AcDbDictionary
280
     1
281
     1
  3
ACAD_XREC_ROUNDTRIP
360
1315
  0
DICTIONARY
  5
D
102
{ACAD_REACTORS
330
C
102
}
330
C
100
AcDbDictionary
281
     1
  0
DICTIONARY
  5
1307
102
{ACAD_REACTORS
330
C
102
}
330
C
100
AcDbDictionary
281
     1
  0
DICTIONARY
  5
1A
102
{ACAD_REACTORS
330
C
102
}
330
C
100
AcDbDictionary
281
     1
  3
Layout1
350
1E
  3
Layout2
350
26
  3
Model
350
22
  0
DICTIONARY
  5
12F9
102
{ACAD_REACTORS
330
C
102
}
330
C
100
AcDbDictionary
281
     1
  3
ByBlock
350
12FB
  3
ByLayer
350
12FA
  3
Global
350
12FC
  0
DICTIONARY
  5
130D
102
{ACAD_REACTORS
330
C
102
}
330
C
100
AcDbDictionary
281
     1
  0
DICTIONARY
  5
17
102
{ACAD_REACTORS
330
C
102
}
330
C
100
AcDbDictionary
281
     1
  3
Standard
350
18
  0
DICTIONARY
  5
19
102
{ACAD_REACTORS
330
C
102
}
330
C
100
AcDbDictionary
281
     1
  0
ACDBDICTIONARYWDFLT
  5
E
102
{ACAD_REACTORS
330
C
102
}
330
C
100
AcDbDictionary
281
     1
  3
Normal
350
F
100
AcDbDictionaryWithDefault
340
F
  0
DICTIONARY
  5
47
102
{ACAD_REACTORS
330
C
102
}
330
C
100
AcDbDictionary
281
     1
  3
A0
350
48
  3
A1
350
49
  3
A2
350
4A
  3
A3
350
4B
  3
A4
350
4C
  3
A5
350
4D
  3
A6
350
4E
  3
A7
350
4F
  3
A8
350
50
  3
A9
350
51
  3
B1
350
52
  3
B2
350
53
  3
B3
350
54
  3
B4
350
55
  3
B5
350
56
  3
B6
350
57
  3
B7
350
58
  0
DICTIONARY
  5
1303
102
{ACAD_REACTORS
330
C
102
}
330
C
100
AcDbDictionary
281
     1
  3
Standard
350
1304
  0
DICTIONARY
  5
12E0
102
{ACAD_REACTORS
330
C
102
}
330
C
100
AcDbDictionary
281
     1
  3
2dWireframe
350
12E5
  3
Basic
350
12E8
  3
Brighten
350
12EC
  3
ColorChange
350
12F0
  3
Conceptual
350
12EA
  3
Dim
350
12EB
  3
EdgeColorOff
350
12F3
  3
Facepattern
350
12EF
  3
Flat
350
12E1
  3
FlatWithEdges
350
12E2
  3
Gouraud
350
12E3
  3
GouraudWithEdges
350
12E4
  3
Hidden
350
12E7
  3
JitterOff
350
12F1
  3
Linepattern
350
12EE
  3
OverhangOff
350
12F2
  3
Realistic
350
12E9
  3
Shaded
350
12F8
  3
Shaded with edges
350
12F7
  3
Shades of Gray
350
12F4
  3
Sketchy
350
12F5
  3
Thicken
350
12ED
  3
Wireframe
350
12E6
  3
X-Ray
350
12F6
  0
DICTIONARY
  5
130C
102
{ACAD_REACTORS
330
C
102
}
330
C
100
AcDbDictionary
281
     1
  3
DIMASSOC
350
1311
  3
HIDETEXT
350
1312
  3
MSLTSCALE
350
130E
  0
XRECORD
  5
1313
102
{ACAD_REACTORS
330
C
102
}
330
C
100
AcDbXrecord
280
     1
  1
DWGPROPS COOKIE
  2

  3

  4

  6

  7

  8
maika.huard
  9

300
=
301
=
302
=
303
=
304
=
305
=
306
=
307
=
308
=
309
=
 40
0.0
 41
2460726.560319
 42
2460726.578668
  1

 90
        0
  0
DICTIONARY
  5
1305
102
{ACAD_REACTORS
330
C
102
}
330
C
100
AcDbDictionary
281
     1
  3
NCDocParameters
350
1306
  0
DICTIONARY
  5
12FF
102
{ACAD_REACTORS
330
C
102
}
330
C
100
AcDbDictionary
281
     1
  3
MC_VERSION_DATA
350
130A
  3
MCS_DOCUMENT_ID
350
1300
  3
MCS_PARAMS_DATA
350
1308
  0
XRECORD
  5
1315
102
{ACAD_REACTORS
330
1314
102
}
330
1314
100
AcDbXrecord
280
     1
102
VTR_0.000_0.000_1.000_1.000_VISUALSTYLE
340
12E5
102
VTR_0.000_0.000_1.000_1.000_GRIDDISPLAY
 70
     3
102
VTR_0.000_0.000_1.000_1.000_GRIDMAJOR
 70
     5
102
VTR_0.000_0.000_1.000_1.000_DEFAULTLIGHTING
280
     1
102
VTR_0.000_0.000_1.000_1.000_DEFAULTLIGHTINGTYPE
 70
     1
102
VTR_0.000_0.000_1.000_1.000_BRIGHTNESS
141
0.0
102
VTR_0.000_0.000_1.000_1.000_CONTRAST
142
0.0
  0
LAYOUT
  5
1E
102
{ACAD_REACTORS
330
1A
102
}
330
1A
100
AcDbPlotSettings
  1

  2
none_device
  4

  6

 40
0.0
 41
0.0
 42
0.0
 43
0.0
 44
0.0
 45
0.0
 46
0.0
 47
0.0
 48
0.0
 49
0.0
140
0.0
141
0.0
142
1.0
143
1.0
 70
   688
 72
     0
 73
     0
 74
     5
  7

 75
    16
147
1.0
148
0.0
149
0.0
100
AcDbLayout
  1
Layout1
 70
     0
 71
     1
 10
0.0
 20
0.0
 11
12.0
 21
9.0
 12
0.0
 22
0.0
 32
0.0
 14
1.000000E+20
 24
1.000000E+20
 34
1.000000E+20
 15
-1.000000E+20
 25
-1.000000E+20
 35
-1.000000E+20
146
0.0
 13
0.0
 23
0.0
 33
0.0
 16
1.0
 26
0.0
 36
0.0
 17
0.0
 27
1.0
 37
0.0
 76
     0
330
1B
  0
LAYOUT
  5
26
102
{ACAD_REACTORS
330
1A
102
}
330
1A
100
AcDbPlotSettings
  1

  2
none_device
  4

  6

 40
0.0
 41
0.0
 42
0.0
 43
0.0
 44
0.0
 45
0.0
 46
0.0
 47
0.0
 48
0.0
 49
0.0
140
0.0
141
0.0
142
1.0
143
1.0
 70
   688
 72
     0
 73
     0
 74
     5
  7

 75
    16
147
1.0
148
0.0
149
0.0
100
AcDbLayout
  1
Layout2
 70
     1
 71
     2
 10
0.0
 20
0.0
 11
0.0
 21
0.0
 12
0.0
 22
0.0
 32
0.0
 14
0.0
 24
0.0
 34
0.0
 15
0.0
 25
0.0
 35
0.0
146
0.0
 13
0.0
 23
0.0
 33
0.0
 16
1.0
 26
0.0
 36
0.0
 17
0.0
 27
1.0
 37
0.0
 76
     0
330
23
  0
LAYOUT
  5
22
102
{ACAD_REACTORS
330
1A
102
}
330
1A
100
AcDbPlotSettings
  1

  2
none_device
  4
Letter_(8.50_x_11.00_Inches)
  6

 40
6.35
 41
6.35
 42
6.350005
 43
6.350005
 44
215.9
 45
279.4
 46
0.0
 47
0.0
 48
0.0
 49
0.0
140
0.0
141
0.0
142
1.0
143
1.0
 70
  1712
 72
     0
 73
     0
 74
     0
  7

 75
     0
147
1.0
148
0.0
149
0.0
100
AcDbLayout
  1
Model
 70
     1
 71
     0
 10
0.0
 20
0.0
 11
11.0
 21
8.5
 12
0.0
 22
0.0
 32
0.0
 14
0.0
 24
0.0
 34
0.0
 15
11.0
 25
8.5
 35
0.0
146
0.0
 13
0.0
 23
0.0
 33
0.0
 16
1.0
 26
0.0
 36
0.0
 17
0.0
 27
1.0
 37
0.0
 76
     0
330
1F
331
29
  0
MATERIAL
  5
12FB
102
{ACAD_REACTORS
330
12F9
102
}
102
{ACAD_XDICTIONARY
360
1348
102
}
330
12F9
100
AcDbMaterial
  1
ByBlock
  0
MATERIAL
  5
12FA
102
{ACAD_REACTORS
330
12F9
102
}
102
{ACAD_XDICTIONARY
360
1346
102
}
330
12F9
100
AcDbMaterial
  1
ByLayer
  0
MATERIAL
  5
12FC
102
{ACAD_REACTORS
330
12F9
102
}
102
{ACAD_XDICTIONARY
360
134A
102
}
330
12F9
100
AcDbMaterial
  1
Global
  0
MLINESTYLE
  5
18
102
{ACAD_REACTORS
330
17
102
}
330
17
100
AcDbMlineStyle
  2
Standard
 70
     0
  3

 62
   256
 51
90.0
 52
90.0
 71
     2
 49
0.5
 62
   256
  6
BYLAYER
 49
-0.5
 62
   256
  6
BYLAYER
  0
ACDBPLACEHOLDER
  5
F
102
{ACAD_REACTORS
330
E
102
}
330
E
  0
SCALE
  5
48
102
{ACAD_REACTORS
330
47
102
}
330
47
100
AcDbScale
 70
     0
300
1:1
140
1.0
141
1.0
290
     1
  0
SCALE
  5
49
102
{ACAD_REACTORS
330
47
102
}
330
47
100
AcDbScale
 70
     0
300
1/128" = 1'-0"
140
0.007812
141
12.0
290
     0
  0
SCALE
  5
4A
102
{ACAD_REACTORS
330
47
102
}
330
47
100
AcDbScale
 70
     0
300
1/64" = 1'-0"
140
0.015625
141
12.0
290
     0
  0
SCALE
  5
4B
102
{ACAD_REACTORS
330
47
102
}
330
47
100
AcDbScale
 70
     0
300
1/32" = 1'-0"
140
0.03125
141
12.0
290
     0
  0
SCALE
  5
4C
102
{ACAD_REACTORS
330
47
102
}
330
47
100
AcDbScale
 70
     0
300
1/16" = 1'-0"
140
0.0625
141
12.0
290
     0
  0
SCALE
  5
4D
102
{ACAD_REACTORS
330
47
102
}
330
47
100
AcDbScale
 70
     0
300
3/32" = 1'-0"
140
0.09375
141
12.0
290
     0
  0
SCALE
  5
4E
102
{ACAD_REACTORS
330
47
102
}
330
47
100
AcDbScale
 70
     0
300
1/8" = 1'-0"
140
0.125
141
12.0
290
     0
  0
SCALE
  5
4F
102
{ACAD_REACTORS
330
47
102
}
330
47
100
AcDbScale
 70
     0
300
3/16" = 1'-0"
140
0.1875
141
12.0
290
     0
  0
SCALE
  5
50
102
{ACAD_REACTORS
330
47
102
}
330
47
100
AcDbScale
 70
     0
300
1/4" = 1'-0"
140
0.25
141
12.0
290
     0
  0
SCALE
  5
51
102
{ACAD_REACTORS
330
47
102
}
330
47
100
AcDbScale
 70
     0
300
3/8" = 1'-0"
140
0.375
141
12.0
290
     0
  0
SCALE
  5
52
102
{ACAD_REACTORS
330
47
102
}
330
47
100
AcDbScale
 70
     0
300
1/2" = 1'-0"
140
0.5
141
12.0
290
     0
  0
SCALE
  5
53
102
{ACAD_REACTORS
330
47
102
}
330
47
100
AcDbScale
 70
     0
300
3/4" = 1'-0"
140
0.75
141
12.0
290
     0
  0
SCALE
  5
54
102
{ACAD_REACTORS
330
47
102
}
330
47
100
AcDbScale
 70
     0
300
1" = 1'-0"
140
1.0
141
12.0
290
     0
  0
SCALE
  5
55
102
{ACAD_REACTORS
330
47
102
}
330
47
100
AcDbScale
 70
     0
300
1-1/2" = 1'-0"
140
1.5
141
12.0
290
     0
  0
SCALE
  5
56
102
{ACAD_REACTORS
330
47
102
}
330
47
100
AcDbScale
 70
     0
300
3" = 1'-0"
140
3.0
141
12.0
290
     0
  0
SCALE
  5
57
102
{ACAD_REACTORS
330
47
102
}
330
47
100
AcDbScale
 70
     0
300
6" = 1'-0"
140
6.0
141
12.0
290
     0
  0
SCALE
  5
58
102
{ACAD_REACTORS
330
47
102
}
330
47
100
AcDbScale
 70
     0
300
1'-0" = 1'-0"
140
12.0
141
12.0
290
     0
  0
TABLESTYLE
  5
1304
102
{ACAD_REACTORS
330
1303
102
}
330
1303
100
AcDbTableStyle
  3
Standard
 70
     0
 71
     8
 40
0.06
 41
0.06
280
     0
281
     0
  7
Standard
140
4.5
170
     2
 62
     0
 63
   257
283
     0
274
    -2
284
     1
 64
     0
275
    -2
285
     1
 65
     0
276
    -2
286
     1
 66
     0
277
    -2
287
     1
 67
     0
278
    -2
288
     1
 68
     0
279
    -2
289
     1
 69
     0
  7
Standard
140
6.0
170
     5
 62
     0
 63
   257
283
     0
274
    -2
284
     1
 64
     0
275
    -2
285
     1
 65
     0
276
    -2
286
     1
 66
     0
277
    -2
287
     1
 67
     0
278
    -2
288
     1
 68
     0
279
    -2
289
     1
 69
     0
  7
Standard
140
4.5
170
     5
 62
     0
 63
   257
283
     0
274
    -2
284
     1
 64
     0
275
    -2
285
     1
 65
     0
276
    -2
286
     1
 66
     0
277
    -2
287
     1
 67
     0
278
    -2
288
     1
 68
     0
279
    -2
289
     1
 69
     0
  0
VISUALSTYLE
  5
12E5
102
{ACAD_REACTORS
330
12E0
102
}
102
{ACAD_XDICTIONARY
360
131E
102
}
330
12E0
100
AcDbVisualStyle
  2
2dWireframe
 70
     4
 71
     0
 72
     2
 73
     0
 90
        0
 40
0.6
 41
30.0
 62
     5
 63
     7
 74
     1
 91
        4
 64
     7
 65
   257
 75
     1
175
     1
 42
1.0
 92
        0
 66
   257
 43
1.0
 76
     1
 77
     6
 78
     2
 67
     7
 79
     5
170
     0
171
     0
290
     0
174
     0
 93
        1
 44
0.0
173
     0
291
     0
 45
0.0
1001
ACAD
1000
AcDbSavedByObjectVersion
1070
     0
  0
VISUALSTYLE
  5
12E8
102
{ACAD_REACTORS
330
12E0
102
}
102
{ACAD_XDICTIONARY
360
1324
102
}
330
12E0
100
AcDbVisualStyle
  2
Basic
 70
     7
 71
     1
 72
     0
 73
     1
 90
        0
 40
0.6
 41
30.0
 62
     5
 63
     7
 74
     0
 91
        4
 64
     7
 65
   257
 75
     1
175
     1
 42
1.0
 92
        8
 66
     7
 43
1.0
 76
     1
 77
     6
 78
     2
 67
     7
 79
     5
170
     0
171
     0
290
     0
174
     0
 93
        1
 44
0.0
173
     0
291
     1
 45
0.0
1001
ACAD
1000
AcDbSavedByObjectVersion
1070
     0
  0
VISUALSTYLE
  5
12EC
102
{ACAD_REACTORS
330
12E0
102
}
102
{ACAD_XDICTIONARY
360
132C
102
}
330
12E0
100
AcDbVisualStyle
  2
Brighten
 70
    12
 71
     2
 72
     2
 73
     0
 90
        0
 40
0.6
 41
30.0
 62
     5
 63
     7
 74
     1
 91
        4
 64
     7
 65
   257
 75
     1
175
     1
 42
1.0
 92
        8
 66
     7
 43
1.0
 76
     1
 77
     6
 78
     2
 67
     7
 79
     5
170
     0
171
     0
290
     0
174
     0
 93
        1
 44
50.0
173
     0
291
     1
 45
0.0
1001
ACAD
1000
AcDbSavedByObjectVersion
1070
     0
  0
VISUALSTYLE
  5
12F0
102
{ACAD_REACTORS
330
12E0
102
}
102
{ACAD_XDICTIONARY
360
1334
102
}
330
12E0
100
AcDbVisualStyle
  2
ColorChange
 70
    16
 71
     2
 72
     2
 73
     3
 90
        0
 40
0.6
 41
30.0
 62
     5
 63
     8
 74
     1
 91
        4
 64
     7
 65
   257
 75
     1
175
     1
 42
1.0
 92
        8
 66
     8
 43
1.0
 76
     1
 77
     6
 78
     2
 67
     7
 79
     5
170
     0
171
     0
290
     0
174
     0
 93
        1
 44
0.0
173
     0
291
     1
 45
0.0
1001
ACAD
1000
AcDbSavedByObjectVersion
1070
     0
  0
VISUALSTYLE
  5
12EA
102
{ACAD_REACTORS
330
12E0
102
}
102
{ACAD_XDICTIONARY
360
1328
102
}
330
12E0
100
AcDbVisualStyle
  2
Conceptual
 70
     9
 71
     3
 72
     2
 73
     0
 90
        0
 40
0.6
 41
30.0
 62
     5
 63
     7
 74
     2
 91
        2
 64
     7
 65
   257
 75
     1
175
     1
 42
179.0
 92
        8
 66
     7
 43
1.0
 76
     1
 77
     6
 78
     2
 67
     7
 79
     3
170
     0
171
     0
290
     0
174
     0
 93
        1
 44
0.0
173
     0
291
     0
 45
0.0
1001
ACAD
1000
AcDbSavedByObjectVersion
1070
     0
  0
VISUALSTYLE
  5
12EB
102
{ACAD_REACTORS
330
12E0
102
}
102
{ACAD_XDICTIONARY
360
132A
102
}
330
12E0
100
AcDbVisualStyle
  2
Dim
 70
    11
 71
     2
 72
     2
 73
     0
 90
        0
 40
0.6
 41
30.0
 62
     5
 63
     7
 74
     1
 91
        4
 64
     7
 65
   257
 75
     1
175
     1
 42
1.0
 92
        8
 66
     7
 43
1.0
 76
     1
 77
     6
 78
     2
 67
     7
 79
     5
170
     0
171
     0
290
     0
174
     0
 93
        1
 44
-50.0
173
     0
291
     1
 45
0.0
1001
ACAD
1000
AcDbSavedByObjectVersion
1070
     0
  0
VISUALSTYLE
  5
12F3
102
{ACAD_REACTORS
330
12E0
102
}
102
{ACAD_XDICTIONARY
360
133A
102
}
330
12E0
100
AcDbVisualStyle
  2
EdgeColorOff
 70
    22
 71
     2
 72
     2
 73
     0
 90
        0
 40
0.6
 41
30.0
 62
     5
 63
     7
 74
     1
 91
        4
 64
     7
 65
   257
 75
     1
175
     1
 42
1.0
 92
        8
 66
     7
 43
1.0
 76
     1
 77
     6
 78
     2
 67
     7
 79
     5
170
     0
171
     0
290
     0
174
     0
 93
        1
 44
0.0
173
     0
291
     1
 45
0.0
1001
ACAD
1000
AcDbSavedByObjectVersion
1070
     0
  0
VISUALSTYLE
  5
12EF
102
{ACAD_REACTORS
330
12E0
102
}
102
{ACAD_XDICTIONARY
360
1332
102
}
330
12E0
100
AcDbVisualStyle
  2
Facepattern
 70
    15
 71
     2
 72
     2
 73
     0
 90
        0
 40
0.6
 41
30.0
 62
     5
 63
     7
 74
     1
 91
        4
 64
     7
 65
   257
 75
     1
175
     1
 42
1.0
 92
        8
 66
     7
 43
1.0
 76
     1
 77
     6
 78
     2
 67
     7
 79
     5
170
     0
171
     0
290
     0
174
     0
 93
        1
 44
0.0
173
     0
291
     1
 45
0.0
1001
ACAD
1000
AcDbSavedByObjectVersion
1070
     0
  0
VISUALSTYLE
  5
12E1
102
{ACAD_REACTORS
330
12E0
102
}
102
{ACAD_XDICTIONARY
360
1316
102
}
330
12E0
100
AcDbVisualStyle
  2
Flat
 70
     0
 71
     2
 72
     1
 73
     1
 90
        2
 40
0.6
 41
30.0
 62
     5
 63
     7
 74
     0
 91
        0
 64
     7
 65
   257
 75
     1
175
     1
 42
1.0
 92
        8
 66
     7
 43
1.0
 76
     1
 77
     6
 78
     2
 67
     7
 79
     5
170
     0
171
     0
290
     0
174
     0
 93
       13
 44
0.0
173
     0
291
     1
 45
0.0
1001
ACAD
1000
AcDbSavedByObjectVersion
1070
     0
  0
VISUALSTYLE
  5
12E2
102
{ACAD_REACTORS
330
12E0
102
}
102
{ACAD_XDICTIONARY
360
1318
102
}
330
12E0
100
AcDbVisualStyle
  2
FlatWithEdges
 70
     1
 71
     2
 72
     1
 73
     1
 90
        2
 40
0.6
 41
30.0
 62
     5
 63
     7
 74
     1
 91
        0
 64
     7
 65
   257
 75
     1
175
     1
 42
1.0
 92
        0
 66
   257
 43
1.0
 76
     1
 77
     6
 78
     2
 67
     7
 79
     5
170
     0
171
     0
290
     0
174
     0
 93
       13
 44
0.0
173
     0
291
     1
 45
0.0
1001
ACAD
1000
AcDbSavedByObjectVersion
1070
     0
  0
VISUALSTYLE
  5
12E3
102
{ACAD_REACTORS
330
12E0
102
}
102
{ACAD_XDICTIONARY
360
131A
102
}
330
12E0
100
AcDbVisualStyle
  2
Gouraud
 70
     2
 71
     2
 72
     2
 73
     1
 90
        2
 40
0.6
 41
30.0
 62
     5
 63
     7
 74
     0
 91
        0
 64
     7
 65
   257
 75
     1
175
     1
 42
1.0
 92
        0
 66
     7
 43
1.0
 76
     1
 77
     6
 78
     2
 67
     7
 79
     5
170
     0
171
     0
290
     0
174
     0
 93
       13
 44
0.0
173
     0
291
     1
 45
0.0
1001
ACAD
1000
AcDbSavedByObjectVersion
1070
     0
  0
VISUALSTYLE
  5
12E4
102
{ACAD_REACTORS
330
12E0
102
}
102
{ACAD_XDICTIONARY
360
131C
102
}
330
12E0
100
AcDbVisualStyle
  2
GouraudWithEdges
 70
     3
 71
     2
 72
     2
 73
     1
 90
        2
 40
0.6
 41
30.0
 62
     5
 63
     7
 74
     1
 91
        0
 64
     7
 65
   257
 75
     1
175
     1
 42
1.0
 92
        0
 66
   257
 43
1.0
 76
     1
 77
     6
 78
     2
 67
     7
 79
     5
170
     0
171
     0
290
     0
174
     0
 93
       13
 44
0.0
173
     0
291
     1
 45
0.0
1001
ACAD
1000
AcDbSavedByObjectVersion
1070
     0
  0
VISUALSTYLE
  5
12E7
102
{ACAD_REACTORS
330
12E0
102
}
102
{ACAD_XDICTIONARY
360
1322
102
}
330
12E0
100
AcDbVisualStyle
  2
Hidden
 70
     6
 71
     1
 72
     2
 73
     2
 90
        0
 40
0.6
 41
30.0
 62
     5
 63
     7
 74
     2
 91
        2
 64
     7
 65
   257
 75
     2
175
     1
 42
40.0
 92
        0
 66
   257
 43
1.0
 76
     1
 77
     6
 78
     2
 67
     7
 79
     3
170
     0
171
     0
290
     0
174
     0
 93
        1
 44
0.0
173
     0
291
     0
 45
0.0
1001
ACAD
1000
AcDbSavedByObjectVersion
1070
     0
  0
VISUALSTYLE
  5
12F1
102
{ACAD_REACTORS
330
12E0
102
}
102
{ACAD_XDICTIONARY
360
1336
102
}
330
12E0
100
AcDbVisualStyle
  2
JitterOff
 70
    20
 71
     2
 72
     2
 73
     0
 90
        0
 40
0.6
 41
30.0
 62
     5
 63
     7
 74
     1
 91
        4
 64
     7
 65
   257
 75
     1
175
     1
 42
1.0
 92
       10
 66
     7
 43
1.0
 76
     1
 77
     6
 78
     2
 67
     7
 79
     5
170
     0
171
     0
290
     0
174
     0
 93
        1
 44
0.0
173
     0
291
     1
 45
0.0
1001
ACAD
1000
AcDbSavedByObjectVersion
1070
     0
  0
VISUALSTYLE
  5
12EE
102
{ACAD_REACTORS
330
12E0
102
}
102
{ACAD_XDICTIONARY
360
1330
102
}
330
12E0
100
AcDbVisualStyle
  2
Linepattern
 70
    14
 71
     2
 72
     2
 73
     0
 90
        0
 40
0.6
 41
30.0
 62
     5
 63
     7
 74
     1
 91
        4
 64
     7
 65
   257
 75
     7
175
     7
 42
1.0
 92
        8
 66
     7
 43
1.0
 76
     1
 77
     6
 78
     2
 67
     7
 79
     5
170
     0
171
     0
290
     0
174
     0
 93
        1
 44
0.0
173
     0
291
     1
 45
0.0
1001
ACAD
1000
AcDbSavedByObjectVersion
1070
     0
  0
VISUALSTYLE
  5
12F2
102
{ACAD_REACTORS
330
12E0
102
}
102
{ACAD_XDICTIONARY
360
1338
102
}
330
12E0
100
AcDbVisualStyle
  2
OverhangOff
 70
    21
 71
     2
 72
     2
 73
     0
 90
        0
 40
0.6
 41
30.0
 62
     5
 63
     7
 74
     1
 91
        4
 64
     7
 65
   257
 75
     1
175
     1
 42
1.0
 92
        9
 66
     7
 43
1.0
 76
     1
 77
     6
 78
     2
 67
     7
 79
     5
170
     0
171
     0
290
     0
174
     0
 93
        1
 44
0.0
173
     0
291
     1
 45
0.0
1001
ACAD
1000
AcDbSavedByObjectVersion
1070
     0
  0
VISUALSTYLE
  5
12E9
102
{ACAD_REACTORS
330
12E0
102
}
102
{ACAD_XDICTIONARY
360
1326
102
}
330
12E0
100
AcDbVisualStyle
  2
Realistic
 70
     8
 71
     2
 72
     3
 73
     0
 90
        2
 40
0.6
 41
30.0
 62
     5
 63
     7
 74
     0
 91
        0
 64
     7
 65
   257
 75
     1
175
     1
 42
1.0
 92
        8
 66
   257
 43
1.0
 76
     1
 77
     6
 78
     2
 67
     7
 79
     3
170
     0
171
     0
290
     0
174
     0
 93
       13
 44
0.0
173
     0
291
     0
 45
0.0
1001
ACAD
1000
AcDbSavedByObjectVersion
1070
     0
  0
VISUALSTYLE
  5
12F8
102
{ACAD_REACTORS
330
12E0
102
}
102
{ACAD_XDICTIONARY
360
1344
102
}
330
12E0
100
AcDbVisualStyle
  2
Shaded
 70
    27
 71
     2
 72
     2
 73
     1
 90
        2
 40
0.6
 41
30.0
 62
     5
 63
     7
 74
     0
 91
        4
 64
     7
 65
   257
 75
     1
175
     1
 42
1.0
 92
        8
 66
   257
 43
1.0
 76
     1
 77
     6
 78
     2
 67
     8
 79
     3
170
     0
171
     0
290
     0
174
     0
 93
        5
 44
0.0
173
     0
291
     0
 45
0.0
1001
ACAD
1000
AcDbSavedByObjectVersion
1070
     0
  0
VISUALSTYLE
  5
12F7
102
{ACAD_REACTORS
330
12E0
102
}
102
{ACAD_XDICTIONARY
360
1342
102
}
330
12E0
100
AcDbVisualStyle
  2
Shaded with edges
 70
    26
 71
     2
 72
     2
 73
     1
 90
        2
 40
0.6
 41
30.0
 62
     5
 63
     7
 74
     1
 91
       10
 64
     7
 65
   257
 75
     2
175
     1
 42
1.0
 92
        8
 66
   257
 43
1.0
 76
     1
 77
     6
 78
     2
 67
     7
 79
     3
170
     0
171
     0
290
     0
174
     0
 93
        5
 44
0.0
173
     0
291
     0
 45
0.0
1001
ACAD
1000
AcDbSavedByObjectVersion
1070
     0
  0
VISUALSTYLE
  5
12F4
102
{ACAD_REACTORS
330
12E0
102
}
102
{ACAD_XDICTIONARY
360
133C
102
}
330
12E0
100
AcDbVisualStyle
  2
Shades of Gray
 70
    23
 71
     2
 72
     2
 73
     3
 90
        0
 40
0.6
 41
30.0
 62
     5
 63
     7
 74
     2
 91
        2
 64
     7
 65
     7
 75
     1
175
     1
 42
40.0
 92
        8
 66
     7
 43
1.0
 76
     1
 77
     6
 78
     2
 67
     7
 79
     3
170
     0
171
     0
290
     0
174
     0
 93
        1
 44
0.0
173
     0
291
     0
 45
0.0
1001
ACAD
1000
AcDbSavedByObjectVersion
1070
     0
  0
VISUALSTYLE
  5
12F5
102
{ACAD_REACTORS
330
12E0
102
}
102
{ACAD_XDICTIONARY
360
133E
102
}
330
12E0
100
AcDbVisualStyle
  2
Sketchy
 70
    24
 71
     1
 72
     2
 73
     2
 90
        0
 40
0.6
 41
30.0
 62
     5
 63
     7
 74
     2
 91
        2
 64
     7
 65
     7
 75
     1
175
     1
 42
40.0
 92
       11
 66
     7
 43
1.0
 76
     1
 77
     6
 78
     2
 67
     7
 79
     6
170
     0
171
     0
290
     0
174
     0
 93
        1
 44
0.0
173
     0
291
     0
 45
0.0
1001
ACAD
1000
AcDbSavedByObjectVersion
1070
     0
  0
VISUALSTYLE
  5
12ED
102
{ACAD_REACTORS
330
12E0
102
}
102
{ACAD_XDICTIONARY
360
132E
102
}
330
12E0
100
AcDbVisualStyle
  2
Thicken
 70
    13
 71
     2
 72
     2
 73
     0
 90
        0
 40
0.6
 41
30.0
 62
     5
 63
     7
 74
     1
 91
        4
 64
     7
 65
   257
 75
     1
175
     1
 42
1.0
 92
       12
 66
     7
 43
1.0
 76
     1
 77
     6
 78
     2
 67
     7
 79
     5
170
     0
171
     0
290
     0
174
     0
 93
        1
 44
0.0
173
     0
291
     1
 45
0.0
1001
ACAD
1000
AcDbSavedByObjectVersion
1070
     0
  0
VISUALSTYLE
  5
12E6
102
{ACAD_REACTORS
330
12E0
102
}
102
{ACAD_XDICTIONARY
360
1320
102
}
330
12E0
100
AcDbVisualStyle
  2
Wireframe
 70
     5
 71
     0
 72
     2
 73
     0
 90
        0
 40
0.6
 41
30.0
 62
     5
 63
     7
 74
     1
 91
        4
 64
     7
 65
   257
 75
     1
175
     1
 42
1.0
 92
        0
 66
   257
 43
1.0
 76
     1
 77
     6
 78
     2
 67
     7
 79
     3
170
     0
171
     0
290
     0
174
     0
 93
        1
 44
0.0
173
     0
291
     0
 45
0.0
1001
ACAD
1000
AcDbSavedByObjectVersion
1070
     0
  0
VISUALSTYLE
  5
12F6
102
{ACAD_REACTORS
330
12E0
102
}
102
{ACAD_XDICTIONARY
360
1340
102
}
330
12E0
100
AcDbVisualStyle
  2
X-Ray
 70
    25
 71
     2
 72
     2
 73
     1
 90
        1
 40
0.5
 41
30.0
 62
     5
 63
     7
 74
     1
 91
        0
 64
     7
 65
   257
 75
     1
175
     1
 42
1.0
 92
        8
 66
     7
 43
1.0
 76
     1
 77
     6
 78
     2
 67
     7
 79
     3
170
     0
171
     0
290
     0
174
     0
 93
       13
 44
0.0
173
     0
291
     0
 45
0.0
1001
ACAD
1000
AcDbSavedByObjectVersion
1070
     0
  0
DICTIONARYVAR
  5
1311
102
{ACAD_REACTORS
330
130C
102
}
330
130C
100
DictionaryVariables
280
     0
  1
2
  0
DICTIONARYVAR
  5
1312
102
{ACAD_REACTORS
330
130C
102
}
330
130C
100
DictionaryVariables
280
     0
  1
1
  0
DICTIONARYVAR
  5
130E
102
{ACAD_REACTORS
330
130C
102
}
330
130C
100
DictionaryVariables
280
     0
  1
0
  0
CSACDOCUMENTOPTIONS
  5
1306
102
{ACAD_REACTORS
330
1305
102
}
330
1305
  0
XRECORD
  5
130A
102
{ACAD_REACTORS
330
12FF
102
}
330
12FF
100
AcDbXrecord
280
     1
300
MC_VERSION_DATA
 90
       95
310
0600000002000000570000001C000000E404000000000000000000007801936764E5D8CFFA9993818115C460606066E0646662626666706006F218793899F8DE3171E725E6E53B3BBA2878E6951050AF75FEFFFFFF520036E40F2657000000
  0
XRECORD
  5
1300
102
{ACAD_REACTORS
330
12FF
102
}
330
12FF
100
AcDbXrecord
280
     1
300
MCS_DOCUMENT_ID
 90
       60
310
0600000002000000150000001C000000E404000000000000000000007801E3BD7F24AD40C1A2CB6599AB70C4B457022BFF03010067500B3815000000
  0
XRECORD
  5
1308
102
{ACAD_REACTORS
330
12FF
102
}
330
12FF
100
AcDbXrecord
280
     1
300
MCS_PARAMS_DATA
 90
     3313
310
0600000002000000F64B00001C000000E404000000000000000000007801C55C5B6C5CC519DE9D595FD6B9DF494B53970A1A6F4A58DF92A6426A1A1210527090E23EF0543976A2BA75E25CAC160A6DA92AF5A55255A96AD556551F4A49A0CF15A03EC0438190865E482021147221409310B6900B3826B1FB7F7366CEFC73E6
310
1CAFBDDE3D9B07D8FF3F73CEF7DFE6FB67E6ECBA757EA3143929F767A4FCCE8636299AA49C90529036BB402C105929F279912F89C6DEAF6FD8BC69AB14A46C51EAC2B9898909BA39945F872C1FCD848A834A91A13B1AD51D6D5266E8A9FAF627E9AABE92BD45CA6F03BD81A3CFC24D59D990C96408C7E066656E0232E13A03
310
14B0AB01724443F05CC3F08780DFC8F19B03FC710A073DC8486413411B49060E3311A05C24C45064703B01D7CCE196A818E5C59C9268B967CBD6DED68ED59DC52EEB78BEF08E09F8223D745649346F1DE9DB35D0B777C089FC5FC3C8EB60BF1A286CF47FE3467F17CC59C5CD990B0CD948C1A77FB9F5CA0E4F479188EA541E
310
3C25A2E22BC99C8892456878B2821857F6B05492C2AD881B41409C21325211340605C9C6DC6006EC49AC088A0CCBB25B1159B72248E415019155047D5453031360047082A7405D92B72AB0F03379693EAB50870260AC609E2C6F6510BB3D081DFE4EF5EFECD71494A7B3590EC7F12C5B25CB32539229914732934ECE22AF1D
310
D259AC8B7B7649E437DE7BDFA69EADF76EE95186E95A7ED74C032DBFA66A9BF1CEF341B19B78E45DDED9EF56FE29189043E4814BF734E1FF34659991678231F23A51010DA578E8294D435524988818E84710A7B2643B4F7C134F5CC6936D1E4176D01398C4D0A83AE0A6BDC86B0BB5C3E1E8299D70A5A945AC12322FE697C4
310
9C8DC3BBBE34D2BA77FBEEA1BEFEED79D15C120DF70F0FEE1A093EF60C8FF47F4BCAB3B0ED666EDB17F5733E2B445B5E2C298985C507BB8BEBBA3A3A3774178B1D777FA5B36B9D327BBE1ED84C030BC74C9EDAB5B64D88BC405AEF1E1CD9D73A34B88F70838775AD5DDBD1B9B6BBABBB73A0ABA37F5D7BE0E757F57D1DB80F
310
037BFBB60D6D6F1DDED1DA3B3CB47D6FDF2EF8A0AD5933506CEF2FF6F7ADD9D6B56D5DFF9A60D6A95222FF670B51F8295953F8455019945B7EE9315C7A8AFEC352DE9D4B4A5050256AA6D1B42D5F0C265BEED4473538E9811F770DEFDCDD3732B86D706870E4A1D69DC303E45F6349C807B6EFCB8B8692103DC352AE816545
310
9E9E798813B5E9A692C86DD9B1A355A5424F8E0BF018466AF90D150136590E2905AA568F782650907D5A7180140B84AD0159F8156902B8F63BDA8BE1A72E29AF48322EA98B5F578631B6F5489B26184C63434803DB221A328E6B58DEAED6DB808FEB6DC068BD0DF8A4DE065CABB7018B3045EB390B3EAD7704C6EA6DC07518
310
10B79C17773A0DB6C361F03BDD064B22C8C7303844629E5064B47323116EB9039777E096BB70247238880C6E39831B9F221C81B3E543C57019D4736C30574EE2DD4AD73B12B9771099772B997713E97A974DF4CECD5D9582B938116EC00926492C777A7F676A8F441E4C882C98032C983211AE26DE8974E196022EC7174366
310
F9AE62C95769E105B5C4B012E2E82ED8CD3516C5E34D519CF0D1F6765A8551C6CC0505130A3E8ABEC46EF81CED54DC1DA04AB7BC4DB0CA082453194AB29B82400C2B438BA6322032B88FE093B3E13470C11297490C8EEF78E88158D51A8AD42283A38F61044E78707A57F8BBDFE2DF2167F36975041D1DA7FCF59430C35792
310
05112533A905D5D3CAAB4759DBB4CA160F3E9309466F934A1794E7E1154C402D3088858048DCDF7EA3E7FECD5B7A7B376D5480CBF43A7E5E49CCBE6BEB37D945B2402FC65F52AB73B67E7F3A58AE93F37A04F6B7011D680556EBCCA2819BC8A21C320F385BBDB4EE56E6E32CE2CB18E358AD7676B4C7C096B1674BAF7B1278
310
1E906198B0DF8681EA696AF34D20563061CAB731C0DB01185B8B0DCA46538BD880EB0E2C6FC3120B40E62289BC162112587895C11513E18290E892090EBF46A9321968C513E0BB89A0AE8F2431B88A7DFC9E07A7BD0A8E668E3AF3CDEA083A3A8ECFB770A00AB53712018F2859D8DB3D93C2E4D422CB77A40BB73A5DB807A7
310
0857A5727AC8838BE45965D0D3D5B29CBEEF99145F4E558AC0C3E9C23D922EDC0FD285FBA107E7958EEDE721E98018A3E3AAC64E7F5C166D7ABA81B65C437BB31D766C74A6ED6E1FBC2766B7AFDAD87156F9771BF44A2A724C461AB43EE729AAFB710D63E2111810BBA3ABC9AE6037E09AB9BF3AB40BE8309F8736AB64CAB2
310
BE7E3364E5AC569CA6976081AF5A311628A8EF68C5B3A4609E3E86AC3AA156E3E83562F4B5A292099A878C61EB3B549CF92354989982613F016CE7AD5A4D09AA1F5126387AAD451EE384D9C035A925859E39C1AA865EE9A9B8DA21CEE289167F7CF1D4C4BC7A125EC5AED5D8BB0B5A9D9144D134CFA71BF85A8D44BE568348
310
F6AA55A2F3CAEACF6982FD29118CC249D3CBF852A586F278BA70FBD3853B90085793EDE51E143F0AD06C6B4CB2242BDDBDD1419166C2865E85F9CE1648F3CBF54B2E655D5432557AB8C599EEE6E763403914E55050D879E2BFFA30F366F009F0CB378371CA9B99D05949929DD07465EA8797A3808B6B06B9536E64AF9C844C
310
903AF2F3709D3783A318A078E4F37AEBBCEC2DD1B228B722F785DC2DB9D64C476675A63353CC74E937B1FA39BFA7DB58A6AFC19E49583A4A9B6110A6BA038D3C80418F79D091B18A763C1D8524AA5361F194EC4CC4B23EDBA3192533E95398E41423EB6DCA1C239B4DBF91D13F6D762A6897D7013D496371DC8BECCAA7D45E
310
0C251095ABC98AA38E1B6540CD3DACF829EF15C38D27C2B92DA64A071D13897001094F16523EC1C9E5A99FF465029665AB5B13C49AF8984D174EA40B273D389D33BB29A272F6749622C2719C22AC925104534E7A8CF33714555C6B3CF3BE4BE0AF28994CA9B8353E0F28878DD26D8D2F007FBAAD11BD305CEB4EAB35BE08B8
310
B8D678FEB81BD9134AB6ADF10A644BBEF9C2334A81E4EAA6772450D87DD2AF49C178F020A0EBD3055FF292CC5B8AB3FC4114C86BA708ACDB15F49C43C04EBBE7FCBD0CA8A1CB2AF59CC3897035E1E39713E16AD873FE91085A131FFF19C04DBEDBF8D75406FD3B3A2842E56C8ABE82A171BC3BF89ECB0E0F287926BC7B0450
310
75E4DDA3C09F2EEF56BE2579157071BCBBE7881BD93E255BDE7D04B225A07C61BD5230DE1DBA8C1158736B225E412358525F03747D78F79897E472BCCBAF5BAF2BA0DDE3804E9B765F2F035A65DA3D910857134A7A2311AE52DA8D6E0E9C1341735A873DD47F12A16BE2E99BE9C275792B70532835F1AEDB838B7404B509F7
310
74C449519D9AA19EB28205FF5B08785CE3F9307262735AC933693C270155C7C6730AF8E9359ED3808B6B3CA387DDC6734EC9B6F1C897238DE72006D89713F9C2E58B91C6F3388D608DE70CA0A7DA7866D30F8008DC16BEAA2D26A2AAB848F4108A0CF46D0F54D7A73989E2C56D75B6B8431D2F6EAB64C5CD94644C04869974
310
1626C5B6A280378D1BEE62BCE2C3917700E714386FAA719B1D7E7D464DF7DD444F8317374E8CAA75BEF65E19D0F8F0523EC21D7470DCC60B8CAEF29753FC38EF4760CFDBF99B4673F680D0869F6742513F06849341B61DF57EE3400A02734628D75C0DBC8B68A868B98655ECA330208EA3C6F1B52E3DF1E8849E2433679564
310
431A886148B568E62C4406F75F64308EFD2F9D7039EA6D259B5B2BF91AD8396F72B01004EFC5CD6C88F911E8CCDF849C077E5C64E9488747967101058B73015D99FA9B900B808B63FFB117DCC85E50324556799F2F34BC086EC70CD18A4318C0D9FF2AB6807CDB718046B0A4BE0FE8B4D9FFA207EA504E3D7E65FA014C7226
310
B329B0E8D703AAFEBAA304E869379E693123CD68457958A4FF2F11AE86ECFF6119D078F6E7138AD87FF2370F86D6E1E34789702D76FED2134932CCA824CB8C811832A3160D33426421BD940847AF6F0C11D33DEECB1CFE9B7175D1F926045DE5BD8DBFBDBE9C081764D0049324E6DDB40A8607F34A225C4D16463974B5B836
310
F3B3A32E193EACE499B49986C93A780A6DA631A981D7A6CD34012EAECDFCF23937B23F51B26D337F80CCDBCC36A5C0ECD07DE7E7A7236D663D8D6033A419D0536D33E07F56B8C4CA7C0D48229F9610695A461A0883CE7B494E8DD95B004DF38E8247AB09FE45AC1A52EDAC32A0861DD8DA85D8A76276989D08579353913989
310
700119397510D9BB4CAB9DF096393711B4263ECE4B176E7EBA700B3C389DB3F0B5335AA6A7234288EA142D784A9083AFB414616018456CF64C3293C4CD2F49D3E5A5F0410CEE3E0F2E6A6FEA11580893E29AEE529C2FC11C4DF48D4AA628982DB44A422820F8563073C8F989CF2240392BED74F7768B819FDEDE6E09E0E29A
310
EE0AFA030B3CB273954C91D5916E83CC9BEE074FAB1E6B73B11CFB6CBEB73B4C23589D2D05F4CC9AAE2E4C768646F0614DBB4BD40606BDCC4B726A4DF72640A7DD749797013521AB4ED3C5971C1BF2225712D922FD192CAA82F186C253F467B664EED8B163100EA1787299890C1D4314EEF90B040C236113FD72905624B8F0
310
99FF03A92412CEF64B0000
  0
DICTIONARY
  5
1348
330
12FB
100
AcDbDictionary
280
     1
281
     1
  3
ACAD_XREC_ROUNDTRIP
360
1349
  0
DICTIONARY
  5
1346
330
12FA
100
AcDbDictionary
280
     1
281
     1
  3
ACAD_XREC_ROUNDTRIP
360
1347
  0
DICTIONARY
  5
134A
330
12FC
100
AcDbDictionary
280
     1
281
     1
  3
ACAD_XREC_ROUNDTRIP
360
134B
  0
DICTIONARY
  5
131E
330
12E5
100
AcDbDictionary
280
     1
281
     1
  3
ACAD_XREC_ROUNDTRIP
360
131F
  0
DICTIONARY
  5
1324
330
12E8
100
AcDbDictionary
280
     1
281
     1
  3
ACAD_XREC_ROUNDTRIP
360
1325
  0
DICTIONARY
  5
132C
330
12EC
100
AcDbDictionary
280
     1
281
     1
  3
ACAD_XREC_ROUNDTRIP
360
132D
  0
DICTIONARY
  5
1334
330
12F0
100
AcDbDictionary
280
     1
281
     1
  3
ACAD_XREC_ROUNDTRIP
360
1335
  0
DICTIONARY
  5
1328
330
12EA
100
AcDbDictionary
280
     1
281
     1
  3
ACAD_XREC_ROUNDTRIP
360
1329
  0
DICTIONARY
  5
132A
330
12EB
100
AcDbDictionary
280
     1
281
     1
  3
ACAD_XREC_ROUNDTRIP
360
132B
  0
DICTIONARY
  5
133A
330
12F3
100
AcDbDictionary
280
     1
281
     1
  3
ACAD_XREC_ROUNDTRIP
360
133B
  0
DICTIONARY
  5
1332
330
12EF
100
AcDbDictionary
280
     1
281
     1
  3
ACAD_XREC_ROUNDTRIP
360
1333
  0
DICTIONARY
  5
1316
330
12E1
100
AcDbDictionary
280
     1
281
     1
  3
ACAD_XREC_ROUNDTRIP
360
1317
  0
DICTIONARY
  5
1318
330
12E2
100
AcDbDictionary
280
     1
281
     1
  3
ACAD_XREC_ROUNDTRIP
360
1319
  0
DICTIONARY
  5
131A
330
12E3
100
AcDbDictionary
280
     1
281
     1
  3
ACAD_XREC_ROUNDTRIP
360
131B
  0
DICTIONARY
  5
131C
330
12E4
100
AcDbDictionary
280
     1
281
     1
  3
ACAD_XREC_ROUNDTRIP
360
131D
  0
DICTIONARY
  5
1322
330
12E7
100
AcDbDictionary
280
     1
281
     1
  3
ACAD_XREC_ROUNDTRIP
360
1323
  0
DICTIONARY
  5
1336
330
12F1
100
AcDbDictionary
280
     1
281
     1
  3
ACAD_XREC_ROUNDTRIP
360
1337
  0
DICTIONARY
  5
1330
330
12EE
100
AcDbDictionary
280
     1
281
     1
  3
ACAD_XREC_ROUNDTRIP
360
1331
  0
DICTIONARY
  5
1338
330
12F2
100
AcDbDictionary
280
     1
281
     1
  3
ACAD_XREC_ROUNDTRIP
360
1339
  0
DICTIONARY
  5
1326
330
12E9
100
AcDbDictionary
280
     1
281
     1
  3
ACAD_XREC_ROUNDTRIP
360
1327
  0
DICTIONARY
  5
1344
330
12F8
100
AcDbDictionary
280
     1
281
     1
  3
ACAD_XREC_ROUNDTRIP
360
1345
  0
DICTIONARY
  5
1342
330
12F7
100
AcDbDictionary
280
     1
281
     1
  3
ACAD_XREC_ROUNDTRIP
360
1343
  0
DICTIONARY
  5
133C
330
12F4
100
AcDbDictionary
280
     1
281
     1
  3
ACAD_XREC_ROUNDTRIP
360
133D
  0
DICTIONARY
  5
133E
330
12F5
100
AcDbDictionary
280
     1
281
     1
  3
ACAD_XREC_ROUNDTRIP
360
133F
  0
DICTIONARY
  5
132E
330
12ED
100
AcDbDictionary
280
     1
281
     1
  3
ACAD_XREC_ROUNDTRIP
360
132F
  0
DICTIONARY
  5
1320
330
12E6
100
AcDbDictionary
280
     1
281
     1
  3
ACAD_XREC_ROUNDTRIP
360
1321
  0
DICTIONARY
  5
1340
330
12F6
100
AcDbDictionary
280
     1
281
     1
  3
ACAD_XREC_ROUNDTRIP
360
1341
  0
XRECORD
  5
1349
102
{ACAD_REACTORS
330
1348
102
}
330
1348
100
AcDbXrecord
280
     1
102
MATERIAL
148
0.0
149
0.0
149
0.0
 93
        0
 94
      127
282
     0
 72
     1
 77
     1
171
     1
175
     1
179
     1
273
     0
  0
XRECORD
  5
1347
102
{ACAD_REACTORS
330
1346
102
}
330
1346
100
AcDbXrecord
280
     1
102
MATERIAL
148
0.0
149
0.0
149
0.0
 93
        0
 94
      127
282
     0
 72
     1
 77
     1
171
     1
175
     1
179
     1
273
     0
  0
XRECORD
  5
134B
102
{ACAD_REACTORS
330
134A
102
}
330
134A
100
AcDbXrecord
280
     1
102
MATERIAL
148
0.0
149
0.0
149
0.0
 93
        0
 94
      127
282
     0
 72
     1
 77
     1
171
     1
175
     1
179
     1
273
     0
  0
XRECORD
  5
131F
102
{ACAD_REACTORS
330
131E
102
}
330
131E
100
AcDbXrecord
280
     1
102
RTVSPropertyOp0
 70
     1
102
RTVSPropertyOp1
 70
     1
102
RTVSPropertyOp2
 70
     1
102
RTVSPropertyOp3
 70
     1
102
RTVSPropertyOp4
 70
     1
102
RTVSPropertyOp5
 70
     1
102
RTVSPropertyOp6
 70
     1
102
RTVSPropertyOp7
 70
     1
102
RTVSPropertyOp8
 70
     1
102
RTVSPropertyOp9
 70
     1
102
RTVSPropertyOp10
 70
     1
102
RTVSPropertyOp11
 70
     1
102
RTVSPropertyOp12
 70
     1
102
RTVSPropertyOp13
 70
     1
102
RTVSPropertyOp14
 70
     1
102
RTVSPropertyOp15
 70
     1
102
RTVSPropertyOp16
 70
     1
102
RTVSPropertyOp17
 70
     1
102
RTVSPropertyOp18
 70
     1
102
RTVSPropertyOp19
 70
     1
102
RTVSPropertyOp20
 70
     1
102
RTVSPropertyOp21
 70
     1
102
RTVSPropertyOp22
 70
     1
102
RTVSPropertyOp23
 70
     1
102
RTVSPropertyOp24
 70
     1
102
RTVSPropertyOp25
 70
     1
102
RTVSPropertyOp26
 70
     1
102
RTVSPropertyOp27
 70
     1
102
RTVSPropertyOp28
 70
     1
102
RTVSPropertyOp29
 70
     1
102
RTVSPropertyOp30
 70
     1
102
RTVSPropertyOp31
 70
     1
102
RTVSPropertyOp32
 70
     1
102
RTVSPropertyOp33
 70
     1
102
RTVSPropertyOp34
 70
     1
102
RTVSPropertyOp35
 70
     1
102
RTVSPropertyOp36
 70
     1
102
RTVSPropertyOp37
 70
     1
102
RTVSPropertyOp38
 70
     1
102
RTVSPropertyOp39
 70
     1
102
RTVSPropertyOp40
 70
     1
102
RTVSPropertyOp41
 70
     1
102
RTVSPropertyOp42
 70
     1
102
RTVSPropertyOp43
 70
     1
102
RTVSPropertyOp44
 70
     1
102
RTVSPropertyOp45
 70
     1
102
RTVSPropertyOp46
 70
     1
102
RTVSPropertyOp47
 70
     1
102
RTVSPropertyOp48
 70
     1
102
RTVSPropertyOp49
 70
     1
102
RTVSPropertyOp50
 70
     1
102
RTVSPropertyOp51
 70
     0
102
RTVSPropertyOp52
 70
     0
102
RTVSPropertyOp53
 70
     1
102
RTVSPropertyOp54
 70
     1
102
RTVSPropertyOp55
 70
     1
102
RTVSPropertyOp56
 70
     1
102
RTVSPropertyOp57
 70
     1
102
RTVSPost2010Prop28
280
     1
102
RTVSPost2010PropOp28
 70
     1
102
RTVSPost2010Prop29
280
     1
102
RTVSPost2010PropOp29
 70
     1
102
RTVSPost2010Prop30
280
     0
102
RTVSPost2010PropOp30
 70
     1
102
RTVSPost2010Prop31
280
     0
102
RTVSPost2010PropOp31
 70
     1
102
RTVSPost2010Prop32
280
     0
102
RTVSPost2010PropOp32
 70
     1
102
RTVSPost2010Prop33
280
     0
102
RTVSPost2010PropOp33
 70
     1
102
RTVSPost2010Prop34
280
     0
102
RTVSPost2010PropOp34
 70
     1
102
RTVSPost2010Prop35
280
     0
102
RTVSPost2010PropOp35
 70
     1
102
RTVSPost2010Prop36
280
     0
102
RTVSPost2010PropOp36
 70
     1
102
RTVSPost2010Prop37
 90
       50
102
RTVSPost2010PropOp37
 70
     1
102
RTVSPost2010Prop38
140
0.0
102
RTVSPost2010PropOp38
 70
     1
102
RTVSPost2010Prop39
140
1.0
102
RTVSPost2010PropOp39
 70
     1
102
RTVSPost2010Prop40
 90
        0
102
RTVSPost2010PropOp40
 70
     1
102
RTVSPost2010Prop41ColorIndex
 90
       18
102
RTVSPost2010Prop41ColorRGB
 90
        0
102
RTVSPost2010PropOp41
 70
     1
102
RTVSPost2010Prop42
 90
       50
102
RTVSPost2010PropOp42
 70
     1
102
RTVSPost2010Prop43
 90
        3
102
RTVSPost2010PropOp43
 70
     1
102
RTVSPost2010Prop44ColorIndex
 90
        5
102
RTVSPost2010Prop44ColorRGB
 90
      255
102
RTVSPost2010PropOp44
 70
     1
102
RTVSPost2010Prop45
280
     0
102
RTVSPost2010PropOp45
 70
     1
102
RTVSPost2010Prop46
 90
       50
102
RTVSPost2010PropOp46
 70
     1
102
RTVSPost2010Prop47
 90
       50
102
RTVSPost2010PropOp47
 70
     1
102
RTVSPost2010Prop48
 90
       50
102
RTVSPost2010PropOp48
 70
     1
102
RTVSPost2010Prop49
280
     0
102
RTVSPost2010PropOp49
 70
     1
102
RTVSPost2010Prop50
 90
       50
102
RTVSPost2010PropOp50
 70
     1
102
RTVSPost2010Prop51ColorIndex
 90
      256
102
RTVSPost2010Prop51ColorRGB
 90
-16777216
102
RTVSPost2010PropOp51
 70
     0
102
RTVSPost2010Prop52
140
1.0
102
RTVSPost2010PropOp52
 70
     0
102
RTVSPost2010Prop53
 90
        2
102
RTVSPost2010PropOp53
 70
     1
102
RTVSPost2010Prop54
  1
strokes_ogs.tif
102
RTVSPost2010PropOp54
 70
     1
102
RTVSPost2010Prop55
280
     0
102
RTVSPost2010PropOp55
 70
     1
102
RTVSPost2010Prop56
140
1.0
102
RTVSPost2010PropOp56
 70
     1
102
RTVSPost2010Prop57
140
1.0
102
RTVSPost2010PropOp57
 70
     1
  0
XRECORD
  5
1325
102
{ACAD_REACTORS
330
1324
102
}
330
1324
100
AcDbXrecord
280
     1
102
RTVSPropertyOp0
 70
     1
102
RTVSPropertyOp1
 70
     1
102
RTVSPropertyOp2
 70
     1
102
RTVSPropertyOp3
 70
     1
102
RTVSPropertyOp4
 70
     1
102
RTVSPropertyOp5
 70
     1
102
RTVSPropertyOp6
 70
     1
102
RTVSPropertyOp7
 70
     1
102
RTVSPropertyOp8
 70
     1
102
RTVSPropertyOp9
 70
     1
102
RTVSPropertyOp10
 70
     1
102
RTVSPropertyOp11
 70
     1
102
RTVSPropertyOp12
 70
     1
102
RTVSPropertyOp13
 70
     1
102
RTVSPropertyOp14
 70
     1
102
RTVSPropertyOp15
 70
     1
102
RTVSPropertyOp16
 70
     1
102
RTVSPropertyOp17
 70
     1
102
RTVSPropertyOp18
 70
     1
102
RTVSPropertyOp19
 70
     1
102
RTVSPropertyOp20
 70
     1
102
RTVSPropertyOp21
 70
     1
102
RTVSPropertyOp22
 70
     1
102
RTVSPropertyOp23
 70
     1
102
RTVSPropertyOp24
 70
     1
102
RTVSPropertyOp25
 70
     1
102
RTVSPropertyOp26
 70
     1
102
RTVSPropertyOp27
 70
     1
102
RTVSPropertyOp28
 70
     1
102
RTVSPropertyOp29
 70
     1
102
RTVSPropertyOp30
 70
     1
102
RTVSPropertyOp31
 70
     1
102
RTVSPropertyOp32
 70
     1
102
RTVSPropertyOp33
 70
     1
102
RTVSPropertyOp34
 70
     1
102
RTVSPropertyOp35
 70
     1
102
RTVSPropertyOp36
 70
     1
102
RTVSPropertyOp37
 70
     1
102
RTVSPropertyOp38
 70
     1
102
RTVSPropertyOp39
 70
     1
102
RTVSPropertyOp40
 70
     1
102
RTVSPropertyOp41
 70
     1
102
RTVSPropertyOp42
 70
     1
102
RTVSPropertyOp43
 70
     1
102
RTVSPropertyOp44
 70
     1
102
RTVSPropertyOp45
 70
     1
102
RTVSPropertyOp46
 70
     1
102
RTVSPropertyOp47
 70
     1
102
RTVSPropertyOp48
 70
     1
102
RTVSPropertyOp49
 70
     1
102
RTVSPropertyOp50
 70
     1
102
RTVSPropertyOp51
 70
     0
102
RTVSPropertyOp52
 70
     0
102
RTVSPropertyOp53
 70
     1
102
RTVSPropertyOp54
 70
     1
102
RTVSPropertyOp55
 70
     1
102
RTVSPropertyOp56
 70
     1
102
RTVSPropertyOp57
 70
     1
102
RTVSPost2010Prop28
280
     0
102
RTVSPost2010PropOp28
 70
     1
102
RTVSPost2010Prop29
280
     1
102
RTVSPost2010PropOp29
 70
     1
102
RTVSPost2010Prop30
280
     1
102
RTVSPost2010PropOp30
 70
     1
102
RTVSPost2010Prop31
280
     0
102
RTVSPost2010PropOp31
 70
     1
102
RTVSPost2010Prop32
280
     0
102
RTVSPost2010PropOp32
 70
     1
102
RTVSPost2010Prop33
280
     0
102
RTVSPost2010PropOp33
 70
     1
102
RTVSPost2010Prop34
280
     0
102
RTVSPost2010PropOp34
 70
     1
102
RTVSPost2010Prop35
280
     0
102
RTVSPost2010PropOp35
 70
     1
102
RTVSPost2010Prop36
280
     0
102
RTVSPost2010PropOp36
 70
     1
102
RTVSPost2010Prop37
 90
       50
102
RTVSPost2010PropOp37
 70
     1
102
RTVSPost2010Prop38
140
0.0
102
RTVSPost2010PropOp38
 70
     1
102
RTVSPost2010Prop39
140
1.0
102
RTVSPost2010PropOp39
 70
     1
102
RTVSPost2010Prop40
 90
        0
102
RTVSPost2010PropOp40
 70
     1
102
RTVSPost2010Prop41ColorIndex
 90
       18
102
RTVSPost2010Prop41ColorRGB
 90
        0
102
RTVSPost2010PropOp41
 70
     1
102
RTVSPost2010Prop42
 90
       50
102
RTVSPost2010PropOp42
 70
     1
102
RTVSPost2010Prop43
 90
        3
102
RTVSPost2010PropOp43
 70
     1
102
RTVSPost2010Prop44ColorIndex
 90
        5
102
RTVSPost2010Prop44ColorRGB
 90
      255
102
RTVSPost2010PropOp44
 70
     1
102
RTVSPost2010Prop45
280
     0
102
RTVSPost2010PropOp45
 70
     1
102
RTVSPost2010Prop46
 90
       50
102
RTVSPost2010PropOp46
 70
     1
102
RTVSPost2010Prop47
 90
       50
102
RTVSPost2010PropOp47
 70
     1
102
RTVSPost2010Prop48
 90
       50
102
RTVSPost2010PropOp48
 70
     1
102
RTVSPost2010Prop49
280
     0
102
RTVSPost2010PropOp49
 70
     1
102
RTVSPost2010Prop50
 90
       50
102
RTVSPost2010PropOp50
 70
     1
102
RTVSPost2010Prop51ColorIndex
 90
      256
102
RTVSPost2010Prop51ColorRGB
 90
-16777216
102
RTVSPost2010PropOp51
 70
     0
102
RTVSPost2010Prop52
140
1.0
102
RTVSPost2010PropOp52
 70
     0
102
RTVSPost2010Prop53
 90
        2
102
RTVSPost2010PropOp53
 70
     1
102
RTVSPost2010Prop54
  1
strokes_ogs.tif
102
RTVSPost2010PropOp54
 70
     1
102
RTVSPost2010Prop55
280
     0
102
RTVSPost2010PropOp55
 70
     1
102
RTVSPost2010Prop56
140
1.0
102
RTVSPost2010PropOp56
 70
     1
102
RTVSPost2010Prop57
140
1.0
102
RTVSPost2010PropOp57
 70
     1
  0
XRECORD
  5
132D
102
{ACAD_REACTORS
330
132C
102
}
330
132C
100
AcDbXrecord
280
     1
102
RTVSPropertyOp0
 70
     1
102
RTVSPropertyOp1
 70
     1
102
RTVSPropertyOp2
 70
     1
102
RTVSPropertyOp3
 70
     1
102
RTVSPropertyOp4
 70
     1
102
RTVSPropertyOp5
 70
     1
102
RTVSPropertyOp6
 70
     1
102
RTVSPropertyOp7
 70
     1
102
RTVSPropertyOp8
 70
     1
102
RTVSPropertyOp9
 70
     1
102
RTVSPropertyOp10
 70
     1
102
RTVSPropertyOp11
 70
     1
102
RTVSPropertyOp12
 70
     1
102
RTVSPropertyOp13
 70
     1
102
RTVSPropertyOp14
 70
     1
102
RTVSPropertyOp15
 70
     1
102
RTVSPropertyOp16
 70
     1
102
RTVSPropertyOp17
 70
     1
102
RTVSPropertyOp18
 70
     1
102
RTVSPropertyOp19
 70
     1
102
RTVSPropertyOp20
 70
     1
102
RTVSPropertyOp21
 70
     1
102
RTVSPropertyOp22
 70
     1
102
RTVSPropertyOp23
 70
     1
102
RTVSPropertyOp24
 70
     1
102
RTVSPropertyOp25
 70
     1
102
RTVSPropertyOp26
 70
     1
102
RTVSPropertyOp27
 70
     1
102
RTVSPropertyOp28
 70
     1
102
RTVSPropertyOp29
 70
     1
102
RTVSPropertyOp30
 70
     1
102
RTVSPropertyOp31
 70
     1
102
RTVSPropertyOp32
 70
     1
102
RTVSPropertyOp33
 70
     1
102
RTVSPropertyOp34
 70
     1
102
RTVSPropertyOp35
 70
     1
102
RTVSPropertyOp36
 70
     1
102
RTVSPropertyOp37
 70
     1
102
RTVSPropertyOp38
 70
     1
102
RTVSPropertyOp39
 70
     1
102
RTVSPropertyOp40
 70
     1
102
RTVSPropertyOp41
 70
     1
102
RTVSPropertyOp42
 70
     1
102
RTVSPropertyOp43
 70
     1
102
RTVSPropertyOp44
 70
     1
102
RTVSPropertyOp45
 70
     1
102
RTVSPropertyOp46
 70
     1
102
RTVSPropertyOp47
 70
     1
102
RTVSPropertyOp48
 70
     1
102
RTVSPropertyOp49
 70
     1
102
RTVSPropertyOp50
 70
     1
102
RTVSPropertyOp51
 70
     0
102
RTVSPropertyOp52
 70
     0
102
RTVSPropertyOp53
 70
     1
102
RTVSPropertyOp54
 70
     1
102
RTVSPropertyOp55
 70
     1
102
RTVSPropertyOp56
 70
     1
102
RTVSPropertyOp57
 70
     1
102
RTVSPost2010Prop28
280
     0
102
RTVSPost2010PropOp28
 70
     1
102
RTVSPost2010Prop29
280
     1
102
RTVSPost2010PropOp29
 70
     1
102
RTVSPost2010Prop30
280
     1
102
RTVSPost2010PropOp30
 70
     1
102
RTVSPost2010Prop31
280
     0
102
RTVSPost2010PropOp31
 70
     1
102
RTVSPost2010Prop32
280
     0
102
RTVSPost2010PropOp32
 70
     1
102
RTVSPost2010Prop33
280
     0
102
RTVSPost2010PropOp33
 70
     1
102
RTVSPost2010Prop34
280
     0
102
RTVSPost2010PropOp34
 70
     1
102
RTVSPost2010Prop35
280
     0
102
RTVSPost2010PropOp35
 70
     1
102
RTVSPost2010Prop36
280
     0
102
RTVSPost2010PropOp36
 70
     1
102
RTVSPost2010Prop37
 90
       50
102
RTVSPost2010PropOp37
 70
     1
102
RTVSPost2010Prop38
140
0.0
102
RTVSPost2010PropOp38
 70
     1
102
RTVSPost2010Prop39
140
1.0
102
RTVSPost2010PropOp39
 70
     1
102
RTVSPost2010Prop40
 90
        0
102
RTVSPost2010PropOp40
 70
     1
102
RTVSPost2010Prop41ColorIndex
 90
       18
102
RTVSPost2010Prop41ColorRGB
 90
        0
102
RTVSPost2010PropOp41
 70
     1
102
RTVSPost2010Prop42
 90
       50
102
RTVSPost2010PropOp42
 70
     1
102
RTVSPost2010Prop43
 90
        3
102
RTVSPost2010PropOp43
 70
     1
102
RTVSPost2010Prop44ColorIndex
 90
        5
102
RTVSPost2010Prop44ColorRGB
 90
      255
102
RTVSPost2010PropOp44
 70
     1
102
RTVSPost2010Prop45
280
     0
102
RTVSPost2010PropOp45
 70
     1
102
RTVSPost2010Prop46
 90
       50
102
RTVSPost2010PropOp46
 70
     1
102
RTVSPost2010Prop47
 90
       50
102
RTVSPost2010PropOp47
 70
     1
102
RTVSPost2010Prop48
 90
       50
102
RTVSPost2010PropOp48
 70
     1
102
RTVSPost2010Prop49
280
     0
102
RTVSPost2010PropOp49
 70
     1
102
RTVSPost2010Prop50
 90
       50
102
RTVSPost2010PropOp50
 70
     1
102
RTVSPost2010Prop51ColorIndex
 90
      256
102
RTVSPost2010Prop51ColorRGB
 90
-16777216
102
RTVSPost2010PropOp51
 70
     0
102
RTVSPost2010Prop52
140
1.0
102
RTVSPost2010PropOp52
 70
     0
102
RTVSPost2010Prop53
 90
        2
102
RTVSPost2010PropOp53
 70
     1
102
RTVSPost2010Prop54
  1
strokes_ogs.tif
102
RTVSPost2010PropOp54
 70
     1
102
RTVSPost2010Prop55
280
     0
102
RTVSPost2010PropOp55
 70
     1
102
RTVSPost2010Prop56
140
1.0
102
RTVSPost2010PropOp56
 70
     1
102
RTVSPost2010Prop57
140
1.0
102
RTVSPost2010PropOp57
 70
     1
  0
XRECORD
  5
1335
102
{ACAD_REACTORS
330
1334
102
}
330
1334
100
AcDbXrecord
280
     1
102
RTVSPropertyOp0
 70
     1
102
RTVSPropertyOp1
 70
     1
102
RTVSPropertyOp2
 70
     1
102
RTVSPropertyOp3
 70
     1
102
RTVSPropertyOp4
 70
     1
102
RTVSPropertyOp5
 70
     1
102
RTVSPropertyOp6
 70
     1
102
RTVSPropertyOp7
 70
     1
102
RTVSPropertyOp8
 70
     1
102
RTVSPropertyOp9
 70
     1
102
RTVSPropertyOp10
 70
     1
102
RTVSPropertyOp11
 70
     1
102
RTVSPropertyOp12
 70
     1
102
RTVSPropertyOp13
 70
     1
102
RTVSPropertyOp14
 70
     1
102
RTVSPropertyOp15
 70
     1
102
RTVSPropertyOp16
 70
     1
102
RTVSPropertyOp17
 70
     1
102
RTVSPropertyOp18
 70
     1
102
RTVSPropertyOp19
 70
     1
102
RTVSPropertyOp20
 70
     1
102
RTVSPropertyOp21
 70
     1
102
RTVSPropertyOp22
 70
     1
102
RTVSPropertyOp23
 70
     1
102
RTVSPropertyOp24
 70
     1
102
RTVSPropertyOp25
 70
     1
102
RTVSPropertyOp26
 70
     1
102
RTVSPropertyOp27
 70
     1
102
RTVSPropertyOp28
 70
     1
102
RTVSPropertyOp29
 70
     1
102
RTVSPropertyOp30
 70
     1
102
RTVSPropertyOp31
 70
     1
102
RTVSPropertyOp32
 70
     1
102
RTVSPropertyOp33
 70
     1
102
RTVSPropertyOp34
 70
     1
102
RTVSPropertyOp35
 70
     1
102
RTVSPropertyOp36
 70
     1
102
RTVSPropertyOp37
 70
     1
102
RTVSPropertyOp38
 70
     1
102
RTVSPropertyOp39
 70
     1
102
RTVSPropertyOp40
 70
     1
102
RTVSPropertyOp41
 70
     1
102
RTVSPropertyOp42
 70
     1
102
RTVSPropertyOp43
 70
     1
102
RTVSPropertyOp44
 70
     1
102
RTVSPropertyOp45
 70
     1
102
RTVSPropertyOp46
 70
     1
102
RTVSPropertyOp47
 70
     1
102
RTVSPropertyOp48
 70
     1
102
RTVSPropertyOp49
 70
     1
102
RTVSPropertyOp50
 70
     1
102
RTVSPropertyOp51
 70
     0
102
RTVSPropertyOp52
 70
     0
102
RTVSPropertyOp53
 70
     1
102
RTVSPropertyOp54
 70
     1
102
RTVSPropertyOp55
 70
     1
102
RTVSPropertyOp56
 70
     1
102
RTVSPropertyOp57
 70
     1
102
RTVSPost2010Prop28
280
     0
102
RTVSPost2010PropOp28
 70
     1
102
RTVSPost2010Prop29
280
     1
102
RTVSPost2010PropOp29
 70
     1
102
RTVSPost2010Prop30
280
     1
102
RTVSPost2010PropOp30
 70
     1
102
RTVSPost2010Prop31
280
     0
102
RTVSPost2010PropOp31
 70
     1
102
RTVSPost2010Prop32
280
     0
102
RTVSPost2010PropOp32
 70
     1
102
RTVSPost2010Prop33
280
     0
102
RTVSPost2010PropOp33
 70
     1
102
RTVSPost2010Prop34
280
     0
102
RTVSPost2010PropOp34
 70
     1
102
RTVSPost2010Prop35
280
     0
102
RTVSPost2010PropOp35
 70
     1
102
RTVSPost2010Prop36
280
     0
102
RTVSPost2010PropOp36
 70
     1
102
RTVSPost2010Prop37
 90
       50
102
RTVSPost2010PropOp37
 70
     1
102
RTVSPost2010Prop38
140
0.0
102
RTVSPost2010PropOp38
 70
     1
102
RTVSPost2010Prop39
140
1.0
102
RTVSPost2010PropOp39
 70
     1
102
RTVSPost2010Prop40
 90
        0
102
RTVSPost2010PropOp40
 70
     1
102
RTVSPost2010Prop41ColorIndex
 90
       18
102
RTVSPost2010Prop41ColorRGB
 90
        0
102
RTVSPost2010PropOp41
 70
     1
102
RTVSPost2010Prop42
 90
       50
102
RTVSPost2010PropOp42
 70
     1
102
RTVSPost2010Prop43
 90
        3
102
RTVSPost2010PropOp43
 70
     1
102
RTVSPost2010Prop44ColorIndex
 90
        5
102
RTVSPost2010Prop44ColorRGB
 90
      255
102
RTVSPost2010PropOp44
 70
     1
102
RTVSPost2010Prop45
280
     0
102
RTVSPost2010PropOp45
 70
     1
102
RTVSPost2010Prop46
 90
       50
102
RTVSPost2010PropOp46
 70
     1
102
RTVSPost2010Prop47
 90
       50
102
RTVSPost2010PropOp47
 70
     1
102
RTVSPost2010Prop48
 90
       50
102
RTVSPost2010PropOp48
 70
     1
102
RTVSPost2010Prop49
280
     0
102
RTVSPost2010PropOp49
 70
     1
102
RTVSPost2010Prop50
 90
       50
102
RTVSPost2010PropOp50
 70
     1
102
RTVSPost2010Prop51ColorIndex
 90
      256
102
RTVSPost2010Prop51ColorRGB
 90
-16777216
102
RTVSPost2010PropOp51
 70
     0
102
RTVSPost2010Prop52
140
1.0
102
RTVSPost2010PropOp52
 70
     0
102
RTVSPost2010Prop53
 90
        2
102
RTVSPost2010PropOp53
 70
     1
102
RTVSPost2010Prop54
  1
strokes_ogs.tif
102
RTVSPost2010PropOp54
 70
     1
102
RTVSPost2010Prop55
280
     0
102
RTVSPost2010PropOp55
 70
     1
102
RTVSPost2010Prop56
140
1.0
102
RTVSPost2010PropOp56
 70
     1
102
RTVSPost2010Prop57
140
1.0
102
RTVSPost2010PropOp57
 70
     1
  0
XRECORD
  5
1329
102
{ACAD_REACTORS
330
1328
102
}
330
1328
100
AcDbXrecord
280
     1
102
RTVSPropertyOp0
 70
     1
102
RTVSPropertyOp1
 70
     1
102
RTVSPropertyOp2
 70
     1
102
RTVSPropertyOp3
 70
     1
102
RTVSPropertyOp4
 70
     1
102
RTVSPropertyOp5
 70
     1
102
RTVSPropertyOp6
 70
     1
102
RTVSPropertyOp7
 70
     1
102
RTVSPropertyOp8
 70
     1
102
RTVSPropertyOp9
 70
     1
102
RTVSPropertyOp10
 70
     1
102
RTVSPropertyOp11
 70
     1
102
RTVSPropertyOp12
 70
     1
102
RTVSPropertyOp13
 70
     1
102
RTVSPropertyOp14
 70
     1
102
RTVSPropertyOp15
 70
     1
102
RTVSPropertyOp16
 70
     1
102
RTVSPropertyOp17
 70
     1
102
RTVSPropertyOp18
 70
     1
102
RTVSPropertyOp19
 70
     1
102
RTVSPropertyOp20
 70
     1
102
RTVSPropertyOp21
 70
     1
102
RTVSPropertyOp22
 70
     1
102
RTVSPropertyOp23
 70
     1
102
RTVSPropertyOp24
 70
     1
102
RTVSPropertyOp25
 70
     1
102
RTVSPropertyOp26
 70
     1
102
RTVSPropertyOp27
 70
     1
102
RTVSPropertyOp28
 70
     1
102
RTVSPropertyOp29
 70
     1
102
RTVSPropertyOp30
 70
     1
102
RTVSPropertyOp31
 70
     1
102
RTVSPropertyOp32
 70
     1
102
RTVSPropertyOp33
 70
     1
102
RTVSPropertyOp34
 70
     1
102
RTVSPropertyOp35
 70
     1
102
RTVSPropertyOp36
 70
     1
102
RTVSPropertyOp37
 70
     1
102
RTVSPropertyOp38
 70
     1
102
RTVSPropertyOp39
 70
     1
102
RTVSPropertyOp40
 70
     1
102
RTVSPropertyOp41
 70
     1
102
RTVSPropertyOp42
 70
     1
102
RTVSPropertyOp43
 70
     1
102
RTVSPropertyOp44
 70
     1
102
RTVSPropertyOp45
 70
     1
102
RTVSPropertyOp46
 70
     1
102
RTVSPropertyOp47
 70
     1
102
RTVSPropertyOp48
 70
     1
102
RTVSPropertyOp49
 70
     1
102
RTVSPropertyOp50
 70
     1
102
RTVSPropertyOp51
 70
     0
102
RTVSPropertyOp52
 70
     0
102
RTVSPropertyOp53
 70
     1
102
RTVSPropertyOp54
 70
     1
102
RTVSPropertyOp55
 70
     1
102
RTVSPropertyOp56
 70
     1
102
RTVSPropertyOp57
 70
     1
102
RTVSPost2010Prop28
280
     0
102
RTVSPost2010PropOp28
 70
     1
102
RTVSPost2010Prop29
280
     1
102
RTVSPost2010PropOp29
 70
     1
102
RTVSPost2010Prop30
280
     1
102
RTVSPost2010PropOp30
 70
     1
102
RTVSPost2010Prop31
280
     0
102
RTVSPost2010PropOp31
 70
     1
102
RTVSPost2010Prop32
280
     0
102
RTVSPost2010PropOp32
 70
     1
102
RTVSPost2010Prop33
280
     0
102
RTVSPost2010PropOp33
 70
     1
102
RTVSPost2010Prop34
280
     0
102
RTVSPost2010PropOp34
 70
     1
102
RTVSPost2010Prop35
280
     0
102
RTVSPost2010PropOp35
 70
     1
102
RTVSPost2010Prop36
280
     0
102
RTVSPost2010PropOp36
 70
     1
102
RTVSPost2010Prop37
 90
       50
102
RTVSPost2010PropOp37
 70
     1
102
RTVSPost2010Prop38
140
0.0
102
RTVSPost2010PropOp38
 70
     1
102
RTVSPost2010Prop39
140
1.0
102
RTVSPost2010PropOp39
 70
     1
102
RTVSPost2010Prop40
 90
        0
102
RTVSPost2010PropOp40
 70
     1
102
RTVSPost2010Prop41ColorIndex
 90
       18
102
RTVSPost2010Prop41ColorRGB
 90
        0
102
RTVSPost2010PropOp41
 70
     1
102
RTVSPost2010Prop42
 90
       50
102
RTVSPost2010PropOp42
 70
     1
102
RTVSPost2010Prop43
 90
        3
102
RTVSPost2010PropOp43
 70
     1
102
RTVSPost2010Prop44ColorIndex
 90
        5
102
RTVSPost2010Prop44ColorRGB
 90
      255
102
RTVSPost2010PropOp44
 70
     1
102
RTVSPost2010Prop45
280
     0
102
RTVSPost2010PropOp45
 70
     1
102
RTVSPost2010Prop46
 90
       50
102
RTVSPost2010PropOp46
 70
     1
102
RTVSPost2010Prop47
 90
       50
102
RTVSPost2010PropOp47
 70
     1
102
RTVSPost2010Prop48
 90
       50
102
RTVSPost2010PropOp48
 70
     1
102
RTVSPost2010Prop49
280
     0
102
RTVSPost2010PropOp49
 70
     1
102
RTVSPost2010Prop50
 90
       50
102
RTVSPost2010PropOp50
 70
     1
102
RTVSPost2010Prop51ColorIndex
 90
      256
102
RTVSPost2010Prop51ColorRGB
 90
-16777216
102
RTVSPost2010PropOp51
 70
     0
102
RTVSPost2010Prop52
140
1.0
102
RTVSPost2010PropOp52
 70
     0
102
RTVSPost2010Prop53
 90
        2
102
RTVSPost2010PropOp53
 70
     1
102
RTVSPost2010Prop54
  1
strokes_ogs.tif
102
RTVSPost2010PropOp54
 70
     1
102
RTVSPost2010Prop55
280
     0
102
RTVSPost2010PropOp55
 70
     1
102
RTVSPost2010Prop56
140
1.0
102
RTVSPost2010PropOp56
 70
     1
102
RTVSPost2010Prop57
140
1.0
102
RTVSPost2010PropOp57
 70
     1
  0
XRECORD
  5
132B
102
{ACAD_REACTORS
330
132A
102
}
330
132A
100
AcDbXrecord
280
     1
102
RTVSPropertyOp0
 70
     1
102
RTVSPropertyOp1
 70
     1
102
RTVSPropertyOp2
 70
     1
102
RTVSPropertyOp3
 70
     1
102
RTVSPropertyOp4
 70
     1
102
RTVSPropertyOp5
 70
     1
102
RTVSPropertyOp6
 70
     1
102
RTVSPropertyOp7
 70
     1
102
RTVSPropertyOp8
 70
     1
102
RTVSPropertyOp9
 70
     1
102
RTVSPropertyOp10
 70
     1
102
RTVSPropertyOp11
 70
     1
102
RTVSPropertyOp12
 70
     1
102
RTVSPropertyOp13
 70
     1
102
RTVSPropertyOp14
 70
     1
102
RTVSPropertyOp15
 70
     1
102
RTVSPropertyOp16
 70
     1
102
RTVSPropertyOp17
 70
     1
102
RTVSPropertyOp18
 70
     1
102
RTVSPropertyOp19
 70
     1
102
RTVSPropertyOp20
 70
     1
102
RTVSPropertyOp21
 70
     1
102
RTVSPropertyOp22
 70
     1
102
RTVSPropertyOp23
 70
     1
102
RTVSPropertyOp24
 70
     1
102
RTVSPropertyOp25
 70
     1
102
RTVSPropertyOp26
 70
     1
102
RTVSPropertyOp27
 70
     1
102
RTVSPropertyOp28
 70
     1
102
RTVSPropertyOp29
 70
     1
102
RTVSPropertyOp30
 70
     1
102
RTVSPropertyOp31
 70
     1
102
RTVSPropertyOp32
 70
     1
102
RTVSPropertyOp33
 70
     1
102
RTVSPropertyOp34
 70
     1
102
RTVSPropertyOp35
 70
     1
102
RTVSPropertyOp36
 70
     1
102
RTVSPropertyOp37
 70
     1
102
RTVSPropertyOp38
 70
     1
102
RTVSPropertyOp39
 70
     1
102
RTVSPropertyOp40
 70
     1
102
RTVSPropertyOp41
 70
     1
102
RTVSPropertyOp42
 70
     1
102
RTVSPropertyOp43
 70
     1
102
RTVSPropertyOp44
 70
     1
102
RTVSPropertyOp45
 70
     1
102
RTVSPropertyOp46
 70
     1
102
RTVSPropertyOp47
 70
     1
102
RTVSPropertyOp48
 70
     1
102
RTVSPropertyOp49
 70
     1
102
RTVSPropertyOp50
 70
     1
102
RTVSPropertyOp51
 70
     0
102
RTVSPropertyOp52
 70
     0
102
RTVSPropertyOp53
 70
     1
102
RTVSPropertyOp54
 70
     1
102
RTVSPropertyOp55
 70
     1
102
RTVSPropertyOp56
 70
     1
102
RTVSPropertyOp57
 70
     1
102
RTVSPost2010Prop28
280
     0
102
RTVSPost2010PropOp28
 70
     1
102
RTVSPost2010Prop29
280
     1
102
RTVSPost2010PropOp29
 70
     1
102
RTVSPost2010Prop30
280
     1
102
RTVSPost2010PropOp30
 70
     1
102
RTVSPost2010Prop31
280
     0
102
RTVSPost2010PropOp31
 70
     1
102
RTVSPost2010Prop32
280
     0
102
RTVSPost2010PropOp32
 70
     1
102
RTVSPost2010Prop33
280
     0
102
RTVSPost2010PropOp33
 70
     1
102
RTVSPost2010Prop34
280
     0
102
RTVSPost2010PropOp34
 70
     1
102
RTVSPost2010Prop35
280
     0
102
RTVSPost2010PropOp35
 70
     1
102
RTVSPost2010Prop36
280
     0
102
RTVSPost2010PropOp36
 70
     1
102
RTVSPost2010Prop37
 90
       50
102
RTVSPost2010PropOp37
 70
     1
102
RTVSPost2010Prop38
140
0.0
102
RTVSPost2010PropOp38
 70
     1
102
RTVSPost2010Prop39
140
1.0
102
RTVSPost2010PropOp39
 70
     1
102
RTVSPost2010Prop40
 90
        0
102
RTVSPost2010PropOp40
 70
     1
102
RTVSPost2010Prop41ColorIndex
 90
       18
102
RTVSPost2010Prop41ColorRGB
 90
        0
102
RTVSPost2010PropOp41
 70
     1
102
RTVSPost2010Prop42
 90
       50
102
RTVSPost2010PropOp42
 70
     1
102
RTVSPost2010Prop43
 90
        3
102
RTVSPost2010PropOp43
 70
     1
102
RTVSPost2010Prop44ColorIndex
 90
        5
102
RTVSPost2010Prop44ColorRGB
 90
      255
102
RTVSPost2010PropOp44
 70
     1
102
RTVSPost2010Prop45
280
     0
102
RTVSPost2010PropOp45
 70
     1
102
RTVSPost2010Prop46
 90
       50
102
RTVSPost2010PropOp46
 70
     1
102
RTVSPost2010Prop47
 90
       50
102
RTVSPost2010PropOp47
 70
     1
102
RTVSPost2010Prop48
 90
       50
102
RTVSPost2010PropOp48
 70
     1
102
RTVSPost2010Prop49
280
     0
102
RTVSPost2010PropOp49
 70
     1
102
RTVSPost2010Prop50
 90
       50
102
RTVSPost2010PropOp50
 70
     1
102
RTVSPost2010Prop51ColorIndex
 90
      256
102
RTVSPost2010Prop51ColorRGB
 90
-16777216
102
RTVSPost2010PropOp51
 70
     0
102
RTVSPost2010Prop52
140
1.0
102
RTVSPost2010PropOp52
 70
     0
102
RTVSPost2010Prop53
 90
        2
102
RTVSPost2010PropOp53
 70
     1
102
RTVSPost2010Prop54
  1
strokes_ogs.tif
102
RTVSPost2010PropOp54
 70
     1
102
RTVSPost2010Prop55
280
     0
102
RTVSPost2010PropOp55
 70
     1
102
RTVSPost2010Prop56
140
1.0
102
RTVSPost2010PropOp56
 70
     1
102
RTVSPost2010Prop57
140
1.0
102
RTVSPost2010PropOp57
 70
     1
  0
XRECORD
  5
133B
102
{ACAD_REACTORS
330
133A
102
}
330
133A
100
AcDbXrecord
280
     1
102
RTVSPropertyOp0
 70
     0
102
RTVSPropertyOp1
 70
     0
102
RTVSPropertyOp2
 70
     0
102
RTVSPropertyOp3
 70
     0
102
RTVSPropertyOp4
 70
     0
102
RTVSPropertyOp5
 70
     0
102
RTVSPropertyOp6
 70
     0
102
RTVSPropertyOp7
 70
     0
102
RTVSPropertyOp8
 70
     0
102
RTVSPropertyOp9
 70
     0
102
RTVSPropertyOp10
 70
     0
102
RTVSPropertyOp11
 70
     0
102
RTVSPropertyOp12
 70
     0
102
RTVSPropertyOp13
 70
     0
102
RTVSPropertyOp14
 70
     2
102
RTVSPropertyOp15
 70
     0
102
RTVSPropertyOp16
 70
     0
102
RTVSPropertyOp17
 70
     0
102
RTVSPropertyOp18
 70
     0
102
RTVSPropertyOp19
 70
     0
102
RTVSPropertyOp20
 70
     0
102
RTVSPropertyOp21
 70
     0
102
RTVSPropertyOp22
 70
     0
102
RTVSPropertyOp23
 70
     0
102
RTVSPropertyOp24
 70
     0
102
RTVSPropertyOp25
 70
     0
102
RTVSPropertyOp26
 70
     0
102
RTVSPropertyOp27
 70
     0
102
RTVSPropertyOp28
 70
     0
102
RTVSPropertyOp29
 70
     0
102
RTVSPropertyOp30
 70
     0
102
RTVSPropertyOp31
 70
     0
102
RTVSPropertyOp32
 70
     0
102
RTVSPropertyOp33
 70
     0
102
RTVSPropertyOp34
 70
     0
102
RTVSPropertyOp35
 70
     0
102
RTVSPropertyOp36
 70
     0
102
RTVSPropertyOp37
 70
     0
102
RTVSPropertyOp38
 70
     0
102
RTVSPropertyOp39
 70
     0
102
RTVSPropertyOp40
 70
     0
102
RTVSPropertyOp41
 70
     0
102
RTVSPropertyOp42
 70
     0
102
RTVSPropertyOp43
 70
     0
102
RTVSPropertyOp44
 70
     0
102
RTVSPropertyOp45
 70
     0
102
RTVSPropertyOp46
 70
     0
102
RTVSPropertyOp47
 70
     0
102
RTVSPropertyOp48
 70
     0
102
RTVSPropertyOp49
 70
     0
102
RTVSPropertyOp50
 70
     0
102
RTVSPropertyOp51
 70
     0
102
RTVSPropertyOp52
 70
     0
102
RTVSPropertyOp53
 70
     0
102
RTVSPropertyOp54
 70
     0
102
RTVSPropertyOp55
 70
     0
102
RTVSPropertyOp56
 70
     0
102
RTVSPropertyOp57
 70
     0
102
RTVSPost2010Prop28
280
     0
102
RTVSPost2010PropOp28
 70
     0
102
RTVSPost2010Prop29
280
     1
102
RTVSPost2010PropOp29
 70
     0
102
RTVSPost2010Prop30
280
     1
102
RTVSPost2010PropOp30
 70
     0
102
RTVSPost2010Prop31
280
     0
102
RTVSPost2010PropOp31
 70
     0
102
RTVSPost2010Prop32
280
     0
102
RTVSPost2010PropOp32
 70
     0
102
RTVSPost2010Prop33
280
     0
102
RTVSPost2010PropOp33
 70
     0
102
RTVSPost2010Prop34
280
     0
102
RTVSPost2010PropOp34
 70
     0
102
RTVSPost2010Prop35
280
     0
102
RTVSPost2010PropOp35
 70
     0
102
RTVSPost2010Prop36
280
     0
102
RTVSPost2010PropOp36
 70
     0
102
RTVSPost2010Prop37
 90
       50
102
RTVSPost2010PropOp37
 70
     0
102
RTVSPost2010Prop38
140
0.0
102
RTVSPost2010PropOp38
 70
     0
102
RTVSPost2010Prop39
140
1.0
102
RTVSPost2010PropOp39
 70
     0
102
RTVSPost2010Prop40
 90
        0
102
RTVSPost2010PropOp40
 70
     0
102
RTVSPost2010Prop41ColorIndex
 90
       18
102
RTVSPost2010Prop41ColorRGB
 90
        0
102
RTVSPost2010PropOp41
 70
     0
102
RTVSPost2010Prop42
 90
       50
102
RTVSPost2010PropOp42
 70
     0
102
RTVSPost2010Prop43
 90
        3
102
RTVSPost2010PropOp43
 70
     0
102
RTVSPost2010Prop44ColorIndex
 90
        5
102
RTVSPost2010Prop44ColorRGB
 90
      255
102
RTVSPost2010PropOp44
 70
     0
102
RTVSPost2010Prop45
280
     0
102
RTVSPost2010PropOp45
 70
     0
102
RTVSPost2010Prop46
 90
       50
102
RTVSPost2010PropOp46
 70
     0
102
RTVSPost2010Prop47
 90
       50
102
RTVSPost2010PropOp47
 70
     0
102
RTVSPost2010Prop48
 90
       50
102
RTVSPost2010PropOp48
 70
     0
102
RTVSPost2010Prop49
280
     0
102
RTVSPost2010PropOp49
 70
     0
102
RTVSPost2010Prop50
 90
       50
102
RTVSPost2010PropOp50
 70
     0
102
RTVSPost2010Prop51ColorIndex
 90
      256
102
RTVSPost2010Prop51ColorRGB
 90
-16777216
102
RTVSPost2010PropOp51
 70
     0
102
RTVSPost2010Prop52
140
1.0
102
RTVSPost2010PropOp52
 70
     0
102
RTVSPost2010Prop53
 90
        2
102
RTVSPost2010PropOp53
 70
     0
102
RTVSPost2010Prop54
  1
strokes_ogs.tif
102
RTVSPost2010PropOp54
 70
     0
102
RTVSPost2010Prop55
280
     0
102
RTVSPost2010PropOp55
 70
     0
102
RTVSPost2010Prop56
140
1.0
102
RTVSPost2010PropOp56
 70
     0
102
RTVSPost2010Prop57
140
1.0
102
RTVSPost2010PropOp57
 70
     0
  0
XRECORD
  5
1333
102
{ACAD_REACTORS
330
1332
102
}
330
1332
100
AcDbXrecord
280
     1
102
RTVSPropertyOp0
 70
     1
102
RTVSPropertyOp1
 70
     1
102
RTVSPropertyOp2
 70
     1
102
RTVSPropertyOp3
 70
     1
102
RTVSPropertyOp4
 70
     1
102
RTVSPropertyOp5
 70
     1
102
RTVSPropertyOp6
 70
     1
102
RTVSPropertyOp7
 70
     1
102
RTVSPropertyOp8
 70
     1
102
RTVSPropertyOp9
 70
     1
102
RTVSPropertyOp10
 70
     1
102
RTVSPropertyOp11
 70
     1
102
RTVSPropertyOp12
 70
     1
102
RTVSPropertyOp13
 70
     1
102
RTVSPropertyOp14
 70
     1
102
RTVSPropertyOp15
 70
     1
102
RTVSPropertyOp16
 70
     1
102
RTVSPropertyOp17
 70
     1
102
RTVSPropertyOp18
 70
     1
102
RTVSPropertyOp19
 70
     1
102
RTVSPropertyOp20
 70
     1
102
RTVSPropertyOp21
 70
     1
102
RTVSPropertyOp22
 70
     1
102
RTVSPropertyOp23
 70
     1
102
RTVSPropertyOp24
 70
     1
102
RTVSPropertyOp25
 70
     1
102
RTVSPropertyOp26
 70
     1
102
RTVSPropertyOp27
 70
     1
102
RTVSPropertyOp28
 70
     1
102
RTVSPropertyOp29
 70
     1
102
RTVSPropertyOp30
 70
     1
102
RTVSPropertyOp31
 70
     1
102
RTVSPropertyOp32
 70
     1
102
RTVSPropertyOp33
 70
     1
102
RTVSPropertyOp34
 70
     1
102
RTVSPropertyOp35
 70
     1
102
RTVSPropertyOp36
 70
     1
102
RTVSPropertyOp37
 70
     1
102
RTVSPropertyOp38
 70
     1
102
RTVSPropertyOp39
 70
     1
102
RTVSPropertyOp40
 70
     1
102
RTVSPropertyOp41
 70
     1
102
RTVSPropertyOp42
 70
     1
102
RTVSPropertyOp43
 70
     1
102
RTVSPropertyOp44
 70
     1
102
RTVSPropertyOp45
 70
     1
102
RTVSPropertyOp46
 70
     1
102
RTVSPropertyOp47
 70
     1
102
RTVSPropertyOp48
 70
     1
102
RTVSPropertyOp49
 70
     1
102
RTVSPropertyOp50
 70
     1
102
RTVSPropertyOp51
 70
     0
102
RTVSPropertyOp52
 70
     0
102
RTVSPropertyOp53
 70
     1
102
RTVSPropertyOp54
 70
     1
102
RTVSPropertyOp55
 70
     1
102
RTVSPropertyOp56
 70
     1
102
RTVSPropertyOp57
 70
     1
102
RTVSPost2010Prop28
280
     0
102
RTVSPost2010PropOp28
 70
     1
102
RTVSPost2010Prop29
280
     1
102
RTVSPost2010PropOp29
 70
     1
102
RTVSPost2010Prop30
280
     1
102
RTVSPost2010PropOp30
 70
     1
102
RTVSPost2010Prop31
280
     0
102
RTVSPost2010PropOp31
 70
     1
102
RTVSPost2010Prop32
280
     0
102
RTVSPost2010PropOp32
 70
     1
102
RTVSPost2010Prop33
280
     0
102
RTVSPost2010PropOp33
 70
     1
102
RTVSPost2010Prop34
280
     0
102
RTVSPost2010PropOp34
 70
     1
102
RTVSPost2010Prop35
280
     0
102
RTVSPost2010PropOp35
 70
     1
102
RTVSPost2010Prop36
280
     0
102
RTVSPost2010PropOp36
 70
     1
102
RTVSPost2010Prop37
 90
       50
102
RTVSPost2010PropOp37
 70
     1
102
RTVSPost2010Prop38
140
0.0
102
RTVSPost2010PropOp38
 70
     1
102
RTVSPost2010Prop39
140
1.0
102
RTVSPost2010PropOp39
 70
     1
102
RTVSPost2010Prop40
 90
        0
102
RTVSPost2010PropOp40
 70
     1
102
RTVSPost2010Prop41ColorIndex
 90
       18
102
RTVSPost2010Prop41ColorRGB
 90
        0
102
RTVSPost2010PropOp41
 70
     1
102
RTVSPost2010Prop42
 90
       50
102
RTVSPost2010PropOp42
 70
     1
102
RTVSPost2010Prop43
 90
        3
102
RTVSPost2010PropOp43
 70
     1
102
RTVSPost2010Prop44ColorIndex
 90
        5
102
RTVSPost2010Prop44ColorRGB
 90
      255
102
RTVSPost2010PropOp44
 70
     1
102
RTVSPost2010Prop45
280
     0
102
RTVSPost2010PropOp45
 70
     1
102
RTVSPost2010Prop46
 90
       50
102
RTVSPost2010PropOp46
 70
     1
102
RTVSPost2010Prop47
 90
       50
102
RTVSPost2010PropOp47
 70
     1
102
RTVSPost2010Prop48
 90
       50
102
RTVSPost2010PropOp48
 70
     1
102
RTVSPost2010Prop49
280
     0
102
RTVSPost2010PropOp49
 70
     1
102
RTVSPost2010Prop50
 90
       50
102
RTVSPost2010PropOp50
 70
     1
102
RTVSPost2010Prop51ColorIndex
 90
      256
102
RTVSPost2010Prop51ColorRGB
 90
-16777216
102
RTVSPost2010PropOp51
 70
     0
102
RTVSPost2010Prop52
140
1.0
102
RTVSPost2010PropOp52
 70
     0
102
RTVSPost2010Prop53
 90
        2
102
RTVSPost2010PropOp53
 70
     1
102
RTVSPost2010Prop54
  1
strokes_ogs.tif
102
RTVSPost2010PropOp54
 70
     1
102
RTVSPost2010Prop55
280
     0
102
RTVSPost2010PropOp55
 70
     1
102
RTVSPost2010Prop56
140
1.0
102
RTVSPost2010PropOp56
 70
     1
102
RTVSPost2010Prop57
140
1.0
102
RTVSPost2010PropOp57
 70
     1
  0
XRECORD
  5
1317
102
{ACAD_REACTORS
330
1316
102
}
330
1316
100
AcDbXrecord
280
     1
102
RTVSPropertyOp0
 70
     1
102
RTVSPropertyOp1
 70
     1
102
RTVSPropertyOp2
 70
     1
102
RTVSPropertyOp3
 70
     1
102
RTVSPropertyOp4
 70
     1
102
RTVSPropertyOp5
 70
     1
102
RTVSPropertyOp6
 70
     1
102
RTVSPropertyOp7
 70
     1
102
RTVSPropertyOp8
 70
     1
102
RTVSPropertyOp9
 70
     1
102
RTVSPropertyOp10
 70
     1
102
RTVSPropertyOp11
 70
     1
102
RTVSPropertyOp12
 70
     1
102
RTVSPropertyOp13
 70
     1
102
RTVSPropertyOp14
 70
     1
102
RTVSPropertyOp15
 70
     1
102
RTVSPropertyOp16
 70
     1
102
RTVSPropertyOp17
 70
     1
102
RTVSPropertyOp18
 70
     1
102
RTVSPropertyOp19
 70
     1
102
RTVSPropertyOp20
 70
     1
102
RTVSPropertyOp21
 70
     1
102
RTVSPropertyOp22
 70
     1
102
RTVSPropertyOp23
 70
     1
102
RTVSPropertyOp24
 70
     1
102
RTVSPropertyOp25
 70
     1
102
RTVSPropertyOp26
 70
     1
102
RTVSPropertyOp27
 70
     1
102
RTVSPropertyOp28
 70
     1
102
RTVSPropertyOp29
 70
     1
102
RTVSPropertyOp30
 70
     1
102
RTVSPropertyOp31
 70
     1
102
RTVSPropertyOp32
 70
     1
102
RTVSPropertyOp33
 70
     1
102
RTVSPropertyOp34
 70
     1
102
RTVSPropertyOp35
 70
     1
102
RTVSPropertyOp36
 70
     1
102
RTVSPropertyOp37
 70
     1
102
RTVSPropertyOp38
 70
     1
102
RTVSPropertyOp39
 70
     1
102
RTVSPropertyOp40
 70
     1
102
RTVSPropertyOp41
 70
     1
102
RTVSPropertyOp42
 70
     1
102
RTVSPropertyOp43
 70
     1
102
RTVSPropertyOp44
 70
     1
102
RTVSPropertyOp45
 70
     1
102
RTVSPropertyOp46
 70
     1
102
RTVSPropertyOp47
 70
     1
102
RTVSPropertyOp48
 70
     1
102
RTVSPropertyOp49
 70
     1
102
RTVSPropertyOp50
 70
     1
102
RTVSPropertyOp51
 70
     0
102
RTVSPropertyOp52
 70
     0
102
RTVSPropertyOp53
 70
     1
102
RTVSPropertyOp54
 70
     1
102
RTVSPropertyOp55
 70
     1
102
RTVSPropertyOp56
 70
     1
102
RTVSPropertyOp57
 70
     1
102
RTVSPost2010Prop28
280
     0
102
RTVSPost2010PropOp28
 70
     1
102
RTVSPost2010Prop29
280
     1
102
RTVSPost2010PropOp29
 70
     1
102
RTVSPost2010Prop30
280
     1
102
RTVSPost2010PropOp30
 70
     1
102
RTVSPost2010Prop31
280
     0
102
RTVSPost2010PropOp31
 70
     1
102
RTVSPost2010Prop32
280
     0
102
RTVSPost2010PropOp32
 70
     1
102
RTVSPost2010Prop33
280
     0
102
RTVSPost2010PropOp33
 70
     1
102
RTVSPost2010Prop34
280
     0
102
RTVSPost2010PropOp34
 70
     1
102
RTVSPost2010Prop35
280
     0
102
RTVSPost2010PropOp35
 70
     1
102
RTVSPost2010Prop36
280
     0
102
RTVSPost2010PropOp36
 70
     1
102
RTVSPost2010Prop37
 90
       50
102
RTVSPost2010PropOp37
 70
     1
102
RTVSPost2010Prop38
140
0.0
102
RTVSPost2010PropOp38
 70
     1
102
RTVSPost2010Prop39
140
1.0
102
RTVSPost2010PropOp39
 70
     1
102
RTVSPost2010Prop40
 90
        0
102
RTVSPost2010PropOp40
 70
     1
102
RTVSPost2010Prop41ColorIndex
 90
       18
102
RTVSPost2010Prop41ColorRGB
 90
        0
102
RTVSPost2010PropOp41
 70
     1
102
RTVSPost2010Prop42
 90
       50
102
RTVSPost2010PropOp42
 70
     1
102
RTVSPost2010Prop43
 90
        3
102
RTVSPost2010PropOp43
 70
     1
102
RTVSPost2010Prop44ColorIndex
 90
        5
102
RTVSPost2010Prop44ColorRGB
 90
      255
102
RTVSPost2010PropOp44
 70
     1
102
RTVSPost2010Prop45
280
     0
102
RTVSPost2010PropOp45
 70
     1
102
RTVSPost2010Prop46
 90
       50
102
RTVSPost2010PropOp46
 70
     1
102
RTVSPost2010Prop47
 90
       50
102
RTVSPost2010PropOp47
 70
     1
102
RTVSPost2010Prop48
 90
       50
102
RTVSPost2010PropOp48
 70
     1
102
RTVSPost2010Prop49
280
     0
102
RTVSPost2010PropOp49
 70
     1
102
RTVSPost2010Prop50
 90
       50
102
RTVSPost2010PropOp50
 70
     1
102
RTVSPost2010Prop51ColorIndex
 90
      256
102
RTVSPost2010Prop51ColorRGB
 90
-16777216
102
RTVSPost2010PropOp51
 70
     0
102
RTVSPost2010Prop52
140
1.0
102
RTVSPost2010PropOp52
 70
     0
102
RTVSPost2010Prop53
 90
        2
102
RTVSPost2010PropOp53
 70
     1
102
RTVSPost2010Prop54
  1
strokes_ogs.tif
102
RTVSPost2010PropOp54
 70
     1
102
RTVSPost2010Prop55
280
     0
102
RTVSPost2010PropOp55
 70
     1
102
RTVSPost2010Prop56
140
1.0
102
RTVSPost2010PropOp56
 70
     1
102
RTVSPost2010Prop57
140
1.0
102
RTVSPost2010PropOp57
 70
     1
  0
XRECORD
  5
1319
102
{ACAD_REACTORS
330
1318
102
}
330
1318
100
AcDbXrecord
280
     1
102
RTVSPropertyOp0
 70
     1
102
RTVSPropertyOp1
 70
     1
102
RTVSPropertyOp2
 70
     1
102
RTVSPropertyOp3
 70
     1
102
RTVSPropertyOp4
 70
     1
102
RTVSPropertyOp5
 70
     1
102
RTVSPropertyOp6
 70
     1
102
RTVSPropertyOp7
 70
     1
102
RTVSPropertyOp8
 70
     1
102
RTVSPropertyOp9
 70
     1
102
RTVSPropertyOp10
 70
     1
102
RTVSPropertyOp11
 70
     1
102
RTVSPropertyOp12
 70
     1
102
RTVSPropertyOp13
 70
     1
102
RTVSPropertyOp14
 70
     1
102
RTVSPropertyOp15
 70
     1
102
RTVSPropertyOp16
 70
     1
102
RTVSPropertyOp17
 70
     1
102
RTVSPropertyOp18
 70
     1
102
RTVSPropertyOp19
 70
     1
102
RTVSPropertyOp20
 70
     1
102
RTVSPropertyOp21
 70
     1
102
RTVSPropertyOp22
 70
     1
102
RTVSPropertyOp23
 70
     1
102
RTVSPropertyOp24
 70
     1
102
RTVSPropertyOp25
 70
     1
102
RTVSPropertyOp26
 70
     1
102
RTVSPropertyOp27
 70
     1
102
RTVSPropertyOp28
 70
     1
102
RTVSPropertyOp29
 70
     1
102
RTVSPropertyOp30
 70
     1
102
RTVSPropertyOp31
 70
     1
102
RTVSPropertyOp32
 70
     1
102
RTVSPropertyOp33
 70
     1
102
RTVSPropertyOp34
 70
     1
102
RTVSPropertyOp35
 70
     1
102
RTVSPropertyOp36
 70
     1
102
RTVSPropertyOp37
 70
     1
102
RTVSPropertyOp38
 70
     1
102
RTVSPropertyOp39
 70
     1
102
RTVSPropertyOp40
 70
     1
102
RTVSPropertyOp41
 70
     1
102
RTVSPropertyOp42
 70
     1
102
RTVSPropertyOp43
 70
     1
102
RTVSPropertyOp44
 70
     1
102
RTVSPropertyOp45
 70
     1
102
RTVSPropertyOp46
 70
     1
102
RTVSPropertyOp47
 70
     1
102
RTVSPropertyOp48
 70
     1
102
RTVSPropertyOp49
 70
     1
102
RTVSPropertyOp50
 70
     1
102
RTVSPropertyOp51
 70
     0
102
RTVSPropertyOp52
 70
     0
102
RTVSPropertyOp53
 70
     1
102
RTVSPropertyOp54
 70
     1
102
RTVSPropertyOp55
 70
     1
102
RTVSPropertyOp56
 70
     1
102
RTVSPropertyOp57
 70
     1
102
RTVSPost2010Prop28
280
     0
102
RTVSPost2010PropOp28
 70
     1
102
RTVSPost2010Prop29
280
     1
102
RTVSPost2010PropOp29
 70
     1
102
RTVSPost2010Prop30
280
     1
102
RTVSPost2010PropOp30
 70
     1
102
RTVSPost2010Prop31
280
     0
102
RTVSPost2010PropOp31
 70
     1
102
RTVSPost2010Prop32
280
     0
102
RTVSPost2010PropOp32
 70
     1
102
RTVSPost2010Prop33
280
     0
102
RTVSPost2010PropOp33
 70
     1
102
RTVSPost2010Prop34
280
     0
102
RTVSPost2010PropOp34
 70
     1
102
RTVSPost2010Prop35
280
     0
102
RTVSPost2010PropOp35
 70
     1
102
RTVSPost2010Prop36
280
     0
102
RTVSPost2010PropOp36
 70
     1
102
RTVSPost2010Prop37
 90
       50
102
RTVSPost2010PropOp37
 70
     1
102
RTVSPost2010Prop38
140
0.0
102
RTVSPost2010PropOp38
 70
     1
102
RTVSPost2010Prop39
140
1.0
102
RTVSPost2010PropOp39
 70
     1
102
RTVSPost2010Prop40
 90
        0
102
RTVSPost2010PropOp40
 70
     1
102
RTVSPost2010Prop41ColorIndex
 90
       18
102
RTVSPost2010Prop41ColorRGB
 90
        0
102
RTVSPost2010PropOp41
 70
     1
102
RTVSPost2010Prop42
 90
       50
102
RTVSPost2010PropOp42
 70
     1
102
RTVSPost2010Prop43
 90
        3
102
RTVSPost2010PropOp43
 70
     1
102
RTVSPost2010Prop44ColorIndex
 90
        5
102
RTVSPost2010Prop44ColorRGB
 90
      255
102
RTVSPost2010PropOp44
 70
     1
102
RTVSPost2010Prop45
280
     0
102
RTVSPost2010PropOp45
 70
     1
102
RTVSPost2010Prop46
 90
       50
102
RTVSPost2010PropOp46
 70
     1
102
RTVSPost2010Prop47
 90
       50
102
RTVSPost2010PropOp47
 70
     1
102
RTVSPost2010Prop48
 90
       50
102
RTVSPost2010PropOp48
 70
     1
102
RTVSPost2010Prop49
280
     0
102
RTVSPost2010PropOp49
 70
     1
102
RTVSPost2010Prop50
 90
       50
102
RTVSPost2010PropOp50
 70
     1
102
RTVSPost2010Prop51ColorIndex
 90
      256
102
RTVSPost2010Prop51ColorRGB
 90
-16777216
102
RTVSPost2010PropOp51
 70
     0
102
RTVSPost2010Prop52
140
1.0
102
RTVSPost2010PropOp52
 70
     0
102
RTVSPost2010Prop53
 90
        2
102
RTVSPost2010PropOp53
 70
     1
102
RTVSPost2010Prop54
  1
strokes_ogs.tif
102
RTVSPost2010PropOp54
 70
     1
102
RTVSPost2010Prop55
280
     0
102
RTVSPost2010PropOp55
 70
     1
102
RTVSPost2010Prop56
140
1.0
102
RTVSPost2010PropOp56
 70
     1
102
RTVSPost2010Prop57
140
1.0
102
RTVSPost2010PropOp57
 70
     1
  0
XRECORD
  5
131B
102
{ACAD_REACTORS
330
131A
102
}
330
131A
100
AcDbXrecord
280
     1
102
RTVSPropertyOp0
 70
     1
102
RTVSPropertyOp1
 70
     1
102
RTVSPropertyOp2
 70
     1
102
RTVSPropertyOp3
 70
     1
102
RTVSPropertyOp4
 70
     1
102
RTVSPropertyOp5
 70
     1
102
RTVSPropertyOp6
 70
     1
102
RTVSPropertyOp7
 70
     1
102
RTVSPropertyOp8
 70
     1
102
RTVSPropertyOp9
 70
     1
102
RTVSPropertyOp10
 70
     1
102
RTVSPropertyOp11
 70
     1
102
RTVSPropertyOp12
 70
     1
102
RTVSPropertyOp13
 70
     1
102
RTVSPropertyOp14
 70
     1
102
RTVSPropertyOp15
 70
     1
102
RTVSPropertyOp16
 70
     1
102
RTVSPropertyOp17
 70
     1
102
RTVSPropertyOp18
 70
     1
102
RTVSPropertyOp19
 70
     1
102
RTVSPropertyOp20
 70
     1
102
RTVSPropertyOp21
 70
     1
102
RTVSPropertyOp22
 70
     1
102
RTVSPropertyOp23
 70
     1
102
RTVSPropertyOp24
 70
     1
102
RTVSPropertyOp25
 70
     1
102
RTVSPropertyOp26
 70
     1
102
RTVSPropertyOp27
 70
     1
102
RTVSPropertyOp28
 70
     1
102
RTVSPropertyOp29
 70
     1
102
RTVSPropertyOp30
 70
     1
102
RTVSPropertyOp31
 70
     1
102
RTVSPropertyOp32
 70
     1
102
RTVSPropertyOp33
 70
     1
102
RTVSPropertyOp34
 70
     1
102
RTVSPropertyOp35
 70
     1
102
RTVSPropertyOp36
 70
     1
102
RTVSPropertyOp37
 70
     1
102
RTVSPropertyOp38
 70
     1
102
RTVSPropertyOp39
 70
     1
102
RTVSPropertyOp40
 70
     1
102
RTVSPropertyOp41
 70
     1
102
RTVSPropertyOp42
 70
     1
102
RTVSPropertyOp43
 70
     1
102
RTVSPropertyOp44
 70
     1
102
RTVSPropertyOp45
 70
     1
102
RTVSPropertyOp46
 70
     1
102
RTVSPropertyOp47
 70
     1
102
RTVSPropertyOp48
 70
     1
102
RTVSPropertyOp49
 70
     1
102
RTVSPropertyOp50
 70
     1
102
RTVSPropertyOp51
 70
     0
102
RTVSPropertyOp52
 70
     0
102
RTVSPropertyOp53
 70
     1
102
RTVSPropertyOp54
 70
     1
102
RTVSPropertyOp55
 70
     1
102
RTVSPropertyOp56
 70
     1
102
RTVSPropertyOp57
 70
     1
102
RTVSPost2010Prop28
280
     0
102
RTVSPost2010PropOp28
 70
     1
102
RTVSPost2010Prop29
280
     1
102
RTVSPost2010PropOp29
 70
     1
102
RTVSPost2010Prop30
280
     1
102
RTVSPost2010PropOp30
 70
     1
102
RTVSPost2010Prop31
280
     0
102
RTVSPost2010PropOp31
 70
     1
102
RTVSPost2010Prop32
280
     0
102
RTVSPost2010PropOp32
 70
     1
102
RTVSPost2010Prop33
280
     0
102
RTVSPost2010PropOp33
 70
     1
102
RTVSPost2010Prop34
280
     0
102
RTVSPost2010PropOp34
 70
     1
102
RTVSPost2010Prop35
280
     0
102
RTVSPost2010PropOp35
 70
     1
102
RTVSPost2010Prop36
280
     0
102
RTVSPost2010PropOp36
 70
     1
102
RTVSPost2010Prop37
 90
       50
102
RTVSPost2010PropOp37
 70
     1
102
RTVSPost2010Prop38
140
0.0
102
RTVSPost2010PropOp38
 70
     1
102
RTVSPost2010Prop39
140
1.0
102
RTVSPost2010PropOp39
 70
     1
102
RTVSPost2010Prop40
 90
        0
102
RTVSPost2010PropOp40
 70
     1
102
RTVSPost2010Prop41ColorIndex
 90
       18
102
RTVSPost2010Prop41ColorRGB
 90
        0
102
RTVSPost2010PropOp41
 70
     1
102
RTVSPost2010Prop42
 90
       50
102
RTVSPost2010PropOp42
 70
     1
102
RTVSPost2010Prop43
 90
        3
102
RTVSPost2010PropOp43
 70
     1
102
RTVSPost2010Prop44ColorIndex
 90
        5
102
RTVSPost2010Prop44ColorRGB
 90
      255
102
RTVSPost2010PropOp44
 70
     1
102
RTVSPost2010Prop45
280
     0
102
RTVSPost2010PropOp45
 70
     1
102
RTVSPost2010Prop46
 90
       50
102
RTVSPost2010PropOp46
 70
     1
102
RTVSPost2010Prop47
 90
       50
102
RTVSPost2010PropOp47
 70
     1
102
RTVSPost2010Prop48
 90
       50
102
RTVSPost2010PropOp48
 70
     1
102
RTVSPost2010Prop49
280
     0
102
RTVSPost2010PropOp49
 70
     1
102
RTVSPost2010Prop50
 90
       50
102
RTVSPost2010PropOp50
 70
     1
102
RTVSPost2010Prop51ColorIndex
 90
      256
102
RTVSPost2010Prop51ColorRGB
 90
-16777216
102
RTVSPost2010PropOp51
 70
     0
102
RTVSPost2010Prop52
140
1.0
102
RTVSPost2010PropOp52
 70
     0
102
RTVSPost2010Prop53
 90
        2
102
RTVSPost2010PropOp53
 70
     1
102
RTVSPost2010Prop54
  1
strokes_ogs.tif
102
RTVSPost2010PropOp54
 70
     1
102
RTVSPost2010Prop55
280
     0
102
RTVSPost2010PropOp55
 70
     1
102
RTVSPost2010Prop56
140
1.0
102
RTVSPost2010PropOp56
 70
     1
102
RTVSPost2010Prop57
140
1.0
102
RTVSPost2010PropOp57
 70
     1
  0
XRECORD
  5
131D
102
{ACAD_REACTORS
330
131C
102
}
330
131C
100
AcDbXrecord
280
     1
102
RTVSPropertyOp0
 70
     1
102
RTVSPropertyOp1
 70
     1
102
RTVSPropertyOp2
 70
     1
102
RTVSPropertyOp3
 70
     1
102
RTVSPropertyOp4
 70
     1
102
RTVSPropertyOp5
 70
     1
102
RTVSPropertyOp6
 70
     1
102
RTVSPropertyOp7
 70
     1
102
RTVSPropertyOp8
 70
     1
102
RTVSPropertyOp9
 70
     1
102
RTVSPropertyOp10
 70
     1
102
RTVSPropertyOp11
 70
     1
102
RTVSPropertyOp12
 70
     1
102
RTVSPropertyOp13
 70
     1
102
RTVSPropertyOp14
 70
     1
102
RTVSPropertyOp15
 70
     1
102
RTVSPropertyOp16
 70
     1
102
RTVSPropertyOp17
 70
     1
102
RTVSPropertyOp18
 70
     1
102
RTVSPropertyOp19
 70
     1
102
RTVSPropertyOp20
 70
     1
102
RTVSPropertyOp21
 70
     1
102
RTVSPropertyOp22
 70
     1
102
RTVSPropertyOp23
 70
     1
102
RTVSPropertyOp24
 70
     1
102
RTVSPropertyOp25
 70
     1
102
RTVSPropertyOp26
 70
     1
102
RTVSPropertyOp27
 70
     1
102
RTVSPropertyOp28
 70
     1
102
RTVSPropertyOp29
 70
     1
102
RTVSPropertyOp30
 70
     1
102
RTVSPropertyOp31
 70
     1
102
RTVSPropertyOp32
 70
     1
102
RTVSPropertyOp33
 70
     1
102
RTVSPropertyOp34
 70
     1
102
RTVSPropertyOp35
 70
     1
102
RTVSPropertyOp36
 70
     1
102
RTVSPropertyOp37
 70
     1
102
RTVSPropertyOp38
 70
     1
102
RTVSPropertyOp39
 70
     1
102
RTVSPropertyOp40
 70
     1
102
RTVSPropertyOp41
 70
     1
102
RTVSPropertyOp42
 70
     1
102
RTVSPropertyOp43
 70
     1
102
RTVSPropertyOp44
 70
     1
102
RTVSPropertyOp45
 70
     1
102
RTVSPropertyOp46
 70
     1
102
RTVSPropertyOp47
 70
     1
102
RTVSPropertyOp48
 70
     1
102
RTVSPropertyOp49
 70
     1
102
RTVSPropertyOp50
 70
     1
102
RTVSPropertyOp51
 70
     0
102
RTVSPropertyOp52
 70
     0
102
RTVSPropertyOp53
 70
     1
102
RTVSPropertyOp54
 70
     1
102
RTVSPropertyOp55
 70
     1
102
RTVSPropertyOp56
 70
     1
102
RTVSPropertyOp57
 70
     1
102
RTVSPost2010Prop28
280
     0
102
RTVSPost2010PropOp28
 70
     1
102
RTVSPost2010Prop29
280
     1
102
RTVSPost2010PropOp29
 70
     1
102
RTVSPost2010Prop30
280
     1
102
RTVSPost2010PropOp30
 70
     1
102
RTVSPost2010Prop31
280
     0
102
RTVSPost2010PropOp31
 70
     1
102
RTVSPost2010Prop32
280
     0
102
RTVSPost2010PropOp32
 70
     1
102
RTVSPost2010Prop33
280
     0
102
RTVSPost2010PropOp33
 70
     1
102
RTVSPost2010Prop34
280
     0
102
RTVSPost2010PropOp34
 70
     1
102
RTVSPost2010Prop35
280
     0
102
RTVSPost2010PropOp35
 70
     1
102
RTVSPost2010Prop36
280
     0
102
RTVSPost2010PropOp36
 70
     1
102
RTVSPost2010Prop37
 90
       50
102
RTVSPost2010PropOp37
 70
     1
102
RTVSPost2010Prop38
140
0.0
102
RTVSPost2010PropOp38
 70
     1
102
RTVSPost2010Prop39
140
1.0
102
RTVSPost2010PropOp39
 70
     1
102
RTVSPost2010Prop40
 90
        0
102
RTVSPost2010PropOp40
 70
     1
102
RTVSPost2010Prop41ColorIndex
 90
       18
102
RTVSPost2010Prop41ColorRGB
 90
        0
102
RTVSPost2010PropOp41
 70
     1
102
RTVSPost2010Prop42
 90
       50
102
RTVSPost2010PropOp42
 70
     1
102
RTVSPost2010Prop43
 90
        3
102
RTVSPost2010PropOp43
 70
     1
102
RTVSPost2010Prop44ColorIndex
 90
        5
102
RTVSPost2010Prop44ColorRGB
 90
      255
102
RTVSPost2010PropOp44
 70
     1
102
RTVSPost2010Prop45
280
     0
102
RTVSPost2010PropOp45
 70
     1
102
RTVSPost2010Prop46
 90
       50
102
RTVSPost2010PropOp46
 70
     1
102
RTVSPost2010Prop47
 90
       50
102
RTVSPost2010PropOp47
 70
     1
102
RTVSPost2010Prop48
 90
       50
102
RTVSPost2010PropOp48
 70
     1
102
RTVSPost2010Prop49
280
     0
102
RTVSPost2010PropOp49
 70
     1
102
RTVSPost2010Prop50
 90
       50
102
RTVSPost2010PropOp50
 70
     1
102
RTVSPost2010Prop51ColorIndex
 90
      256
102
RTVSPost2010Prop51ColorRGB
 90
-16777216
102
RTVSPost2010PropOp51
 70
     0
102
RTVSPost2010Prop52
140
1.0
102
RTVSPost2010PropOp52
 70
     0
102
RTVSPost2010Prop53
 90
        2
102
RTVSPost2010PropOp53
 70
     1
102
RTVSPost2010Prop54
  1
strokes_ogs.tif
102
RTVSPost2010PropOp54
 70
     1
102
RTVSPost2010Prop55
280
     0
102
RTVSPost2010PropOp55
 70
     1
102
RTVSPost2010Prop56
140
1.0
102
RTVSPost2010PropOp56
 70
     1
102
RTVSPost2010Prop57
140
1.0
102
RTVSPost2010PropOp57
 70
     1
  0
XRECORD
  5
1323
102
{ACAD_REACTORS
330
1322
102
}
330
1322
100
AcDbXrecord
280
     1
102
RTVSPropertyOp0
 70
     1
102
RTVSPropertyOp1
 70
     1
102
RTVSPropertyOp2
 70
     1
102
RTVSPropertyOp3
 70
     1
102
RTVSPropertyOp4
 70
     1
102
RTVSPropertyOp5
 70
     1
102
RTVSPropertyOp6
 70
     1
102
RTVSPropertyOp7
 70
     1
102
RTVSPropertyOp8
 70
     1
102
RTVSPropertyOp9
 70
     1
102
RTVSPropertyOp10
 70
     1
102
RTVSPropertyOp11
 70
     1
102
RTVSPropertyOp12
 70
     1
102
RTVSPropertyOp13
 70
     1
102
RTVSPropertyOp14
 70
     1
102
RTVSPropertyOp15
 70
     1
102
RTVSPropertyOp16
 70
     1
102
RTVSPropertyOp17
 70
     1
102
RTVSPropertyOp18
 70
     1
102
RTVSPropertyOp19
 70
     1
102
RTVSPropertyOp20
 70
     1
102
RTVSPropertyOp21
 70
     1
102
RTVSPropertyOp22
 70
     1
102
RTVSPropertyOp23
 70
     1
102
RTVSPropertyOp24
 70
     1
102
RTVSPropertyOp25
 70
     1
102
RTVSPropertyOp26
 70
     1
102
RTVSPropertyOp27
 70
     1
102
RTVSPropertyOp28
 70
     1
102
RTVSPropertyOp29
 70
     1
102
RTVSPropertyOp30
 70
     1
102
RTVSPropertyOp31
 70
     1
102
RTVSPropertyOp32
 70
     1
102
RTVSPropertyOp33
 70
     1
102
RTVSPropertyOp34
 70
     1
102
RTVSPropertyOp35
 70
     1
102
RTVSPropertyOp36
 70
     1
102
RTVSPropertyOp37
 70
     1
102
RTVSPropertyOp38
 70
     1
102
RTVSPropertyOp39
 70
     1
102
RTVSPropertyOp40
 70
     1
102
RTVSPropertyOp41
 70
     1
102
RTVSPropertyOp42
 70
     1
102
RTVSPropertyOp43
 70
     1
102
RTVSPropertyOp44
 70
     1
102
RTVSPropertyOp45
 70
     1
102
RTVSPropertyOp46
 70
     1
102
RTVSPropertyOp47
 70
     1
102
RTVSPropertyOp48
 70
     1
102
RTVSPropertyOp49
 70
     1
102
RTVSPropertyOp50
 70
     1
102
RTVSPropertyOp51
 70
     0
102
RTVSPropertyOp52
 70
     0
102
RTVSPropertyOp53
 70
     1
102
RTVSPropertyOp54
 70
     1
102
RTVSPropertyOp55
 70
     1
102
RTVSPropertyOp56
 70
     1
102
RTVSPropertyOp57
 70
     1
102
RTVSPost2010Prop28
280
     0
102
RTVSPost2010PropOp28
 70
     1
102
RTVSPost2010Prop29
280
     1
102
RTVSPost2010PropOp29
 70
     1
102
RTVSPost2010Prop30
280
     1
102
RTVSPost2010PropOp30
 70
     1
102
RTVSPost2010Prop31
280
     0
102
RTVSPost2010PropOp31
 70
     1
102
RTVSPost2010Prop32
280
     0
102
RTVSPost2010PropOp32
 70
     1
102
RTVSPost2010Prop33
280
     0
102
RTVSPost2010PropOp33
 70
     1
102
RTVSPost2010Prop34
280
     0
102
RTVSPost2010PropOp34
 70
     1
102
RTVSPost2010Prop35
280
     0
102
RTVSPost2010PropOp35
 70
     1
102
RTVSPost2010Prop36
280
     0
102
RTVSPost2010PropOp36
 70
     1
102
RTVSPost2010Prop37
 90
       50
102
RTVSPost2010PropOp37
 70
     1
102
RTVSPost2010Prop38
140
0.0
102
RTVSPost2010PropOp38
 70
     1
102
RTVSPost2010Prop39
140
1.0
102
RTVSPost2010PropOp39
 70
     1
102
RTVSPost2010Prop40
 90
        0
102
RTVSPost2010PropOp40
 70
     1
102
RTVSPost2010Prop41ColorIndex
 90
       18
102
RTVSPost2010Prop41ColorRGB
 90
        0
102
RTVSPost2010PropOp41
 70
     1
102
RTVSPost2010Prop42
 90
       50
102
RTVSPost2010PropOp42
 70
     1
102
RTVSPost2010Prop43
 90
        3
102
RTVSPost2010PropOp43
 70
     1
102
RTVSPost2010Prop44ColorIndex
 90
        5
102
RTVSPost2010Prop44ColorRGB
 90
      255
102
RTVSPost2010PropOp44
 70
     1
102
RTVSPost2010Prop45
280
     0
102
RTVSPost2010PropOp45
 70
     1
102
RTVSPost2010Prop46
 90
       50
102
RTVSPost2010PropOp46
 70
     1
102
RTVSPost2010Prop47
 90
       50
102
RTVSPost2010PropOp47
 70
     1
102
RTVSPost2010Prop48
 90
       50
102
RTVSPost2010PropOp48
 70
     1
102
RTVSPost2010Prop49
280
     0
102
RTVSPost2010PropOp49
 70
     1
102
RTVSPost2010Prop50
 90
       50
102
RTVSPost2010PropOp50
 70
     1
102
RTVSPost2010Prop51ColorIndex
 90
      256
102
RTVSPost2010Prop51ColorRGB
 90
-16777216
102
RTVSPost2010PropOp51
 70
     0
102
RTVSPost2010Prop52
140
1.0
102
RTVSPost2010PropOp52
 70
     0
102
RTVSPost2010Prop53
 90
        2
102
RTVSPost2010PropOp53
 70
     1
102
RTVSPost2010Prop54
  1
strokes_ogs.tif
102
RTVSPost2010PropOp54
 70
     1
102
RTVSPost2010Prop55
280
     0
102
RTVSPost2010PropOp55
 70
     1
102
RTVSPost2010Prop56
140
1.0
102
RTVSPost2010PropOp56
 70
     1
102
RTVSPost2010Prop57
140
1.0
102
RTVSPost2010PropOp57
 70
     1
  0
XRECORD
  5
1337
102
{ACAD_REACTORS
330
1336
102
}
330
1336
100
AcDbXrecord
280
     1
102
RTVSPropertyOp0
 70
     0
102
RTVSPropertyOp1
 70
     0
102
RTVSPropertyOp2
 70
     0
102
RTVSPropertyOp3
 70
     0
102
RTVSPropertyOp4
 70
     0
102
RTVSPropertyOp5
 70
     0
102
RTVSPropertyOp6
 70
     0
102
RTVSPropertyOp7
 70
     0
102
RTVSPropertyOp8
 70
     0
102
RTVSPropertyOp9
 70
     0
102
RTVSPropertyOp10
 70
     0
102
RTVSPropertyOp11
 70
     0
102
RTVSPropertyOp12
 70
     0
102
RTVSPropertyOp13
 70
     0
102
RTVSPropertyOp14
 70
     2
102
RTVSPropertyOp15
 70
     0
102
RTVSPropertyOp16
 70
     0
102
RTVSPropertyOp17
 70
     0
102
RTVSPropertyOp18
 70
     0
102
RTVSPropertyOp19
 70
     0
102
RTVSPropertyOp20
 70
     0
102
RTVSPropertyOp21
 70
     0
102
RTVSPropertyOp22
 70
     0
102
RTVSPropertyOp23
 70
     0
102
RTVSPropertyOp24
 70
     0
102
RTVSPropertyOp25
 70
     0
102
RTVSPropertyOp26
 70
     0
102
RTVSPropertyOp27
 70
     0
102
RTVSPropertyOp28
 70
     0
102
RTVSPropertyOp29
 70
     0
102
RTVSPropertyOp30
 70
     0
102
RTVSPropertyOp31
 70
     0
102
RTVSPropertyOp32
 70
     0
102
RTVSPropertyOp33
 70
     0
102
RTVSPropertyOp34
 70
     0
102
RTVSPropertyOp35
 70
     0
102
RTVSPropertyOp36
 70
     0
102
RTVSPropertyOp37
 70
     0
102
RTVSPropertyOp38
 70
     0
102
RTVSPropertyOp39
 70
     0
102
RTVSPropertyOp40
 70
     0
102
RTVSPropertyOp41
 70
     0
102
RTVSPropertyOp42
 70
     0
102
RTVSPropertyOp43
 70
     0
102
RTVSPropertyOp44
 70
     0
102
RTVSPropertyOp45
 70
     0
102
RTVSPropertyOp46
 70
     0
102
RTVSPropertyOp47
 70
     0
102
RTVSPropertyOp48
 70
     0
102
RTVSPropertyOp49
 70
     0
102
RTVSPropertyOp50
 70
     0
102
RTVSPropertyOp51
 70
     0
102
RTVSPropertyOp52
 70
     0
102
RTVSPropertyOp53
 70
     0
102
RTVSPropertyOp54
 70
     0
102
RTVSPropertyOp55
 70
     0
102
RTVSPropertyOp56
 70
     0
102
RTVSPropertyOp57
 70
     0
102
RTVSPost2010Prop28
280
     0
102
RTVSPost2010PropOp28
 70
     0
102
RTVSPost2010Prop29
280
     1
102
RTVSPost2010PropOp29
 70
     0
102
RTVSPost2010Prop30
280
     1
102
RTVSPost2010PropOp30
 70
     0
102
RTVSPost2010Prop31
280
     0
102
RTVSPost2010PropOp31
 70
     0
102
RTVSPost2010Prop32
280
     0
102
RTVSPost2010PropOp32
 70
     0
102
RTVSPost2010Prop33
280
     0
102
RTVSPost2010PropOp33
 70
     0
102
RTVSPost2010Prop34
280
     0
102
RTVSPost2010PropOp34
 70
     0
102
RTVSPost2010Prop35
280
     0
102
RTVSPost2010PropOp35
 70
     0
102
RTVSPost2010Prop36
280
     0
102
RTVSPost2010PropOp36
 70
     0
102
RTVSPost2010Prop37
 90
       50
102
RTVSPost2010PropOp37
 70
     0
102
RTVSPost2010Prop38
140
0.0
102
RTVSPost2010PropOp38
 70
     0
102
RTVSPost2010Prop39
140
1.0
102
RTVSPost2010PropOp39
 70
     0
102
RTVSPost2010Prop40
 90
        0
102
RTVSPost2010PropOp40
 70
     0
102
RTVSPost2010Prop41ColorIndex
 90
       18
102
RTVSPost2010Prop41ColorRGB
 90
        0
102
RTVSPost2010PropOp41
 70
     0
102
RTVSPost2010Prop42
 90
       50
102
RTVSPost2010PropOp42
 70
     0
102
RTVSPost2010Prop43
 90
        3
102
RTVSPost2010PropOp43
 70
     0
102
RTVSPost2010Prop44ColorIndex
 90
        5
102
RTVSPost2010Prop44ColorRGB
 90
      255
102
RTVSPost2010PropOp44
 70
     0
102
RTVSPost2010Prop45
280
     0
102
RTVSPost2010PropOp45
 70
     0
102
RTVSPost2010Prop46
 90
       50
102
RTVSPost2010PropOp46
 70
     0
102
RTVSPost2010Prop47
 90
       50
102
RTVSPost2010PropOp47
 70
     0
102
RTVSPost2010Prop48
 90
       50
102
RTVSPost2010PropOp48
 70
     0
102
RTVSPost2010Prop49
280
     0
102
RTVSPost2010PropOp49
 70
     0
102
RTVSPost2010Prop50
 90
       50
102
RTVSPost2010PropOp50
 70
     0
102
RTVSPost2010Prop51ColorIndex
 90
      256
102
RTVSPost2010Prop51ColorRGB
 90
-16777216
102
RTVSPost2010PropOp51
 70
     0
102
RTVSPost2010Prop52
140
1.0
102
RTVSPost2010PropOp52
 70
     0
102
RTVSPost2010Prop53
 90
        2
102
RTVSPost2010PropOp53
 70
     0
102
RTVSPost2010Prop54
  1
strokes_ogs.tif
102
RTVSPost2010PropOp54
 70
     0
102
RTVSPost2010Prop55
280
     0
102
RTVSPost2010PropOp55
 70
     0
102
RTVSPost2010Prop56
140
1.0
102
RTVSPost2010PropOp56
 70
     0
102
RTVSPost2010Prop57
140
1.0
102
RTVSPost2010PropOp57
 70
     0
  0
XRECORD
  5
1331
102
{ACAD_REACTORS
330
1330
102
}
330
1330
100
AcDbXrecord
280
     1
102
RTVSPropertyOp0
 70
     1
102
RTVSPropertyOp1
 70
     1
102
RTVSPropertyOp2
 70
     1
102
RTVSPropertyOp3
 70
     1
102
RTVSPropertyOp4
 70
     1
102
RTVSPropertyOp5
 70
     1
102
RTVSPropertyOp6
 70
     1
102
RTVSPropertyOp7
 70
     1
102
RTVSPropertyOp8
 70
     1
102
RTVSPropertyOp9
 70
     1
102
RTVSPropertyOp10
 70
     1
102
RTVSPropertyOp11
 70
     1
102
RTVSPropertyOp12
 70
     1
102
RTVSPropertyOp13
 70
     1
102
RTVSPropertyOp14
 70
     1
102
RTVSPropertyOp15
 70
     1
102
RTVSPropertyOp16
 70
     1
102
RTVSPropertyOp17
 70
     1
102
RTVSPropertyOp18
 70
     1
102
RTVSPropertyOp19
 70
     1
102
RTVSPropertyOp20
 70
     1
102
RTVSPropertyOp21
 70
     1
102
RTVSPropertyOp22
 70
     1
102
RTVSPropertyOp23
 70
     1
102
RTVSPropertyOp24
 70
     1
102
RTVSPropertyOp25
 70
     1
102
RTVSPropertyOp26
 70
     1
102
RTVSPropertyOp27
 70
     1
102
RTVSPropertyOp28
 70
     1
102
RTVSPropertyOp29
 70
     1
102
RTVSPropertyOp30
 70
     1
102
RTVSPropertyOp31
 70
     1
102
RTVSPropertyOp32
 70
     1
102
RTVSPropertyOp33
 70
     1
102
RTVSPropertyOp34
 70
     1
102
RTVSPropertyOp35
 70
     1
102
RTVSPropertyOp36
 70
     1
102
RTVSPropertyOp37
 70
     1
102
RTVSPropertyOp38
 70
     1
102
RTVSPropertyOp39
 70
     1
102
RTVSPropertyOp40
 70
     1
102
RTVSPropertyOp41
 70
     1
102
RTVSPropertyOp42
 70
     1
102
RTVSPropertyOp43
 70
     1
102
RTVSPropertyOp44
 70
     1
102
RTVSPropertyOp45
 70
     1
102
RTVSPropertyOp46
 70
     1
102
RTVSPropertyOp47
 70
     1
102
RTVSPropertyOp48
 70
     1
102
RTVSPropertyOp49
 70
     1
102
RTVSPropertyOp50
 70
     1
102
RTVSPropertyOp51
 70
     0
102
RTVSPropertyOp52
 70
     0
102
RTVSPropertyOp53
 70
     1
102
RTVSPropertyOp54
 70
     1
102
RTVSPropertyOp55
 70
     1
102
RTVSPropertyOp56
 70
     1
102
RTVSPropertyOp57
 70
     1
102
RTVSPost2010Prop28
280
     0
102
RTVSPost2010PropOp28
 70
     1
102
RTVSPost2010Prop29
280
     1
102
RTVSPost2010PropOp29
 70
     1
102
RTVSPost2010Prop30
280
     1
102
RTVSPost2010PropOp30
 70
     1
102
RTVSPost2010Prop31
280
     0
102
RTVSPost2010PropOp31
 70
     1
102
RTVSPost2010Prop32
280
     0
102
RTVSPost2010PropOp32
 70
     1
102
RTVSPost2010Prop33
280
     0
102
RTVSPost2010PropOp33
 70
     1
102
RTVSPost2010Prop34
280
     0
102
RTVSPost2010PropOp34
 70
     1
102
RTVSPost2010Prop35
280
     0
102
RTVSPost2010PropOp35
 70
     1
102
RTVSPost2010Prop36
280
     0
102
RTVSPost2010PropOp36
 70
     1
102
RTVSPost2010Prop37
 90
       50
102
RTVSPost2010PropOp37
 70
     1
102
RTVSPost2010Prop38
140
0.0
102
RTVSPost2010PropOp38
 70
     1
102
RTVSPost2010Prop39
140
1.0
102
RTVSPost2010PropOp39
 70
     1
102
RTVSPost2010Prop40
 90
        0
102
RTVSPost2010PropOp40
 70
     1
102
RTVSPost2010Prop41ColorIndex
 90
       18
102
RTVSPost2010Prop41ColorRGB
 90
        0
102
RTVSPost2010PropOp41
 70
     1
102
RTVSPost2010Prop42
 90
       50
102
RTVSPost2010PropOp42
 70
     1
102
RTVSPost2010Prop43
 90
        3
102
RTVSPost2010PropOp43
 70
     1
102
RTVSPost2010Prop44ColorIndex
 90
        5
102
RTVSPost2010Prop44ColorRGB
 90
      255
102
RTVSPost2010PropOp44
 70
     1
102
RTVSPost2010Prop45
280
     0
102
RTVSPost2010PropOp45
 70
     1
102
RTVSPost2010Prop46
 90
       50
102
RTVSPost2010PropOp46
 70
     1
102
RTVSPost2010Prop47
 90
       50
102
RTVSPost2010PropOp47
 70
     1
102
RTVSPost2010Prop48
 90
       50
102
RTVSPost2010PropOp48
 70
     1
102
RTVSPost2010Prop49
280
     0
102
RTVSPost2010PropOp49
 70
     1
102
RTVSPost2010Prop50
 90
       50
102
RTVSPost2010PropOp50
 70
     1
102
RTVSPost2010Prop51ColorIndex
 90
      256
102
RTVSPost2010Prop51ColorRGB
 90
-16777216
102
RTVSPost2010PropOp51
 70
     0
102
RTVSPost2010Prop52
140
1.0
102
RTVSPost2010PropOp52
 70
     0
102
RTVSPost2010Prop53
 90
        2
102
RTVSPost2010PropOp53
 70
     1
102
RTVSPost2010Prop54
  1
strokes_ogs.tif
102
RTVSPost2010PropOp54
 70
     1
102
RTVSPost2010Prop55
280
     0
102
RTVSPost2010PropOp55
 70
     1
102
RTVSPost2010Prop56
140
1.0
102
RTVSPost2010PropOp56
 70
     1
102
RTVSPost2010Prop57
140
1.0
102
RTVSPost2010PropOp57
 70
     1
  0
XRECORD
  5
1339
102
{ACAD_REACTORS
330
1338
102
}
330
1338
100
AcDbXrecord
280
     1
102
RTVSPropertyOp0
 70
     0
102
RTVSPropertyOp1
 70
     0
102
RTVSPropertyOp2
 70
     0
102
RTVSPropertyOp3
 70
     0
102
RTVSPropertyOp4
 70
     0
102
RTVSPropertyOp5
 70
     0
102
RTVSPropertyOp6
 70
     0
102
RTVSPropertyOp7
 70
     0
102
RTVSPropertyOp8
 70
     0
102
RTVSPropertyOp9
 70
     0
102
RTVSPropertyOp10
 70
     0
102
RTVSPropertyOp11
 70
     0
102
RTVSPropertyOp12
 70
     0
102
RTVSPropertyOp13
 70
     0
102
RTVSPropertyOp14
 70
     2
102
RTVSPropertyOp15
 70
     0
102
RTVSPropertyOp16
 70
     0
102
RTVSPropertyOp17
 70
     0
102
RTVSPropertyOp18
 70
     0
102
RTVSPropertyOp19
 70
     0
102
RTVSPropertyOp20
 70
     0
102
RTVSPropertyOp21
 70
     0
102
RTVSPropertyOp22
 70
     0
102
RTVSPropertyOp23
 70
     0
102
RTVSPropertyOp24
 70
     0
102
RTVSPropertyOp25
 70
     0
102
RTVSPropertyOp26
 70
     0
102
RTVSPropertyOp27
 70
     0
102
RTVSPropertyOp28
 70
     0
102
RTVSPropertyOp29
 70
     0
102
RTVSPropertyOp30
 70
     0
102
RTVSPropertyOp31
 70
     0
102
RTVSPropertyOp32
 70
     0
102
RTVSPropertyOp33
 70
     0
102
RTVSPropertyOp34
 70
     0
102
RTVSPropertyOp35
 70
     0
102
RTVSPropertyOp36
 70
     0
102
RTVSPropertyOp37
 70
     0
102
RTVSPropertyOp38
 70
     0
102
RTVSPropertyOp39
 70
     0
102
RTVSPropertyOp40
 70
     0
102
RTVSPropertyOp41
 70
     0
102
RTVSPropertyOp42
 70
     0
102
RTVSPropertyOp43
 70
     0
102
RTVSPropertyOp44
 70
     0
102
RTVSPropertyOp45
 70
     0
102
RTVSPropertyOp46
 70
     0
102
RTVSPropertyOp47
 70
     0
102
RTVSPropertyOp48
 70
     0
102
RTVSPropertyOp49
 70
     0
102
RTVSPropertyOp50
 70
     0
102
RTVSPropertyOp51
 70
     0
102
RTVSPropertyOp52
 70
     0
102
RTVSPropertyOp53
 70
     0
102
RTVSPropertyOp54
 70
     0
102
RTVSPropertyOp55
 70
     0
102
RTVSPropertyOp56
 70
     0
102
RTVSPropertyOp57
 70
     0
102
RTVSPost2010Prop28
280
     0
102
RTVSPost2010PropOp28
 70
     0
102
RTVSPost2010Prop29
280
     1
102
RTVSPost2010PropOp29
 70
     0
102
RTVSPost2010Prop30
280
     1
102
RTVSPost2010PropOp30
 70
     0
102
RTVSPost2010Prop31
280
     0
102
RTVSPost2010PropOp31
 70
     0
102
RTVSPost2010Prop32
280
     0
102
RTVSPost2010PropOp32
 70
     0
102
RTVSPost2010Prop33
280
     0
102
RTVSPost2010PropOp33
 70
     0
102
RTVSPost2010Prop34
280
     0
102
RTVSPost2010PropOp34
 70
     0
102
RTVSPost2010Prop35
280
     0
102
RTVSPost2010PropOp35
 70
     0
102
RTVSPost2010Prop36
280
     0
102
RTVSPost2010PropOp36
 70
     0
102
RTVSPost2010Prop37
 90
       50
102
RTVSPost2010PropOp37
 70
     0
102
RTVSPost2010Prop38
140
0.0
102
RTVSPost2010PropOp38
 70
     0
102
RTVSPost2010Prop39
140
1.0
102
RTVSPost2010PropOp39
 70
     0
102
RTVSPost2010Prop40
 90
        0
102
RTVSPost2010PropOp40
 70
     0
102
RTVSPost2010Prop41ColorIndex
 90
       18
102
RTVSPost2010Prop41ColorRGB
 90
        0
102
RTVSPost2010PropOp41
 70
     0
102
RTVSPost2010Prop42
 90
       50
102
RTVSPost2010PropOp42
 70
     0
102
RTVSPost2010Prop43
 90
        3
102
RTVSPost2010PropOp43
 70
     0
102
RTVSPost2010Prop44ColorIndex
 90
        5
102
RTVSPost2010Prop44ColorRGB
 90
      255
102
RTVSPost2010PropOp44
 70
     0
102
RTVSPost2010Prop45
280
     0
102
RTVSPost2010PropOp45
 70
     0
102
RTVSPost2010Prop46
 90
       50
102
RTVSPost2010PropOp46
 70
     0
102
RTVSPost2010Prop47
 90
       50
102
RTVSPost2010PropOp47
 70
     0
102
RTVSPost2010Prop48
 90
       50
102
RTVSPost2010PropOp48
 70
     0
102
RTVSPost2010Prop49
280
     0
102
RTVSPost2010PropOp49
 70
     0
102
RTVSPost2010Prop50
 90
       50
102
RTVSPost2010PropOp50
 70
     0
102
RTVSPost2010Prop51ColorIndex
 90
      256
102
RTVSPost2010Prop51ColorRGB
 90
-16777216
102
RTVSPost2010PropOp51
 70
     0
102
RTVSPost2010Prop52
140
1.0
102
RTVSPost2010PropOp52
 70
     0
102
RTVSPost2010Prop53
 90
        2
102
RTVSPost2010PropOp53
 70
     0
102
RTVSPost2010Prop54
  1
strokes_ogs.tif
102
RTVSPost2010PropOp54
 70
     0
102
RTVSPost2010Prop55
280
     0
102
RTVSPost2010PropOp55
 70
     0
102
RTVSPost2010Prop56
140
1.0
102
RTVSPost2010PropOp56
 70
     0
102
RTVSPost2010Prop57
140
1.0
102
RTVSPost2010PropOp57
 70
     0
  0
XRECORD
  5
1327
102
{ACAD_REACTORS
330
1326
102
}
330
1326
100
AcDbXrecord
280
     1
102
RTVSPropertyOp0
 70
     1
102
RTVSPropertyOp1
 70
     1
102
RTVSPropertyOp2
 70
     1
102
RTVSPropertyOp3
 70
     1
102
RTVSPropertyOp4
 70
     1
102
RTVSPropertyOp5
 70
     1
102
RTVSPropertyOp6
 70
     1
102
RTVSPropertyOp7
 70
     1
102
RTVSPropertyOp8
 70
     1
102
RTVSPropertyOp9
 70
     1
102
RTVSPropertyOp10
 70
     1
102
RTVSPropertyOp11
 70
     1
102
RTVSPropertyOp12
 70
     1
102
RTVSPropertyOp13
 70
     1
102
RTVSPropertyOp14
 70
     1
102
RTVSPropertyOp15
 70
     1
102
RTVSPropertyOp16
 70
     1
102
RTVSPropertyOp17
 70
     1
102
RTVSPropertyOp18
 70
     1
102
RTVSPropertyOp19
 70
     1
102
RTVSPropertyOp20
 70
     1
102
RTVSPropertyOp21
 70
     1
102
RTVSPropertyOp22
 70
     1
102
RTVSPropertyOp23
 70
     1
102
RTVSPropertyOp24
 70
     1
102
RTVSPropertyOp25
 70
     1
102
RTVSPropertyOp26
 70
     1
102
RTVSPropertyOp27
 70
     1
102
RTVSPropertyOp28
 70
     1
102
RTVSPropertyOp29
 70
     1
102
RTVSPropertyOp30
 70
     1
102
RTVSPropertyOp31
 70
     1
102
RTVSPropertyOp32
 70
     1
102
RTVSPropertyOp33
 70
     1
102
RTVSPropertyOp34
 70
     1
102
RTVSPropertyOp35
 70
     1
102
RTVSPropertyOp36
 70
     1
102
RTVSPropertyOp37
 70
     1
102
RTVSPropertyOp38
 70
     1
102
RTVSPropertyOp39
 70
     1
102
RTVSPropertyOp40
 70
     1
102
RTVSPropertyOp41
 70
     1
102
RTVSPropertyOp42
 70
     1
102
RTVSPropertyOp43
 70
     1
102
RTVSPropertyOp44
 70
     1
102
RTVSPropertyOp45
 70
     1
102
RTVSPropertyOp46
 70
     1
102
RTVSPropertyOp47
 70
     1
102
RTVSPropertyOp48
 70
     1
102
RTVSPropertyOp49
 70
     1
102
RTVSPropertyOp50
 70
     1
102
RTVSPropertyOp51
 70
     0
102
RTVSPropertyOp52
 70
     0
102
RTVSPropertyOp53
 70
     1
102
RTVSPropertyOp54
 70
     1
102
RTVSPropertyOp55
 70
     1
102
RTVSPropertyOp56
 70
     1
102
RTVSPropertyOp57
 70
     1
102
RTVSPost2010Prop28
280
     0
102
RTVSPost2010PropOp28
 70
     1
102
RTVSPost2010Prop29
280
     1
102
RTVSPost2010PropOp29
 70
     1
102
RTVSPost2010Prop30
280
     1
102
RTVSPost2010PropOp30
 70
     1
102
RTVSPost2010Prop31
280
     0
102
RTVSPost2010PropOp31
 70
     1
102
RTVSPost2010Prop32
280
     0
102
RTVSPost2010PropOp32
 70
     1
102
RTVSPost2010Prop33
280
     0
102
RTVSPost2010PropOp33
 70
     1
102
RTVSPost2010Prop34
280
     0
102
RTVSPost2010PropOp34
 70
     1
102
RTVSPost2010Prop35
280
     0
102
RTVSPost2010PropOp35
 70
     1
102
RTVSPost2010Prop36
280
     0
102
RTVSPost2010PropOp36
 70
     1
102
RTVSPost2010Prop37
 90
       50
102
RTVSPost2010PropOp37
 70
     1
102
RTVSPost2010Prop38
140
0.0
102
RTVSPost2010PropOp38
 70
     1
102
RTVSPost2010Prop39
140
1.0
102
RTVSPost2010PropOp39
 70
     1
102
RTVSPost2010Prop40
 90
        0
102
RTVSPost2010PropOp40
 70
     1
102
RTVSPost2010Prop41ColorIndex
 90
       18
102
RTVSPost2010Prop41ColorRGB
 90
        0
102
RTVSPost2010PropOp41
 70
     1
102
RTVSPost2010Prop42
 90
       50
102
RTVSPost2010PropOp42
 70
     1
102
RTVSPost2010Prop43
 90
        3
102
RTVSPost2010PropOp43
 70
     1
102
RTVSPost2010Prop44ColorIndex
 90
        5
102
RTVSPost2010Prop44ColorRGB
 90
      255
102
RTVSPost2010PropOp44
 70
     1
102
RTVSPost2010Prop45
280
     0
102
RTVSPost2010PropOp45
 70
     1
102
RTVSPost2010Prop46
 90
       50
102
RTVSPost2010PropOp46
 70
     1
102
RTVSPost2010Prop47
 90
       50
102
RTVSPost2010PropOp47
 70
     1
102
RTVSPost2010Prop48
 90
       50
102
RTVSPost2010PropOp48
 70
     1
102
RTVSPost2010Prop49
280
     0
102
RTVSPost2010PropOp49
 70
     1
102
RTVSPost2010Prop50
 90
       50
102
RTVSPost2010PropOp50
 70
     1
102
RTVSPost2010Prop51ColorIndex
 90
      256
102
RTVSPost2010Prop51ColorRGB
 90
-16777216
102
RTVSPost2010PropOp51
 70
     0
102
RTVSPost2010Prop52
140
1.0
102
RTVSPost2010PropOp52
 70
     0
102
RTVSPost2010Prop53
 90
        2
102
RTVSPost2010PropOp53
 70
     1
102
RTVSPost2010Prop54
  1
strokes_ogs.tif
102
RTVSPost2010PropOp54
 70
     1
102
RTVSPost2010Prop55
280
     0
102
RTVSPost2010PropOp55
 70
     1
102
RTVSPost2010Prop56
140
1.0
102
RTVSPost2010PropOp56
 70
     1
102
RTVSPost2010Prop57
140
1.0
102
RTVSPost2010PropOp57
 70
     1
  0
XRECORD
  5
1345
102
{ACAD_REACTORS
330
1344
102
}
330
1344
100
AcDbXrecord
280
     1
102
RTVSPropertyOp0
 70
     1
102
RTVSPropertyOp1
 70
     1
102
RTVSPropertyOp2
 70
     1
102
RTVSPropertyOp3
 70
     1
102
RTVSPropertyOp4
 70
     1
102
RTVSPropertyOp5
 70
     1
102
RTVSPropertyOp6
 70
     1
102
RTVSPropertyOp7
 70
     1
102
RTVSPropertyOp8
 70
     1
102
RTVSPropertyOp9
 70
     1
102
RTVSPropertyOp10
 70
     1
102
RTVSPropertyOp11
 70
     1
102
RTVSPropertyOp12
 70
     1
102
RTVSPropertyOp13
 70
     1
102
RTVSPropertyOp14
 70
     1
102
RTVSPropertyOp15
 70
     1
102
RTVSPropertyOp16
 70
     1
102
RTVSPropertyOp17
 70
     1
102
RTVSPropertyOp18
 70
     1
102
RTVSPropertyOp19
 70
     1
102
RTVSPropertyOp20
 70
     1
102
RTVSPropertyOp21
 70
     1
102
RTVSPropertyOp22
 70
     1
102
RTVSPropertyOp23
 70
     1
102
RTVSPropertyOp24
 70
     1
102
RTVSPropertyOp25
 70
     1
102
RTVSPropertyOp26
 70
     1
102
RTVSPropertyOp27
 70
     1
102
RTVSPropertyOp28
 70
     1
102
RTVSPropertyOp29
 70
     1
102
RTVSPropertyOp30
 70
     1
102
RTVSPropertyOp31
 70
     1
102
RTVSPropertyOp32
 70
     1
102
RTVSPropertyOp33
 70
     1
102
RTVSPropertyOp34
 70
     1
102
RTVSPropertyOp35
 70
     1
102
RTVSPropertyOp36
 70
     1
102
RTVSPropertyOp37
 70
     1
102
RTVSPropertyOp38
 70
     1
102
RTVSPropertyOp39
 70
     1
102
RTVSPropertyOp40
 70
     1
102
RTVSPropertyOp41
 70
     1
102
RTVSPropertyOp42
 70
     1
102
RTVSPropertyOp43
 70
     1
102
RTVSPropertyOp44
 70
     1
102
RTVSPropertyOp45
 70
     1
102
RTVSPropertyOp46
 70
     1
102
RTVSPropertyOp47
 70
     1
102
RTVSPropertyOp48
 70
     1
102
RTVSPropertyOp49
 70
     1
102
RTVSPropertyOp50
 70
     1
102
RTVSPropertyOp51
 70
     0
102
RTVSPropertyOp52
 70
     0
102
RTVSPropertyOp53
 70
     1
102
RTVSPropertyOp54
 70
     1
102
RTVSPropertyOp55
 70
     1
102
RTVSPropertyOp56
 70
     1
102
RTVSPropertyOp57
 70
     1
102
RTVSPost2010Prop28
280
     0
102
RTVSPost2010PropOp28
 70
     1
102
RTVSPost2010Prop29
280
     1
102
RTVSPost2010PropOp29
 70
     1
102
RTVSPost2010Prop30
280
     1
102
RTVSPost2010PropOp30
 70
     1
102
RTVSPost2010Prop31
280
     0
102
RTVSPost2010PropOp31
 70
     1
102
RTVSPost2010Prop32
280
     0
102
RTVSPost2010PropOp32
 70
     1
102
RTVSPost2010Prop33
280
     0
102
RTVSPost2010PropOp33
 70
     1
102
RTVSPost2010Prop34
280
     0
102
RTVSPost2010PropOp34
 70
     1
102
RTVSPost2010Prop35
280
     0
102
RTVSPost2010PropOp35
 70
     1
102
RTVSPost2010Prop36
280
     0
102
RTVSPost2010PropOp36
 70
     1
102
RTVSPost2010Prop37
 90
       50
102
RTVSPost2010PropOp37
 70
     1
102
RTVSPost2010Prop38
140
0.0
102
RTVSPost2010PropOp38
 70
     1
102
RTVSPost2010Prop39
140
1.0
102
RTVSPost2010PropOp39
 70
     1
102
RTVSPost2010Prop40
 90
        0
102
RTVSPost2010PropOp40
 70
     1
102
RTVSPost2010Prop41ColorIndex
 90
       18
102
RTVSPost2010Prop41ColorRGB
 90
        0
102
RTVSPost2010PropOp41
 70
     1
102
RTVSPost2010Prop42
 90
       50
102
RTVSPost2010PropOp42
 70
     1
102
RTVSPost2010Prop43
 90
        3
102
RTVSPost2010PropOp43
 70
     1
102
RTVSPost2010Prop44ColorIndex
 90
        5
102
RTVSPost2010Prop44ColorRGB
 90
      255
102
RTVSPost2010PropOp44
 70
     1
102
RTVSPost2010Prop45
280
     0
102
RTVSPost2010PropOp45
 70
     1
102
RTVSPost2010Prop46
 90
       50
102
RTVSPost2010PropOp46
 70
     1
102
RTVSPost2010Prop47
 90
       50
102
RTVSPost2010PropOp47
 70
     1
102
RTVSPost2010Prop48
 90
       50
102
RTVSPost2010PropOp48
 70
     1
102
RTVSPost2010Prop49
280
     0
102
RTVSPost2010PropOp49
 70
     1
102
RTVSPost2010Prop50
 90
       50
102
RTVSPost2010PropOp50
 70
     1
102
RTVSPost2010Prop51ColorIndex
 90
      256
102
RTVSPost2010Prop51ColorRGB
 90
-16777216
102
RTVSPost2010PropOp51
 70
     0
102
RTVSPost2010Prop52
140
1.0
102
RTVSPost2010PropOp52
 70
     0
102
RTVSPost2010Prop53
 90
        2
102
RTVSPost2010PropOp53
 70
     1
102
RTVSPost2010Prop54
  1
strokes_ogs.tif
102
RTVSPost2010PropOp54
 70
     1
102
RTVSPost2010Prop55
280
     0
102
RTVSPost2010PropOp55
 70
     1
102
RTVSPost2010Prop56
140
1.0
102
RTVSPost2010PropOp56
 70
     1
102
RTVSPost2010Prop57
140
1.0
102
RTVSPost2010PropOp57
 70
     1
  0
XRECORD
  5
1343
102
{ACAD_REACTORS
330
1342
102
}
330
1342
100
AcDbXrecord
280
     1
102
RTVSPropertyOp0
 70
     1
102
RTVSPropertyOp1
 70
     1
102
RTVSPropertyOp2
 70
     1
102
RTVSPropertyOp3
 70
     1
102
RTVSPropertyOp4
 70
     1
102
RTVSPropertyOp5
 70
     1
102
RTVSPropertyOp6
 70
     1
102
RTVSPropertyOp7
 70
     1
102
RTVSPropertyOp8
 70
     1
102
RTVSPropertyOp9
 70
     1
102
RTVSPropertyOp10
 70
     1
102
RTVSPropertyOp11
 70
     1
102
RTVSPropertyOp12
 70
     1
102
RTVSPropertyOp13
 70
     1
102
RTVSPropertyOp14
 70
     1
102
RTVSPropertyOp15
 70
     1
102
RTVSPropertyOp16
 70
     1
102
RTVSPropertyOp17
 70
     1
102
RTVSPropertyOp18
 70
     1
102
RTVSPropertyOp19
 70
     1
102
RTVSPropertyOp20
 70
     1
102
RTVSPropertyOp21
 70
     1
102
RTVSPropertyOp22
 70
     1
102
RTVSPropertyOp23
 70
     1
102
RTVSPropertyOp24
 70
     1
102
RTVSPropertyOp25
 70
     1
102
RTVSPropertyOp26
 70
     1
102
RTVSPropertyOp27
 70
     1
102
RTVSPropertyOp28
 70
     1
102
RTVSPropertyOp29
 70
     1
102
RTVSPropertyOp30
 70
     1
102
RTVSPropertyOp31
 70
     1
102
RTVSPropertyOp32
 70
     1
102
RTVSPropertyOp33
 70
     1
102
RTVSPropertyOp34
 70
     1
102
RTVSPropertyOp35
 70
     1
102
RTVSPropertyOp36
 70
     1
102
RTVSPropertyOp37
 70
     1
102
RTVSPropertyOp38
 70
     1
102
RTVSPropertyOp39
 70
     1
102
RTVSPropertyOp40
 70
     1
102
RTVSPropertyOp41
 70
     1
102
RTVSPropertyOp42
 70
     1
102
RTVSPropertyOp43
 70
     1
102
RTVSPropertyOp44
 70
     1
102
RTVSPropertyOp45
 70
     1
102
RTVSPropertyOp46
 70
     1
102
RTVSPropertyOp47
 70
     1
102
RTVSPropertyOp48
 70
     1
102
RTVSPropertyOp49
 70
     1
102
RTVSPropertyOp50
 70
     1
102
RTVSPropertyOp51
 70
     0
102
RTVSPropertyOp52
 70
     0
102
RTVSPropertyOp53
 70
     1
102
RTVSPropertyOp54
 70
     1
102
RTVSPropertyOp55
 70
     1
102
RTVSPropertyOp56
 70
     1
102
RTVSPropertyOp57
 70
     1
102
RTVSPost2010Prop28
280
     0
102
RTVSPost2010PropOp28
 70
     1
102
RTVSPost2010Prop29
280
     1
102
RTVSPost2010PropOp29
 70
     1
102
RTVSPost2010Prop30
280
     1
102
RTVSPost2010PropOp30
 70
     1
102
RTVSPost2010Prop31
280
     0
102
RTVSPost2010PropOp31
 70
     1
102
RTVSPost2010Prop32
280
     0
102
RTVSPost2010PropOp32
 70
     1
102
RTVSPost2010Prop33
280
     0
102
RTVSPost2010PropOp33
 70
     1
102
RTVSPost2010Prop34
280
     0
102
RTVSPost2010PropOp34
 70
     1
102
RTVSPost2010Prop35
280
     0
102
RTVSPost2010PropOp35
 70
     1
102
RTVSPost2010Prop36
280
     0
102
RTVSPost2010PropOp36
 70
     1
102
RTVSPost2010Prop37
 90
       50
102
RTVSPost2010PropOp37
 70
     1
102
RTVSPost2010Prop38
140
0.0
102
RTVSPost2010PropOp38
 70
     1
102
RTVSPost2010Prop39
140
1.0
102
RTVSPost2010PropOp39
 70
     1
102
RTVSPost2010Prop40
 90
        0
102
RTVSPost2010PropOp40
 70
     1
102
RTVSPost2010Prop41ColorIndex
 90
       18
102
RTVSPost2010Prop41ColorRGB
 90
        0
102
RTVSPost2010PropOp41
 70
     1
102
RTVSPost2010Prop42
 90
       50
102
RTVSPost2010PropOp42
 70
     1
102
RTVSPost2010Prop43
 90
        3
102
RTVSPost2010PropOp43
 70
     1
102
RTVSPost2010Prop44ColorIndex
 90
        5
102
RTVSPost2010Prop44ColorRGB
 90
      255
102
RTVSPost2010PropOp44
 70
     1
102
RTVSPost2010Prop45
280
     0
102
RTVSPost2010PropOp45
 70
     1
102
RTVSPost2010Prop46
 90
       50
102
RTVSPost2010PropOp46
 70
     1
102
RTVSPost2010Prop47
 90
       50
102
RTVSPost2010PropOp47
 70
     1
102
RTVSPost2010Prop48
 90
       50
102
RTVSPost2010PropOp48
 70
     1
102
RTVSPost2010Prop49
280
     0
102
RTVSPost2010PropOp49
 70
     1
102
RTVSPost2010Prop50
 90
       50
102
RTVSPost2010PropOp50
 70
     1
102
RTVSPost2010Prop51ColorIndex
 90
      256
102
RTVSPost2010Prop51ColorRGB
 90
-16777216
102
RTVSPost2010PropOp51
 70
     0
102
RTVSPost2010Prop52
140
1.0
102
RTVSPost2010PropOp52
 70
     0
102
RTVSPost2010Prop53
 90
        2
102
RTVSPost2010PropOp53
 70
     1
102
RTVSPost2010Prop54
  1
strokes_ogs.tif
102
RTVSPost2010PropOp54
 70
     1
102
RTVSPost2010Prop55
280
     0
102
RTVSPost2010PropOp55
 70
     1
102
RTVSPost2010Prop56
140
1.0
102
RTVSPost2010PropOp56
 70
     1
102
RTVSPost2010Prop57
140
1.0
102
RTVSPost2010PropOp57
 70
     1
  0
XRECORD
  5
133D
102
{ACAD_REACTORS
330
133C
102
}
330
133C
100
AcDbXrecord
280
     1
102
RTVSPropertyOp0
 70
     1
102
RTVSPropertyOp1
 70
     1
102
RTVSPropertyOp2
 70
     1
102
RTVSPropertyOp3
 70
     1
102
RTVSPropertyOp4
 70
     1
102
RTVSPropertyOp5
 70
     1
102
RTVSPropertyOp6
 70
     1
102
RTVSPropertyOp7
 70
     1
102
RTVSPropertyOp8
 70
     1
102
RTVSPropertyOp9
 70
     1
102
RTVSPropertyOp10
 70
     1
102
RTVSPropertyOp11
 70
     1
102
RTVSPropertyOp12
 70
     1
102
RTVSPropertyOp13
 70
     1
102
RTVSPropertyOp14
 70
     1
102
RTVSPropertyOp15
 70
     1
102
RTVSPropertyOp16
 70
     1
102
RTVSPropertyOp17
 70
     1
102
RTVSPropertyOp18
 70
     1
102
RTVSPropertyOp19
 70
     1
102
RTVSPropertyOp20
 70
     1
102
RTVSPropertyOp21
 70
     1
102
RTVSPropertyOp22
 70
     1
102
RTVSPropertyOp23
 70
     1
102
RTVSPropertyOp24
 70
     1
102
RTVSPropertyOp25
 70
     1
102
RTVSPropertyOp26
 70
     1
102
RTVSPropertyOp27
 70
     1
102
RTVSPropertyOp28
 70
     1
102
RTVSPropertyOp29
 70
     1
102
RTVSPropertyOp30
 70
     1
102
RTVSPropertyOp31
 70
     1
102
RTVSPropertyOp32
 70
     1
102
RTVSPropertyOp33
 70
     1
102
RTVSPropertyOp34
 70
     1
102
RTVSPropertyOp35
 70
     1
102
RTVSPropertyOp36
 70
     1
102
RTVSPropertyOp37
 70
     1
102
RTVSPropertyOp38
 70
     1
102
RTVSPropertyOp39
 70
     1
102
RTVSPropertyOp40
 70
     1
102
RTVSPropertyOp41
 70
     1
102
RTVSPropertyOp42
 70
     1
102
RTVSPropertyOp43
 70
     1
102
RTVSPropertyOp44
 70
     1
102
RTVSPropertyOp45
 70
     1
102
RTVSPropertyOp46
 70
     1
102
RTVSPropertyOp47
 70
     1
102
RTVSPropertyOp48
 70
     1
102
RTVSPropertyOp49
 70
     1
102
RTVSPropertyOp50
 70
     1
102
RTVSPropertyOp51
 70
     0
102
RTVSPropertyOp52
 70
     0
102
RTVSPropertyOp53
 70
     1
102
RTVSPropertyOp54
 70
     1
102
RTVSPropertyOp55
 70
     1
102
RTVSPropertyOp56
 70
     1
102
RTVSPropertyOp57
 70
     1
102
RTVSPost2010Prop28
280
     0
102
RTVSPost2010PropOp28
 70
     1
102
RTVSPost2010Prop29
280
     1
102
RTVSPost2010PropOp29
 70
     1
102
RTVSPost2010Prop30
280
     1
102
RTVSPost2010PropOp30
 70
     1
102
RTVSPost2010Prop31
280
     0
102
RTVSPost2010PropOp31
 70
     1
102
RTVSPost2010Prop32
280
     0
102
RTVSPost2010PropOp32
 70
     1
102
RTVSPost2010Prop33
280
     0
102
RTVSPost2010PropOp33
 70
     1
102
RTVSPost2010Prop34
280
     0
102
RTVSPost2010PropOp34
 70
     1
102
RTVSPost2010Prop35
280
     0
102
RTVSPost2010PropOp35
 70
     1
102
RTVSPost2010Prop36
280
     0
102
RTVSPost2010PropOp36
 70
     1
102
RTVSPost2010Prop37
 90
       50
102
RTVSPost2010PropOp37
 70
     1
102
RTVSPost2010Prop38
140
0.0
102
RTVSPost2010PropOp38
 70
     1
102
RTVSPost2010Prop39
140
1.0
102
RTVSPost2010PropOp39
 70
     1
102
RTVSPost2010Prop40
 90
        0
102
RTVSPost2010PropOp40
 70
     1
102
RTVSPost2010Prop41ColorIndex
 90
       18
102
RTVSPost2010Prop41ColorRGB
 90
        0
102
RTVSPost2010PropOp41
 70
     1
102
RTVSPost2010Prop42
 90
       50
102
RTVSPost2010PropOp42
 70
     1
102
RTVSPost2010Prop43
 90
        3
102
RTVSPost2010PropOp43
 70
     1
102
RTVSPost2010Prop44ColorIndex
 90
        5
102
RTVSPost2010Prop44ColorRGB
 90
      255
102
RTVSPost2010PropOp44
 70
     1
102
RTVSPost2010Prop45
280
     0
102
RTVSPost2010PropOp45
 70
     1
102
RTVSPost2010Prop46
 90
       50
102
RTVSPost2010PropOp46
 70
     1
102
RTVSPost2010Prop47
 90
       50
102
RTVSPost2010PropOp47
 70
     1
102
RTVSPost2010Prop48
 90
       50
102
RTVSPost2010PropOp48
 70
     1
102
RTVSPost2010Prop49
280
     0
102
RTVSPost2010PropOp49
 70
     1
102
RTVSPost2010Prop50
 90
       50
102
RTVSPost2010PropOp50
 70
     1
102
RTVSPost2010Prop51ColorIndex
 90
      256
102
RTVSPost2010Prop51ColorRGB
 90
-16777216
102
RTVSPost2010PropOp51
 70
     0
102
RTVSPost2010Prop52
140
1.0
102
RTVSPost2010PropOp52
 70
     0
102
RTVSPost2010Prop53
 90
        2
102
RTVSPost2010PropOp53
 70
     1
102
RTVSPost2010Prop54
  1
strokes_ogs.tif
102
RTVSPost2010PropOp54
 70
     1
102
RTVSPost2010Prop55
280
     0
102
RTVSPost2010PropOp55
 70
     1
102
RTVSPost2010Prop56
140
1.0
102
RTVSPost2010PropOp56
 70
     1
102
RTVSPost2010Prop57
140
1.0
102
RTVSPost2010PropOp57
 70
     1
  0
XRECORD
  5
133F
102
{ACAD_REACTORS
330
133E
102
}
330
133E
100
AcDbXrecord
280
     1
102
RTVSPropertyOp0
 70
     1
102
RTVSPropertyOp1
 70
     1
102
RTVSPropertyOp2
 70
     1
102
RTVSPropertyOp3
 70
     1
102
RTVSPropertyOp4
 70
     1
102
RTVSPropertyOp5
 70
     1
102
RTVSPropertyOp6
 70
     1
102
RTVSPropertyOp7
 70
     1
102
RTVSPropertyOp8
 70
     1
102
RTVSPropertyOp9
 70
     1
102
RTVSPropertyOp10
 70
     1
102
RTVSPropertyOp11
 70
     1
102
RTVSPropertyOp12
 70
     1
102
RTVSPropertyOp13
 70
     1
102
RTVSPropertyOp14
 70
     1
102
RTVSPropertyOp15
 70
     1
102
RTVSPropertyOp16
 70
     1
102
RTVSPropertyOp17
 70
     1
102
RTVSPropertyOp18
 70
     1
102
RTVSPropertyOp19
 70
     1
102
RTVSPropertyOp20
 70
     1
102
RTVSPropertyOp21
 70
     1
102
RTVSPropertyOp22
 70
     1
102
RTVSPropertyOp23
 70
     1
102
RTVSPropertyOp24
 70
     1
102
RTVSPropertyOp25
 70
     1
102
RTVSPropertyOp26
 70
     1
102
RTVSPropertyOp27
 70
     1
102
RTVSPropertyOp28
 70
     1
102
RTVSPropertyOp29
 70
     1
102
RTVSPropertyOp30
 70
     1
102
RTVSPropertyOp31
 70
     1
102
RTVSPropertyOp32
 70
     1
102
RTVSPropertyOp33
 70
     1
102
RTVSPropertyOp34
 70
     1
102
RTVSPropertyOp35
 70
     1
102
RTVSPropertyOp36
 70
     1
102
RTVSPropertyOp37
 70
     1
102
RTVSPropertyOp38
 70
     1
102
RTVSPropertyOp39
 70
     1
102
RTVSPropertyOp40
 70
     1
102
RTVSPropertyOp41
 70
     1
102
RTVSPropertyOp42
 70
     1
102
RTVSPropertyOp43
 70
     1
102
RTVSPropertyOp44
 70
     1
102
RTVSPropertyOp45
 70
     1
102
RTVSPropertyOp46
 70
     1
102
RTVSPropertyOp47
 70
     1
102
RTVSPropertyOp48
 70
     1
102
RTVSPropertyOp49
 70
     1
102
RTVSPropertyOp50
 70
     1
102
RTVSPropertyOp51
 70
     0
102
RTVSPropertyOp52
 70
     0
102
RTVSPropertyOp53
 70
     1
102
RTVSPropertyOp54
 70
     1
102
RTVSPropertyOp55
 70
     1
102
RTVSPropertyOp56
 70
     1
102
RTVSPropertyOp57
 70
     1
102
RTVSPost2010Prop28
280
     0
102
RTVSPost2010PropOp28
 70
     1
102
RTVSPost2010Prop29
280
     1
102
RTVSPost2010PropOp29
 70
     1
102
RTVSPost2010Prop30
280
     1
102
RTVSPost2010PropOp30
 70
     1
102
RTVSPost2010Prop31
280
     0
102
RTVSPost2010PropOp31
 70
     1
102
RTVSPost2010Prop32
280
     0
102
RTVSPost2010PropOp32
 70
     1
102
RTVSPost2010Prop33
280
     0
102
RTVSPost2010PropOp33
 70
     1
102
RTVSPost2010Prop34
280
     0
102
RTVSPost2010PropOp34
 70
     1
102
RTVSPost2010Prop35
280
     0
102
RTVSPost2010PropOp35
 70
     1
102
RTVSPost2010Prop36
280
     0
102
RTVSPost2010PropOp36
 70
     1
102
RTVSPost2010Prop37
 90
       50
102
RTVSPost2010PropOp37
 70
     1
102
RTVSPost2010Prop38
140
0.0
102
RTVSPost2010PropOp38
 70
     1
102
RTVSPost2010Prop39
140
1.0
102
RTVSPost2010PropOp39
 70
     1
102
RTVSPost2010Prop40
 90
        0
102
RTVSPost2010PropOp40
 70
     1
102
RTVSPost2010Prop41ColorIndex
 90
       18
102
RTVSPost2010Prop41ColorRGB
 90
        0
102
RTVSPost2010PropOp41
 70
     1
102
RTVSPost2010Prop42
 90
       50
102
RTVSPost2010PropOp42
 70
     1
102
RTVSPost2010Prop43
 90
        3
102
RTVSPost2010PropOp43
 70
     1
102
RTVSPost2010Prop44ColorIndex
 90
        5
102
RTVSPost2010Prop44ColorRGB
 90
      255
102
RTVSPost2010PropOp44
 70
     1
102
RTVSPost2010Prop45
280
     0
102
RTVSPost2010PropOp45
 70
     1
102
RTVSPost2010Prop46
 90
       50
102
RTVSPost2010PropOp46
 70
     1
102
RTVSPost2010Prop47
 90
       50
102
RTVSPost2010PropOp47
 70
     1
102
RTVSPost2010Prop48
 90
       50
102
RTVSPost2010PropOp48
 70
     1
102
RTVSPost2010Prop49
280
     0
102
RTVSPost2010PropOp49
 70
     1
102
RTVSPost2010Prop50
 90
       50
102
RTVSPost2010PropOp50
 70
     1
102
RTVSPost2010Prop51ColorIndex
 90
      256
102
RTVSPost2010Prop51ColorRGB
 90
-16777216
102
RTVSPost2010PropOp51
 70
     0
102
RTVSPost2010Prop52
140
1.0
102
RTVSPost2010PropOp52
 70
     0
102
RTVSPost2010Prop53
 90
        2
102
RTVSPost2010PropOp53
 70
     1
102
RTVSPost2010Prop54
  1
strokes_ogs.tif
102
RTVSPost2010PropOp54
 70
     1
102
RTVSPost2010Prop55
280
     0
102
RTVSPost2010PropOp55
 70
     1
102
RTVSPost2010Prop56
140
1.0
102
RTVSPost2010PropOp56
 70
     1
102
RTVSPost2010Prop57
140
1.0
102
RTVSPost2010PropOp57
 70
     1
  0
XRECORD
  5
132F
102
{ACAD_REACTORS
330
132E
102
}
330
132E
100
AcDbXrecord
280
     1
102
RTVSPropertyOp0
 70
     1
102
RTVSPropertyOp1
 70
     1
102
RTVSPropertyOp2
 70
     1
102
RTVSPropertyOp3
 70
     1
102
RTVSPropertyOp4
 70
     1
102
RTVSPropertyOp5
 70
     1
102
RTVSPropertyOp6
 70
     1
102
RTVSPropertyOp7
 70
     1
102
RTVSPropertyOp8
 70
     1
102
RTVSPropertyOp9
 70
     1
102
RTVSPropertyOp10
 70
     1
102
RTVSPropertyOp11
 70
     1
102
RTVSPropertyOp12
 70
     1
102
RTVSPropertyOp13
 70
     1
102
RTVSPropertyOp14
 70
     1
102
RTVSPropertyOp15
 70
     1
102
RTVSPropertyOp16
 70
     1
102
RTVSPropertyOp17
 70
     1
102
RTVSPropertyOp18
 70
     1
102
RTVSPropertyOp19
 70
     1
102
RTVSPropertyOp20
 70
     1
102
RTVSPropertyOp21
 70
     1
102
RTVSPropertyOp22
 70
     1
102
RTVSPropertyOp23
 70
     1
102
RTVSPropertyOp24
 70
     1
102
RTVSPropertyOp25
 70
     1
102
RTVSPropertyOp26
 70
     1
102
RTVSPropertyOp27
 70
     1
102
RTVSPropertyOp28
 70
     1
102
RTVSPropertyOp29
 70
     1
102
RTVSPropertyOp30
 70
     1
102
RTVSPropertyOp31
 70
     1
102
RTVSPropertyOp32
 70
     1
102
RTVSPropertyOp33
 70
     1
102
RTVSPropertyOp34
 70
     1
102
RTVSPropertyOp35
 70
     1
102
RTVSPropertyOp36
 70
     1
102
RTVSPropertyOp37
 70
     1
102
RTVSPropertyOp38
 70
     1
102
RTVSPropertyOp39
 70
     1
102
RTVSPropertyOp40
 70
     1
102
RTVSPropertyOp41
 70
     1
102
RTVSPropertyOp42
 70
     1
102
RTVSPropertyOp43
 70
     1
102
RTVSPropertyOp44
 70
     1
102
RTVSPropertyOp45
 70
     1
102
RTVSPropertyOp46
 70
     1
102
RTVSPropertyOp47
 70
     1
102
RTVSPropertyOp48
 70
     1
102
RTVSPropertyOp49
 70
     1
102
RTVSPropertyOp50
 70
     1
102
RTVSPropertyOp51
 70
     0
102
RTVSPropertyOp52
 70
     0
102
RTVSPropertyOp53
 70
     1
102
RTVSPropertyOp54
 70
     1
102
RTVSPropertyOp55
 70
     1
102
RTVSPropertyOp56
 70
     1
102
RTVSPropertyOp57
 70
     1
102
RTVSPost2010Prop28
280
     0
102
RTVSPost2010PropOp28
 70
     1
102
RTVSPost2010Prop29
280
     1
102
RTVSPost2010PropOp29
 70
     1
102
RTVSPost2010Prop30
280
     1
102
RTVSPost2010PropOp30
 70
     1
102
RTVSPost2010Prop31
280
     0
102
RTVSPost2010PropOp31
 70
     1
102
RTVSPost2010Prop32
280
     0
102
RTVSPost2010PropOp32
 70
     1
102
RTVSPost2010Prop33
280
     0
102
RTVSPost2010PropOp33
 70
     1
102
RTVSPost2010Prop34
280
     0
102
RTVSPost2010PropOp34
 70
     1
102
RTVSPost2010Prop35
280
     0
102
RTVSPost2010PropOp35
 70
     1
102
RTVSPost2010Prop36
280
     0
102
RTVSPost2010PropOp36
 70
     1
102
RTVSPost2010Prop37
 90
       50
102
RTVSPost2010PropOp37
 70
     1
102
RTVSPost2010Prop38
140
0.0
102
RTVSPost2010PropOp38
 70
     1
102
RTVSPost2010Prop39
140
1.0
102
RTVSPost2010PropOp39
 70
     1
102
RTVSPost2010Prop40
 90
        0
102
RTVSPost2010PropOp40
 70
     1
102
RTVSPost2010Prop41ColorIndex
 90
       18
102
RTVSPost2010Prop41ColorRGB
 90
        0
102
RTVSPost2010PropOp41
 70
     1
102
RTVSPost2010Prop42
 90
       50
102
RTVSPost2010PropOp42
 70
     1
102
RTVSPost2010Prop43
 90
        3
102
RTVSPost2010PropOp43
 70
     1
102
RTVSPost2010Prop44ColorIndex
 90
        5
102
RTVSPost2010Prop44ColorRGB
 90
      255
102
RTVSPost2010PropOp44
 70
     1
102
RTVSPost2010Prop45
280
     0
102
RTVSPost2010PropOp45
 70
     1
102
RTVSPost2010Prop46
 90
       50
102
RTVSPost2010PropOp46
 70
     1
102
RTVSPost2010Prop47
 90
       50
102
RTVSPost2010PropOp47
 70
     1
102
RTVSPost2010Prop48
 90
       50
102
RTVSPost2010PropOp48
 70
     1
102
RTVSPost2010Prop49
280
     0
102
RTVSPost2010PropOp49
 70
     1
102
RTVSPost2010Prop50
 90
       50
102
RTVSPost2010PropOp50
 70
     1
102
RTVSPost2010Prop51ColorIndex
 90
      256
102
RTVSPost2010Prop51ColorRGB
 90
-16777216
102
RTVSPost2010PropOp51
 70
     0
102
RTVSPost2010Prop52
140
1.0
102
RTVSPost2010PropOp52
 70
     0
102
RTVSPost2010Prop53
 90
        2
102
RTVSPost2010PropOp53
 70
     1
102
RTVSPost2010Prop54
  1
strokes_ogs.tif
102
RTVSPost2010PropOp54
 70
     1
102
RTVSPost2010Prop55
280
     0
102
RTVSPost2010PropOp55
 70
     1
102
RTVSPost2010Prop56
140
1.0
102
RTVSPost2010PropOp56
 70
     1
102
RTVSPost2010Prop57
140
1.0
102
RTVSPost2010PropOp57
 70
     1
  0
XRECORD
  5
1321
102
{ACAD_REACTORS
330
1320
102
}
330
1320
100
AcDbXrecord
280
     1
102
RTVSPropertyOp0
 70
     1
102
RTVSPropertyOp1
 70
     1
102
RTVSPropertyOp2
 70
     1
102
RTVSPropertyOp3
 70
     1
102
RTVSPropertyOp4
 70
     1
102
RTVSPropertyOp5
 70
     1
102
RTVSPropertyOp6
 70
     1
102
RTVSPropertyOp7
 70
     1
102
RTVSPropertyOp8
 70
     1
102
RTVSPropertyOp9
 70
     1
102
RTVSPropertyOp10
 70
     1
102
RTVSPropertyOp11
 70
     1
102
RTVSPropertyOp12
 70
     1
102
RTVSPropertyOp13
 70
     1
102
RTVSPropertyOp14
 70
     1
102
RTVSPropertyOp15
 70
     1
102
RTVSPropertyOp16
 70
     1
102
RTVSPropertyOp17
 70
     1
102
RTVSPropertyOp18
 70
     1
102
RTVSPropertyOp19
 70
     1
102
RTVSPropertyOp20
 70
     1
102
RTVSPropertyOp21
 70
     1
102
RTVSPropertyOp22
 70
     1
102
RTVSPropertyOp23
 70
     1
102
RTVSPropertyOp24
 70
     1
102
RTVSPropertyOp25
 70
     1
102
RTVSPropertyOp26
 70
     1
102
RTVSPropertyOp27
 70
     1
102
RTVSPropertyOp28
 70
     1
102
RTVSPropertyOp29
 70
     1
102
RTVSPropertyOp30
 70
     1
102
RTVSPropertyOp31
 70
     1
102
RTVSPropertyOp32
 70
     1
102
RTVSPropertyOp33
 70
     1
102
RTVSPropertyOp34
 70
     1
102
RTVSPropertyOp35
 70
     1
102
RTVSPropertyOp36
 70
     1
102
RTVSPropertyOp37
 70
     1
102
RTVSPropertyOp38
 70
     1
102
RTVSPropertyOp39
 70
     1
102
RTVSPropertyOp40
 70
     1
102
RTVSPropertyOp41
 70
     1
102
RTVSPropertyOp42
 70
     1
102
RTVSPropertyOp43
 70
     1
102
RTVSPropertyOp44
 70
     1
102
RTVSPropertyOp45
 70
     1
102
RTVSPropertyOp46
 70
     1
102
RTVSPropertyOp47
 70
     1
102
RTVSPropertyOp48
 70
     1
102
RTVSPropertyOp49
 70
     1
102
RTVSPropertyOp50
 70
     1
102
RTVSPropertyOp51
 70
     0
102
RTVSPropertyOp52
 70
     0
102
RTVSPropertyOp53
 70
     1
102
RTVSPropertyOp54
 70
     1
102
RTVSPropertyOp55
 70
     1
102
RTVSPropertyOp56
 70
     1
102
RTVSPropertyOp57
 70
     1
102
RTVSPost2010Prop28
280
     0
102
RTVSPost2010PropOp28
 70
     1
102
RTVSPost2010Prop29
280
     1
102
RTVSPost2010PropOp29
 70
     1
102
RTVSPost2010Prop30
280
     1
102
RTVSPost2010PropOp30
 70
     1
102
RTVSPost2010Prop31
280
     0
102
RTVSPost2010PropOp31
 70
     1
102
RTVSPost2010Prop32
280
     0
102
RTVSPost2010PropOp32
 70
     1
102
RTVSPost2010Prop33
280
     0
102
RTVSPost2010PropOp33
 70
     1
102
RTVSPost2010Prop34
280
     0
102
RTVSPost2010PropOp34
 70
     1
102
RTVSPost2010Prop35
280
     0
102
RTVSPost2010PropOp35
 70
     1
102
RTVSPost2010Prop36
280
     0
102
RTVSPost2010PropOp36
 70
     1
102
RTVSPost2010Prop37
 90
       50
102
RTVSPost2010PropOp37
 70
     1
102
RTVSPost2010Prop38
140
0.0
102
RTVSPost2010PropOp38
 70
     1
102
RTVSPost2010Prop39
140
1.0
102
RTVSPost2010PropOp39
 70
     1
102
RTVSPost2010Prop40
 90
        0
102
RTVSPost2010PropOp40
 70
     1
102
RTVSPost2010Prop41ColorIndex
 90
       18
102
RTVSPost2010Prop41ColorRGB
 90
        0
102
RTVSPost2010PropOp41
 70
     1
102
RTVSPost2010Prop42
 90
       50
102
RTVSPost2010PropOp42
 70
     1
102
RTVSPost2010Prop43
 90
        3
102
RTVSPost2010PropOp43
 70
     1
102
RTVSPost2010Prop44ColorIndex
 90
        5
102
RTVSPost2010Prop44ColorRGB
 90
      255
102
RTVSPost2010PropOp44
 70
     1
102
RTVSPost2010Prop45
280
     0
102
RTVSPost2010PropOp45
 70
     1
102
RTVSPost2010Prop46
 90
       50
102
RTVSPost2010PropOp46
 70
     1
102
RTVSPost2010Prop47
 90
       50
102
RTVSPost2010PropOp47
 70
     1
102
RTVSPost2010Prop48
 90
       50
102
RTVSPost2010PropOp48
 70
     1
102
RTVSPost2010Prop49
280
     0
102
RTVSPost2010PropOp49
 70
     1
102
RTVSPost2010Prop50
 90
       50
102
RTVSPost2010PropOp50
 70
     1
102
RTVSPost2010Prop51ColorIndex
 90
      256
102
RTVSPost2010Prop51ColorRGB
 90
-16777216
102
RTVSPost2010PropOp51
 70
     0
102
RTVSPost2010Prop52
140
1.0
102
RTVSPost2010PropOp52
 70
     0
102
RTVSPost2010Prop53
 90
        2
102
RTVSPost2010PropOp53
 70
     1
102
RTVSPost2010Prop54
  1
strokes_ogs.tif
102
RTVSPost2010PropOp54
 70
     1
102
RTVSPost2010Prop55
280
     0
102
RTVSPost2010PropOp55
 70
     1
102
RTVSPost2010Prop56
140
1.0
102
RTVSPost2010PropOp56
 70
     1
102
RTVSPost2010Prop57
140
1.0
102
RTVSPost2010PropOp57
 70
     1
  0
XRECORD
  5
1341
102
{ACAD_REACTORS
330
1340
102
}
330
1340
100
AcDbXrecord
280
     1
102
RTVSPropertyOp0
 70
     1
102
RTVSPropertyOp1
 70
     1
102
RTVSPropertyOp2
 70
     1
102
RTVSPropertyOp3
 70
     1
102
RTVSPropertyOp4
 70
     1
102
RTVSPropertyOp5
 70
     1
102
RTVSPropertyOp6
 70
     1
102
RTVSPropertyOp7
 70
     1
102
RTVSPropertyOp8
 70
     1
102
RTVSPropertyOp9
 70
     1
102
RTVSPropertyOp10
 70
     1
102
RTVSPropertyOp11
 70
     1
102
RTVSPropertyOp12
 70
     1
102
RTVSPropertyOp13
 70
     1
102
RTVSPropertyOp14
 70
     1
102
RTVSPropertyOp15
 70
     1
102
RTVSPropertyOp16
 70
     1
102
RTVSPropertyOp17
 70
     1
102
RTVSPropertyOp18
 70
     1
102
RTVSPropertyOp19
 70
     1
102
RTVSPropertyOp20
 70
     1
102
RTVSPropertyOp21
 70
     1
102
RTVSPropertyOp22
 70
     1
102
RTVSPropertyOp23
 70
     1
102
RTVSPropertyOp24
 70
     1
102
RTVSPropertyOp25
 70
     1
102
RTVSPropertyOp26
 70
     1
102
RTVSPropertyOp27
 70
     1
102
RTVSPropertyOp28
 70
     1
102
RTVSPropertyOp29
 70
     1
102
RTVSPropertyOp30
 70
     1
102
RTVSPropertyOp31
 70
     1
102
RTVSPropertyOp32
 70
     1
102
RTVSPropertyOp33
 70
     1
102
RTVSPropertyOp34
 70
     1
102
RTVSPropertyOp35
 70
     1
102
RTVSPropertyOp36
 70
     1
102
RTVSPropertyOp37
 70
     1
102
RTVSPropertyOp38
 70
     1
102
RTVSPropertyOp39
 70
     1
102
RTVSPropertyOp40
 70
     1
102
RTVSPropertyOp41
 70
     1
102
RTVSPropertyOp42
 70
     1
102
RTVSPropertyOp43
 70
     1
102
RTVSPropertyOp44
 70
     1
102
RTVSPropertyOp45
 70
     1
102
RTVSPropertyOp46
 70
     1
102
RTVSPropertyOp47
 70
     1
102
RTVSPropertyOp48
 70
     1
102
RTVSPropertyOp49
 70
     1
102
RTVSPropertyOp50
 70
     1
102
RTVSPropertyOp51
 70
     0
102
RTVSPropertyOp52
 70
     0
102
RTVSPropertyOp53
 70
     1
102
RTVSPropertyOp54
 70
     1
102
RTVSPropertyOp55
 70
     1
102
RTVSPropertyOp56
 70
     1
102
RTVSPropertyOp57
 70
     1
102
RTVSPost2010Prop28
280
     0
102
RTVSPost2010PropOp28
 70
     1
102
RTVSPost2010Prop29
280
     1
102
RTVSPost2010PropOp29
 70
     1
102
RTVSPost2010Prop30
280
     1
102
RTVSPost2010PropOp30
 70
     1
102
RTVSPost2010Prop31
280
     0
102
RTVSPost2010PropOp31
 70
     1
102
RTVSPost2010Prop32
280
     0
102
RTVSPost2010PropOp32
 70
     1
102
RTVSPost2010Prop33
280
     0
102
RTVSPost2010PropOp33
 70
     1
102
RTVSPost2010Prop34
280
     0
102
RTVSPost2010PropOp34
 70
     1
102
RTVSPost2010Prop35
280
     0
102
RTVSPost2010PropOp35
 70
     1
102
RTVSPost2010Prop36
280
     0
102
RTVSPost2010PropOp36
 70
     1
102
RTVSPost2010Prop37
 90
       50
102
RTVSPost2010PropOp37
 70
     1
102
RTVSPost2010Prop38
140
0.0
102
RTVSPost2010PropOp38
 70
     1
102
RTVSPost2010Prop39
140
1.0
102
RTVSPost2010PropOp39
 70
     1
102
RTVSPost2010Prop40
 90
        0
102
RTVSPost2010PropOp40
 70
     1
102
RTVSPost2010Prop41ColorIndex
 90
       18
102
RTVSPost2010Prop41ColorRGB
 90
        0
102
RTVSPost2010PropOp41
 70
     1
102
RTVSPost2010Prop42
 90
       50
102
RTVSPost2010PropOp42
 70
     1
102
RTVSPost2010Prop43
 90
        3
102
RTVSPost2010PropOp43
 70
     1
102
RTVSPost2010Prop44ColorIndex
 90
        5
102
RTVSPost2010Prop44ColorRGB
 90
      255
102
RTVSPost2010PropOp44
 70
     1
102
RTVSPost2010Prop45
280
     0
102
RTVSPost2010PropOp45
 70
     1
102
RTVSPost2010Prop46
 90
       50
102
RTVSPost2010PropOp46
 70
     1
102
RTVSPost2010Prop47
 90
       50
102
RTVSPost2010PropOp47
 70
     1
102
RTVSPost2010Prop48
 90
       50
102
RTVSPost2010PropOp48
 70
     1
102
RTVSPost2010Prop49
280
     0
102
RTVSPost2010PropOp49
 70
     1
102
RTVSPost2010Prop50
 90
       50
102
RTVSPost2010PropOp50
 70
     1
102
RTVSPost2010Prop51ColorIndex
 90
      256
102
RTVSPost2010Prop51ColorRGB
 90
-16777216
102
RTVSPost2010PropOp51
 70
     0
102
RTVSPost2010Prop52
140
1.0
102
RTVSPost2010PropOp52
 70
     0
102
RTVSPost2010Prop53
 90
        2
102
RTVSPost2010PropOp53
 70
     1
102
RTVSPost2010Prop54
  1
strokes_ogs.tif
102
RTVSPost2010PropOp54
 70
     1
102
RTVSPost2010Prop55
280
     0
102
RTVSPost2010PropOp55
 70
     1
102
RTVSPost2010Prop56
140
1.0
102
RTVSPost2010PropOp56
 70
     1
102
RTVSPost2010Prop57
140
1.0
102
RTVSPost2010PropOp57
 70
     1
  0
ENDSEC
  0
EOF
